ISO-10303-21;
HEADER;
FILE_DESCRIPTION (( 'STEP AP214' ),
    '1' );
FILE_NAME ('01587.STEP',
    '2023-06-22T14:38:23',
    ( '' ),
    ( '' ),
    'SwSTEP 2.0',
    'SolidWorks 2023',
    '' );
FILE_SCHEMA (( 'AUTOMOTIVE_DESIGN' ));
ENDSEC;

DATA;
#1 = CIRCLE ( 'NONE', #172, 0.3125000000000000555 ) ;
#2 = FILL_AREA_STYLE_COLOUR ( '', #195 ) ;
#3 = FILL_AREA_STYLE ('',( #30 ) ) ;
#4 = CLOSED_SHELL ( 'NONE', ( #150, #162, #259, #186 ) ) ;
#5 =( LENGTH_UNIT ( ) NAMED_UNIT ( * ) SI_UNIT ( $, .METRE. ) );
#6 = STYLED_ITEM ( 'NONE', ( #243 ), #271 ) ;
#7 = DIRECTION ( 'NONE',  ( -3.265724797726275178E-17, 1.000000000000000000, -0.000000000000000000 ) ) ;
#8 = DIRECTION ( 'NONE',  ( -3.265724797726275178E-17, 1.000000000000000000, -0.000000000000000000 ) ) ;
#9 = PLANE ( 'NONE',  #182 ) ;
#10 = AXIS2_PLACEMENT_3D ( 'NONE', #256, #99, #208 ) ;
#11 = PRODUCT_DEFINITION_FORMATION_WITH_SPECIFIED_SOURCE ( 'ANY', '', #269, .NOT_KNOWN. ) ;
#12 =( NAMED_UNIT ( * ) SI_UNIT ( $, .STERADIAN. ) SOLID_ANGLE_UNIT ( ) );
#13 = DIRECTION ( 'NONE',  ( -3.265724797726275178E-17, 1.000000000000000000, -0.000000000000000000 ) ) ;
#14 = SHAPE_DEFINITION_REPRESENTATION ( #41, #25 ) ;
#15 = PRESENTATION_LAYER_ASSIGNMENT (  '', '', ( #134 ) ) ;
#16 =( GEOMETRIC_REPRESENTATION_CONTEXT ( 3 ) GLOBAL_UNCERTAINTY_ASSIGNED_CONTEXT ( ( #118 ) ) GLOBAL_UNIT_ASSIGNED_CONTEXT ( ( #65, #104, #301 ) ) REPRESENTATION_CONTEXT ( 'NONE', 'WORKASPACE' ) );
#17 = ORIENTED_EDGE ( 'NONE', *, *, #47, .F. ) ;
#18 = FILL_AREA_STYLE_COLOUR ( '', #200 ) ;
#19 = FILL_AREA_STYLE_COLOUR ( '', #305 ) ;
#20 = SURFACE_SIDE_STYLE ('',( #67 ) ) ;
#21 = VERTEX_POINT ( 'NONE', #202 ) ;
#22 = ADVANCED_FACE ( 'NONE', ( #157 ), #197, .T. ) ;
#23 = VERTEX_POINT ( 'NONE', #233 ) ;
#24 = EDGE_CURVE ( 'NONE', #109, #23, #1, .T. ) ;
#25 = ADVANCED_BREP_SHAPE_REPRESENTATION ( '01587', ( #97, #183, #253 ), #151 ) ;
#26 = DIMENSIONAL_EXPONENTS ( 1.000000000000000000, 0.000000000000000000, 0.000000000000000000, 0.000000000000000000, 0.000000000000000000, 0.000000000000000000, 0.000000000000000000 ) ;
#27 = DIRECTION ( 'NONE',  ( -1.000000000000000000, 0.000000000000000000, 0.000000000000000000 ) ) ;
#28 = AXIS2_PLACEMENT_3D ( 'NONE', #275, #268, #246 ) ;
#29 = DIRECTION ( 'NONE',  ( -1.000000000000000000, -3.265724797726275178E-17, 0.000000000000000000 ) ) ;
#30 = FILL_AREA_STYLE_COLOUR ( '', #61 ) ;
#31 = UNCERTAINTY_MEASURE_WITH_UNIT (LENGTH_MEASURE( 1.000000000000000082E-05 ), #84, 'distance_accuracy_value', 'NONE');
#32 = AXIS2_PLACEMENT_3D ( 'NONE', #74, #121, #27 ) ;
#33 = LENGTH_MEASURE_WITH_UNIT ( LENGTH_MEASURE( 0.02539999999999999897 ), #5 );
#34 = CARTESIAN_POINT ( 'NONE',  ( -6.123233995736766036E-17, 4.000000000000000000, 0.000000000000000000 ) ) ;
#35 = CARTESIAN_POINT ( 'NONE',  ( 0.3125000000000000000, 4.000000000000000000, 0.000000000000000000 ) ) ;
#36 =( NAMED_UNIT ( * ) SI_UNIT ( $, .STERADIAN. ) SOLID_ANGLE_UNIT ( ) );
#37 = LINE ( 'NONE', #146, #96 ) ;
#38 = AXIS2_PLACEMENT_3D ( 'NONE', #215, #8, #205 ) ;
#39 =( CONVERSION_BASED_UNIT ( 'INCH', #78 ) LENGTH_UNIT ( ) NAMED_UNIT ( #93 ) );
#40 = DIRECTION ( 'NONE',  ( -0.000000000000000000, -1.000000000000000000, -0.000000000000000000 ) ) ;
#41 = PRODUCT_DEFINITION_SHAPE ( 'NONE', 'NONE',  #95 ) ;
#42 = EDGE_LOOP ( 'NONE', ( #17, #178, #179, #136 ) ) ;
#43 = EDGE_CURVE ( 'NONE', #21, #279, #60, .T. ) ;
#44 = ORIENTED_EDGE ( 'NONE', *, *, #43, .T. ) ;
#45 = MECHANICAL_DESIGN_GEOMETRIC_PRESENTATION_REPRESENTATION (  '', ( #112 ), #81 ) ;
#46 = ORIENTED_EDGE ( 'NONE', *, *, #303, .T. ) ;
#47 = EDGE_CURVE ( 'NONE', #87, #176, #286, .T. ) ;
#48 = CARTESIAN_POINT ( 'NONE',  ( 0.000000000000000000, 2.125000000000000000, -0.3125000000000000000 ) ) ;
#49 = DIMENSIONAL_EXPONENTS ( 1.000000000000000000, 0.000000000000000000, 0.000000000000000000, 0.000000000000000000, 0.000000000000000000, 0.000000000000000000, 0.000000000000000000 ) ;
#50 = UNCERTAINTY_MEASURE_WITH_UNIT (LENGTH_MEASURE( 1.000000000000000082E-05 ), #190, 'distance_accuracy_value', 'NONE');
#51 = CARTESIAN_POINT ( 'NONE',  ( 0.000000000000000000, 2.125000000000000000, 0.000000000000000000 ) ) ;
#52 = DIMENSIONAL_EXPONENTS ( 1.000000000000000000, 0.000000000000000000, 0.000000000000000000, 0.000000000000000000, 0.000000000000000000, 0.000000000000000000, 0.000000000000000000 ) ;
#53 = FILL_AREA_STYLE ('',( #255 ) ) ;
#54 = DIRECTION ( 'NONE',  ( 1.000000000000000000, 3.265724797726275178E-17, 0.000000000000000000 ) ) ;
#55 = SURFACE_SIDE_STYLE ('',( #250 ) ) ;
#56 = PRESENTATION_STYLE_ASSIGNMENT (( #267 ) ) ;
#57 = CYLINDRICAL_SURFACE ( 'NONE', #173, 0.3125000000000000000 ) ;
#58 = CLOSED_SHELL ( 'NONE', ( #271, #22, #218, #199 ) ) ;
#59 = DIRECTION ( 'NONE',  ( 0.000000000000000000, 0.000000000000000000, 1.000000000000000000 ) ) ;
#60 = CIRCLE ( 'NONE', #38, 0.3125000000000000000 ) ;
#61 = COLOUR_RGB ( '',1.000000000000000000, 0.000000000000000000, 0.000000000000000000 ) ;
#62 = FACE_OUTER_BOUND ( 'NONE', #203, .T. ) ;
#63 = EDGE_LOOP ( 'NONE', ( #111, #132 ) ) ;
#64 = AXIS2_PLACEMENT_3D ( 'NONE', #164, #98, #261 ) ;
#65 =( CONVERSION_BASED_UNIT ( 'INCH', #277 ) LENGTH_UNIT ( ) NAMED_UNIT ( #49 ) );
#66 = FILL_AREA_STYLE ('',( #19 ) ) ;
#67 = SURFACE_STYLE_FILL_AREA ( #216 ) ;
#68 = ORIENTED_EDGE ( 'NONE', *, *, #288, .F. ) ;
#69 = EDGE_CURVE ( 'NONE', #23, #109, #187, .T. ) ;
#70 = EDGE_LOOP ( 'NONE', ( #115, #226 ) ) ;
#71 =( LENGTH_UNIT ( ) NAMED_UNIT ( * ) SI_UNIT ( $, .METRE. ) );
#72 = CARTESIAN_POINT ( 'NONE',  ( 3.827021247335478926E-17, 0.000000000000000000, 0.3125000000000000000 ) ) ;
#73 = PRODUCT_DEFINITION_CONTEXT ( 'detailed design', #244, 'design' ) ;
#74 = CARTESIAN_POINT ( 'NONE',  ( 0.000000000000000000, 2.125000000000000000, 0.000000000000000000 ) ) ;
#75 = CARTESIAN_POINT ( 'NONE',  ( 0.000000000000000000, 2.125000000000000000, 0.000000000000000000 ) ) ;
#76 = CARTESIAN_POINT ( 'NONE',  ( 0.000000000000000000, 0.000000000000000000, 0.000000000000000000 ) ) ;
#77 =( NAMED_UNIT ( * ) SI_UNIT ( $, .STERADIAN. ) SOLID_ANGLE_UNIT ( ) );
#78 = LENGTH_MEASURE_WITH_UNIT ( LENGTH_MEASURE( 0.02539999999999999897 ), #128 );
#79 = FACE_OUTER_BOUND ( 'NONE', #113, .T. ) ;
#80 = CARTESIAN_POINT ( 'NONE',  ( 0.000000000000000000, 0.000000000000000000, 0.000000000000000000 ) ) ;
#81 =( GEOMETRIC_REPRESENTATION_CONTEXT ( 3 ) GLOBAL_UNCERTAINTY_ASSIGNED_CONTEXT ( ( #163 ) ) GLOBAL_UNIT_ASSIGNED_CONTEXT ( ( #168, #242, #12 ) ) REPRESENTATION_CONTEXT ( 'NONE', 'WORKASPACE' ) );
#82 = CARTESIAN_POINT ( 'NONE',  ( -0.3125000000000000000, 2.125000000000000000, 0.000000000000000000 ) ) ;
#83 = AXIS2_PLACEMENT_3D ( 'NONE', #249, #298, #217 ) ;
#84 =( CONVERSION_BASED_UNIT ( 'INCH', #198 ) LENGTH_UNIT ( ) NAMED_UNIT ( #131 ) );
#85 = PRESENTATION_LAYER_ASSIGNMENT (  '', '', ( #177 ) ) ;
#86 = ORIENTED_EDGE ( 'NONE', *, *, #239, .T. ) ;
#87 = VERTEX_POINT ( 'NONE', #138 ) ;
#88 = CARTESIAN_POINT ( 'NONE',  ( -0.3125000000000001665, 4.000000000000000000, 0.000000000000000000 ) ) ;
#89 = ORIENTED_EDGE ( 'NONE', *, *, #69, .F. ) ;
#90 = PRESENTATION_LAYER_ASSIGNMENT (  '', '', ( #6 ) ) ;
#91 = CARTESIAN_POINT ( 'NONE',  ( 3.827021247335478926E-17, 0.000000000000000000, 0.3125000000000000000 ) ) ;
#92 = FACE_OUTER_BOUND ( 'NONE', #161, .T. ) ;
#93 = DIMENSIONAL_EXPONENTS ( 1.000000000000000000, 0.000000000000000000, 0.000000000000000000, 0.000000000000000000, 0.000000000000000000, 0.000000000000000000, 0.000000000000000000 ) ;
#94 = SURFACE_SIDE_STYLE ('',( #119 ) ) ;
#95 = PRODUCT_DEFINITION ( 'UNKNOWN', '', #11, #73 ) ;
#96 = VECTOR ( 'NONE', #7, 39.37007874015748143 ) ;
#97 = MANIFOLD_SOLID_BREP ( 'Revolve - Cutting Edge', #58 ) ;
#98 = DIRECTION ( 'NONE',  ( -3.265724797726275178E-17, 1.000000000000000000, -0.000000000000000000 ) ) ;
#99 = DIRECTION ( 'NONE',  ( -3.265724797726275178E-17, 1.000000000000000000, -0.000000000000000000 ) ) ;
#100 = AXIS2_PLACEMENT_3D ( 'NONE', #51, #289, #285 ) ;
#101 = COLOUR_RGB ( '',1.000000000000000000, 0.000000000000000000, 0.000000000000000000 ) ;
#102 = CARTESIAN_POINT ( 'NONE',  ( 0.000000000000000000, 0.000000000000000000, -0.3125000000000000000 ) ) ;
#103 =( LENGTH_UNIT ( ) NAMED_UNIT ( * ) SI_UNIT ( $, .METRE. ) );
#104 =( NAMED_UNIT ( * ) PLANE_ANGLE_UNIT ( ) SI_UNIT ( $, .RADIAN. ) );
#105 = SURFACE_STYLE_FILL_AREA ( #192 ) ;
#106 = DIRECTION ( 'NONE',  ( -1.000000000000000000, 0.000000000000000000, 0.000000000000000000 ) ) ;
#107 = AXIS2_PLACEMENT_3D ( 'NONE', #75, #124, #116 ) ;
#108 =( GEOMETRIC_REPRESENTATION_CONTEXT ( 3 ) GLOBAL_UNCERTAINTY_ASSIGNED_CONTEXT ( ( #110 ) ) GLOBAL_UNIT_ASSIGNED_CONTEXT ( ( #265, #166, #219 ) ) REPRESENTATION_CONTEXT ( 'NONE', 'WORKASPACE' ) );
#109 = VERTEX_POINT ( 'NONE', #88 ) ;
#110 = UNCERTAINTY_MEASURE_WITH_UNIT (LENGTH_MEASURE( 1.000000000000000082E-05 ), #265, 'distance_accuracy_value', 'NONE');
#111 = ORIENTED_EDGE ( 'NONE', *, *, #24, .T. ) ;
#112 = STYLED_ITEM ( 'NONE', ( #278 ), #97 ) ;
#113 = EDGE_LOOP ( 'NONE', ( #231, #46 ) ) ;
#114 = FACE_OUTER_BOUND ( 'NONE', #130, .T. ) ;
#115 = ORIENTED_EDGE ( 'NONE', *, *, #239, .F. ) ;
#116 = DIRECTION ( 'NONE',  ( 0.000000000000000000, -0.000000000000000000, 1.000000000000000000 ) ) ;
#117 = CIRCLE ( 'NONE', #28, 0.3125000000000000000 ) ;
#118 = UNCERTAINTY_MEASURE_WITH_UNIT (LENGTH_MEASURE( 1.000000000000000082E-05 ), #65, 'distance_accuracy_value', 'NONE');
#119 = SURFACE_STYLE_FILL_AREA ( #3 ) ;
#120 = DIMENSIONAL_EXPONENTS ( 1.000000000000000000, 0.000000000000000000, 0.000000000000000000, 0.000000000000000000, 0.000000000000000000, 0.000000000000000000, 0.000000000000000000 ) ;
#121 = DIRECTION ( 'NONE',  ( -3.265724797726275178E-17, 1.000000000000000000, -0.000000000000000000 ) ) ;
#122 = EDGE_CURVE ( 'NONE', #279, #109, #283, .T. ) ;
#123 = PRESENTATION_STYLE_ASSIGNMENT (( #167 ) ) ;
#124 = DIRECTION ( 'NONE',  ( 0.000000000000000000, 1.000000000000000000, 0.000000000000000000 ) ) ;
#125 = DIRECTION ( 'NONE',  ( -3.265724797726275178E-17, 1.000000000000000000, -0.000000000000000000 ) ) ;
#126 =( NAMED_UNIT ( * ) PLANE_ANGLE_UNIT ( ) SI_UNIT ( $, .RADIAN. ) );
#127 =( NAMED_UNIT ( * ) SI_UNIT ( $, .STERADIAN. ) SOLID_ANGLE_UNIT ( ) );
#128 =( LENGTH_UNIT ( ) NAMED_UNIT ( * ) SI_UNIT ( $, .METRE. ) );
#129 = AXIS2_PLACEMENT_3D ( 'NONE', #142, #235, #29 ) ;
#130 = EDGE_LOOP ( 'NONE', ( #276, #284, #280, #304 ) ) ;
#131 = DIMENSIONAL_EXPONENTS ( 1.000000000000000000, 0.000000000000000000, 0.000000000000000000, 0.000000000000000000, 0.000000000000000000, 0.000000000000000000, 0.000000000000000000 ) ;
#132 = ORIENTED_EDGE ( 'NONE', *, *, #69, .T. ) ;
#133 = VERTEX_POINT ( 'NONE', #48 ) ;
#134 = STYLED_ITEM ( 'NONE', ( #306 ), #22 ) ;
#135 =( GEOMETRIC_REPRESENTATION_CONTEXT ( 3 ) GLOBAL_UNCERTAINTY_ASSIGNED_CONTEXT ( ( #234 ) ) GLOBAL_UNIT_ASSIGNED_CONTEXT ( ( #221, #227, #36 ) ) REPRESENTATION_CONTEXT ( 'NONE', 'WORKASPACE' ) );
#136 = ORIENTED_EDGE ( 'NONE', *, *, #303, .F. ) ;
#137 = DIRECTION ( 'NONE',  ( -1.000000000000000000, 0.000000000000000000, 0.000000000000000000 ) ) ;
#138 = CARTESIAN_POINT ( 'NONE',  ( 3.827021247335478926E-17, 2.125000000000000000, 0.3125000000000000000 ) ) ;
#139 = COLOUR_RGB ( '',0.7921568627450980005, 0.8196078431372548767, 0.9333333333333333481 ) ;
#140 = FACE_OUTER_BOUND ( 'NONE', #42, .T. ) ;
#141 = DIMENSIONAL_EXPONENTS ( 1.000000000000000000, 0.000000000000000000, 0.000000000000000000, 0.000000000000000000, 0.000000000000000000, 0.000000000000000000, 0.000000000000000000 ) ;
#142 = CARTESIAN_POINT ( 'NONE',  ( 1.666399758513175262E-34, 2.125000000000000000, 0.000000000000000000 ) ) ;
#143 =( NAMED_UNIT ( * ) SI_UNIT ( $, .STERADIAN. ) SOLID_ANGLE_UNIT ( ) );
#144 = CIRCLE ( 'NONE', #100, 0.3125000000000000000 ) ;
#145 = AXIS2_PLACEMENT_3D ( 'NONE', #248, #40, #175 ) ;
#146 = CARTESIAN_POINT ( 'NONE',  ( 0.3124999999999999445, 4.000000000000000000, 3.827021247335478926E-17 ) ) ;
#147 = SURFACE_STYLE_USAGE ( .BOTH. , #55 ) ;
#148 = EDGE_CURVE ( 'NONE', #279, #21, #158, .T. ) ;
#149 = PRESENTATION_LAYER_ASSIGNMENT (  '', '', ( #112 ) ) ;
#150 = ADVANCED_FACE ( 'NONE', ( #114 ), #185, .T. ) ;
#151 =( GEOMETRIC_REPRESENTATION_CONTEXT ( 3 ) GLOBAL_UNCERTAINTY_ASSIGNED_CONTEXT ( ( #213 ) ) GLOBAL_UNIT_ASSIGNED_CONTEXT ( ( #39, #126, #127 ) ) REPRESENTATION_CONTEXT ( 'NONE', 'WORKASPACE' ) );
#152 = DIRECTION ( 'NONE',  ( -0.000000000000000000, -1.000000000000000000, -0.000000000000000000 ) ) ;
#153 = DIRECTION ( 'NONE',  ( 1.000000000000000000, 0.000000000000000000, 0.000000000000000000 ) ) ;
#154 = EDGE_CURVE ( 'NONE', #87, #133, #144, .T. ) ;
#155 = ORIENTED_EDGE ( 'NONE', *, *, #148, .F. ) ;
#156 =( LENGTH_UNIT ( ) NAMED_UNIT ( * ) SI_UNIT ( $, .METRE. ) );
#157 = FACE_OUTER_BOUND ( 'NONE', #70, .T. ) ;
#158 = CIRCLE ( 'NONE', #32, 0.3125000000000000000 ) ;
#159 = ORIENTED_EDGE ( 'NONE', *, *, #43, .F. ) ;
#160 = AXIS2_PLACEMENT_3D ( 'NONE', #76, #193, #292 ) ;
#161 = EDGE_LOOP ( 'NONE', ( #155, #159 ) ) ;
#162 = ADVANCED_FACE ( 'NONE', ( #92 ), #204, .F. ) ;
#163 = UNCERTAINTY_MEASURE_WITH_UNIT (LENGTH_MEASURE( 1.000000000000000082E-05 ), #168, 'distance_accuracy_value', 'NONE');
#164 = CARTESIAN_POINT ( 'NONE',  ( -6.123233995736766036E-17, 4.000000000000000000, 0.000000000000000000 ) ) ;
#165 = DIRECTION ( 'NONE',  ( -0.000000000000000000, -1.000000000000000000, -0.000000000000000000 ) ) ;
#166 =( NAMED_UNIT ( * ) PLANE_ANGLE_UNIT ( ) SI_UNIT ( $, .RADIAN. ) );
#167 = SURFACE_STYLE_USAGE ( .BOTH. , #308 ) ;
#168 =( CONVERSION_BASED_UNIT ( 'INCH', #260 ) LENGTH_UNIT ( ) NAMED_UNIT ( #52 ) );
#169 = LENGTH_MEASURE_WITH_UNIT ( LENGTH_MEASURE( 0.02539999999999999897 ), #300 );
#170 = PLANE ( 'NONE',  #225 ) ;
#171 = FILL_AREA_STYLE ('',( #18 ) ) ;
#172 = AXIS2_PLACEMENT_3D ( 'NONE', #34, #125, #137 ) ;
#173 = AXIS2_PLACEMENT_3D ( 'NONE', #251, #13, #106 ) ;
#174 = CYLINDRICAL_SURFACE ( 'NONE', #294, 0.3125000000000000000 ) ;
#175 = DIRECTION ( 'NONE',  ( 0.000000000000000000, 0.000000000000000000, -1.000000000000000000 ) ) ;
#176 = VERTEX_POINT ( 'NONE', #91 ) ;
#177 = STYLED_ITEM ( 'NONE', ( #123 ), #183 ) ;
#178 = ORIENTED_EDGE ( 'NONE', *, *, #154, .T. ) ;
#179 = ORIENTED_EDGE ( 'NONE', *, *, #288, .T. ) ;
#180 = VERTEX_POINT ( 'NONE', #287 ) ;
#181 = EDGE_LOOP ( 'NONE', ( #86, #309, #281, #68 ) ) ;
#182 = AXIS2_PLACEMENT_3D ( 'NONE', #210, #257, #238 ) ;
#183 = MANIFOLD_SOLID_BREP ( 'Revolve - Tool Body (Straight Shanked)', #4 ) ;
#184 = EDGE_CURVE ( 'NONE', #21, #23, #37, .T. ) ;
#185 = CYLINDRICAL_SURFACE ( 'NONE', #64, 0.3125000000000000000 ) ;
#186 = ADVANCED_FACE ( 'NONE', ( #211 ), #170, .F. ) ;
#187 = CIRCLE ( 'NONE', #10, 0.3125000000000000555 ) ;
#188 = MECHANICAL_DESIGN_GEOMETRIC_PRESENTATION_REPRESENTATION (  '', ( #264 ), #108 ) ;
#189 = SURFACE_STYLE_FILL_AREA ( #53 ) ;
#190 =( CONVERSION_BASED_UNIT ( 'INCH', #33 ) LENGTH_UNIT ( ) NAMED_UNIT ( #120 ) );
#191 = VECTOR ( 'NONE', #207, 39.37007874015748143 ) ;
#192 = FILL_AREA_STYLE ('',( #222 ) ) ;
#193 = DIRECTION ( 'NONE',  ( -0.000000000000000000, -1.000000000000000000, -0.000000000000000000 ) ) ;
#194 = FACE_OUTER_BOUND ( 'NONE', #181, .T. ) ;
#195 = COLOUR_RGB ( '',0.7921568627450980005, 0.8196078431372548767, 0.9333333333333333481 ) ;
#196 = CIRCLE ( 'NONE', #83, 0.3125000000000000000 ) ;
#197 = PLANE ( 'NONE',  #107 ) ;
#198 = LENGTH_MEASURE_WITH_UNIT ( LENGTH_MEASURE( 0.02539999999999999897 ), #228 );
#199 = ADVANCED_FACE ( 'NONE', ( #79 ), #9, .T. ) ;
#200 = COLOUR_RGB ( '',1.000000000000000000, 0.000000000000000000, 0.000000000000000000 ) ;
#201 = SURFACE_STYLE_FILL_AREA ( #66 ) ;
#202 = CARTESIAN_POINT ( 'NONE',  ( 0.3125000000000000000, 2.125000000000000000, 3.827021247335478926E-17 ) ) ;
#203 = EDGE_LOOP ( 'NONE', ( #307, #44, #229, #89 ) ) ;
#204 = PLANE ( 'NONE',  #129 ) ;
#205 = DIRECTION ( 'NONE',  ( -1.000000000000000000, 0.000000000000000000, 0.000000000000000000 ) ) ;
#206 = PRESENTATION_LAYER_ASSIGNMENT (  '', '', ( #264 ) ) ;
#207 = DIRECTION ( 'NONE',  ( -3.265724797726275178E-17, 1.000000000000000000, -0.000000000000000000 ) ) ;
#208 = DIRECTION ( 'NONE',  ( -1.000000000000000000, 0.000000000000000000, 0.000000000000000000 ) ) ;
#209 =( NAMED_UNIT ( * ) PLANE_ANGLE_UNIT ( ) SI_UNIT ( $, .RADIAN. ) );
#210 = CARTESIAN_POINT ( 'NONE',  ( 0.000000000000000000, 0.000000000000000000, 0.000000000000000000 ) ) ;
#211 = FACE_OUTER_BOUND ( 'NONE', #63, .T. ) ;
#212 = VECTOR ( 'NONE', #293, 39.37007874015748143 ) ;
#213 = UNCERTAINTY_MEASURE_WITH_UNIT (LENGTH_MEASURE( 1.000000000000000082E-05 ), #39, 'distance_accuracy_value', 'NONE');
#214 =( NAMED_UNIT ( * ) PLANE_ANGLE_UNIT ( ) SI_UNIT ( $, .RADIAN. ) );
#215 = CARTESIAN_POINT ( 'NONE',  ( 0.000000000000000000, 2.125000000000000000, 0.000000000000000000 ) ) ;
#216 = FILL_AREA_STYLE ('',( #2 ) ) ;
#217 = DIRECTION ( 'NONE',  ( 0.000000000000000000, 0.000000000000000000, -1.000000000000000000 ) ) ;
#218 = ADVANCED_FACE ( 'NONE', ( #140 ), #291, .T. ) ;
#219 =( NAMED_UNIT ( * ) SI_UNIT ( $, .STERADIAN. ) SOLID_ANGLE_UNIT ( ) );
#220 = CARTESIAN_POINT ( 'NONE',  ( 0.000000000000000000, 0.000000000000000000, 0.000000000000000000 ) ) ;
#221 =( CONVERSION_BASED_UNIT ( 'INCH', #224 ) LENGTH_UNIT ( ) NAMED_UNIT ( #26 ) );
#222 = FILL_AREA_STYLE_COLOUR ( '', #101 ) ;
#223 = APPLICATION_PROTOCOL_DEFINITION ( 'draft international standard', 'automotive_design', 1998, #263 ) ;
#224 = LENGTH_MEASURE_WITH_UNIT ( LENGTH_MEASURE( 0.02539999999999999897 ), #103 );
#225 = AXIS2_PLACEMENT_3D ( 'NONE', #35, #266, #54 ) ;
#226 = ORIENTED_EDGE ( 'NONE', *, *, #154, .F. ) ;
#227 =( NAMED_UNIT ( * ) PLANE_ANGLE_UNIT ( ) SI_UNIT ( $, .RADIAN. ) );
#228 =( LENGTH_UNIT ( ) NAMED_UNIT ( * ) SI_UNIT ( $, .METRE. ) );
#229 = ORIENTED_EDGE ( 'NONE', *, *, #122, .T. ) ;
#230 = PRESENTATION_LAYER_ASSIGNMENT (  '', '', ( #273 ) ) ;
#231 = ORIENTED_EDGE ( 'NONE', *, *, #297, .T. ) ;
#232 = SURFACE_SIDE_STYLE ('',( #201 ) ) ;
#233 = CARTESIAN_POINT ( 'NONE',  ( 0.3125000000000000000, 4.000000000000000000, 3.827021247335478926E-17 ) ) ;
#234 = UNCERTAINTY_MEASURE_WITH_UNIT (LENGTH_MEASURE( 1.000000000000000082E-05 ), #221, 'distance_accuracy_value', 'NONE');
#235 = DIRECTION ( 'NONE',  ( -3.265724797726275178E-17, 1.000000000000000000, 0.000000000000000000 ) ) ;
#236 = VECTOR ( 'NONE', #165, 39.37007874015748143 ) ;
#237 = MECHANICAL_DESIGN_GEOMETRIC_PRESENTATION_REPRESENTATION (  '', ( #6 ), #16 ) ;
#238 = DIRECTION ( 'NONE',  ( 0.000000000000000000, 0.000000000000000000, -1.000000000000000000 ) ) ;
#239 = EDGE_CURVE ( 'NONE', #133, #87, #117, .T. ) ;
#240 = PRESENTATION_STYLE_ASSIGNMENT (( #262 ) ) ;
#241 = CARTESIAN_POINT ( 'NONE',  ( -0.3125000000000000555, 4.000000000000000000, 0.000000000000000000 ) ) ;
#242 =( NAMED_UNIT ( * ) PLANE_ANGLE_UNIT ( ) SI_UNIT ( $, .RADIAN. ) );
#243 = PRESENTATION_STYLE_ASSIGNMENT (( #147 ) ) ;
#244 = APPLICATION_CONTEXT ( 'automotive_design' ) ;
#245 = PRODUCT_CONTEXT ( 'NONE', #263, 'mechanical' ) ;
#246 = DIRECTION ( 'NONE',  ( 0.000000000000000000, 0.000000000000000000, -1.000000000000000000 ) ) ;
#247 = MECHANICAL_DESIGN_GEOMETRIC_PRESENTATION_REPRESENTATION (  '', ( #134 ), #252 ) ;
#248 = CARTESIAN_POINT ( 'NONE',  ( 0.000000000000000000, 0.000000000000000000, 0.000000000000000000 ) ) ;
#249 = CARTESIAN_POINT ( 'NONE',  ( 0.000000000000000000, 0.000000000000000000, 0.000000000000000000 ) ) ;
#250 = SURFACE_STYLE_FILL_AREA ( #171 ) ;
#251 = CARTESIAN_POINT ( 'NONE',  ( -6.123233995736766036E-17, 4.000000000000000000, 0.000000000000000000 ) ) ;
#252 =( GEOMETRIC_REPRESENTATION_CONTEXT ( 3 ) GLOBAL_UNCERTAINTY_ASSIGNED_CONTEXT ( ( #31 ) ) GLOBAL_UNIT_ASSIGNED_CONTEXT ( ( #84, #209, #143 ) ) REPRESENTATION_CONTEXT ( 'NONE', 'WORKASPACE' ) );
#253 = AXIS2_PLACEMENT_3D ( 'NONE', #220, #59, #153 ) ;
#254 = SURFACE_STYLE_USAGE ( .BOTH. , #232 ) ;
#255 = FILL_AREA_STYLE_COLOUR ( '', #139 ) ;
#256 = CARTESIAN_POINT ( 'NONE',  ( -6.123233995736766036E-17, 4.000000000000000000, 0.000000000000000000 ) ) ;
#257 = DIRECTION ( 'NONE',  ( 0.000000000000000000, -1.000000000000000000, -0.000000000000000000 ) ) ;
#258 = MECHANICAL_DESIGN_GEOMETRIC_PRESENTATION_REPRESENTATION (  '', ( #177 ), #290 ) ;
#259 = ADVANCED_FACE ( 'NONE', ( #62 ), #57, .T. ) ;
#260 = LENGTH_MEASURE_WITH_UNIT ( LENGTH_MEASURE( 0.02539999999999999897 ), #71 );
#261 = DIRECTION ( 'NONE',  ( -1.000000000000000000, 0.000000000000000000, 0.000000000000000000 ) ) ;
#262 = SURFACE_STYLE_USAGE ( .BOTH. , #94 ) ;
#263 = APPLICATION_CONTEXT ( 'automotive_design' ) ;
#264 = STYLED_ITEM ( 'NONE', ( #56 ), #199 ) ;
#265 =( CONVERSION_BASED_UNIT ( 'INCH', #169 ) LENGTH_UNIT ( ) NAMED_UNIT ( #141 ) );
#266 = DIRECTION ( 'NONE',  ( 3.265724797726275178E-17, -1.000000000000000000, 0.000000000000000000 ) ) ;
#267 = SURFACE_STYLE_USAGE ( .BOTH. , #295 ) ;
#268 = DIRECTION ( 'NONE',  ( -0.000000000000000000, -1.000000000000000000, -0.000000000000000000 ) ) ;
#269 = PRODUCT ( '01587', '01587', '', ( #245 ) ) ;
#270 = DIRECTION ( 'NONE',  ( 0.000000000000000000, 0.000000000000000000, -1.000000000000000000 ) ) ;
#271 = ADVANCED_FACE ( 'NONE', ( #194 ), #174, .T. ) ;
#272 = MECHANICAL_DESIGN_GEOMETRIC_PRESENTATION_REPRESENTATION (  '', ( #273 ), #135 ) ;
#273 = STYLED_ITEM ( 'NONE', ( #240 ), #218 ) ;
#274 = LINE ( 'NONE', #102, #212 ) ;
#275 = CARTESIAN_POINT ( 'NONE',  ( 0.000000000000000000, 2.125000000000000000, 0.000000000000000000 ) ) ;
#276 = ORIENTED_EDGE ( 'NONE', *, *, #148, .T. ) ;
#277 = LENGTH_MEASURE_WITH_UNIT ( LENGTH_MEASURE( 0.02539999999999999897 ), #156 );
#278 = PRESENTATION_STYLE_ASSIGNMENT (( #282 ) ) ;
#279 = VERTEX_POINT ( 'NONE', #82 ) ;
#280 = ORIENTED_EDGE ( 'NONE', *, *, #24, .F. ) ;
#281 = ORIENTED_EDGE ( 'NONE', *, *, #297, .F. ) ;
#282 = SURFACE_STYLE_USAGE ( .BOTH. , #20 ) ;
#283 = LINE ( 'NONE', #241, #191 ) ;
#284 = ORIENTED_EDGE ( 'NONE', *, *, #184, .T. ) ;
#285 = DIRECTION ( 'NONE',  ( 0.000000000000000000, 0.000000000000000000, -1.000000000000000000 ) ) ;
#286 = LINE ( 'NONE', #72, #236 ) ;
#287 = CARTESIAN_POINT ( 'NONE',  ( 0.000000000000000000, 0.000000000000000000, -0.3125000000000000000 ) ) ;
#288 = EDGE_CURVE ( 'NONE', #133, #180, #274, .T. ) ;
#289 = DIRECTION ( 'NONE',  ( -0.000000000000000000, -1.000000000000000000, -0.000000000000000000 ) ) ;
#290 =( GEOMETRIC_REPRESENTATION_CONTEXT ( 3 ) GLOBAL_UNCERTAINTY_ASSIGNED_CONTEXT ( ( #50 ) ) GLOBAL_UNIT_ASSIGNED_CONTEXT ( ( #190, #214, #77 ) ) REPRESENTATION_CONTEXT ( 'NONE', 'WORKASPACE' ) );
#291 = CYLINDRICAL_SURFACE ( 'NONE', #145, 0.3125000000000000000 ) ;
#292 = DIRECTION ( 'NONE',  ( 0.000000000000000000, 0.000000000000000000, -1.000000000000000000 ) ) ;
#293 = DIRECTION ( 'NONE',  ( -0.000000000000000000, -1.000000000000000000, -0.000000000000000000 ) ) ;
#294 = AXIS2_PLACEMENT_3D ( 'NONE', #80, #152, #270 ) ;
#295 = SURFACE_SIDE_STYLE ('',( #105 ) ) ;
#296 = APPLICATION_PROTOCOL_DEFINITION ( 'draft international standard', 'automotive_design', 1998, #244 ) ;
#297 = EDGE_CURVE ( 'NONE', #180, #176, #302, .T. ) ;
#298 = DIRECTION ( 'NONE',  ( -0.000000000000000000, -1.000000000000000000, -0.000000000000000000 ) ) ;
#299 = PRODUCT_RELATED_PRODUCT_CATEGORY ( 'part', '', ( #269 ) ) ;
#300 =( LENGTH_UNIT ( ) NAMED_UNIT ( * ) SI_UNIT ( $, .METRE. ) );
#301 =( NAMED_UNIT ( * ) SI_UNIT ( $, .STERADIAN. ) SOLID_ANGLE_UNIT ( ) );
#302 = CIRCLE ( 'NONE', #160, 0.3125000000000000000 ) ;
#303 = EDGE_CURVE ( 'NONE', #176, #180, #196, .T. ) ;
#304 = ORIENTED_EDGE ( 'NONE', *, *, #122, .F. ) ;
#305 = COLOUR_RGB ( '',1.000000000000000000, 0.000000000000000000, 0.000000000000000000 ) ;
#306 = PRESENTATION_STYLE_ASSIGNMENT (( #254 ) ) ;
#307 = ORIENTED_EDGE ( 'NONE', *, *, #184, .F. ) ;
#308 = SURFACE_SIDE_STYLE ('',( #189 ) ) ;
#309 = ORIENTED_EDGE ( 'NONE', *, *, #47, .T. ) ;
ENDSEC;
END-ISO-10303-21;
