ISO-10303-21;
HEADER;
FILE_DESCRIPTION (( 'STEP AP214' ),
    '1' );
FILE_NAME ('30527.STEP',
    '2023-06-22T18:36:30',
    ( '' ),
    ( '' ),
    'SwSTEP 2.0',
    'SolidWorks 2023',
    '' );
FILE_SCHEMA (( 'AUTOMOTIVE_DESIGN' ));
ENDSEC;

DATA;
#1 = STYLED_ITEM ( 'NONE', ( #62 ), #233 ) ;
#2 = LENGTH_MEASURE_WITH_UNIT ( LENGTH_MEASURE( 0.02539999999999999897 ), #23 );
#3 = CARTESIAN_POINT ( 'NONE',  ( -6.123233995736772199E-17, 3.000000000000000444, 0.000000000000000000 ) ) ;
#4 = DIMENSIONAL_EXPONENTS ( 1.000000000000000000, 0.000000000000000000, 0.000000000000000000, 0.000000000000000000, 0.000000000000000000, 0.000000000000000000, 0.000000000000000000 ) ;
#5 = VERTEX_POINT ( 'NONE', #114 ) ;
#6 = MANIFOLD_SOLID_BREP ( 'Revolve - Cutting Edge', #13 ) ;
#7 = CIRCLE ( 'NONE', #178, 0.2500000000000000000 ) ;
#8 = UNCERTAINTY_MEASURE_WITH_UNIT (LENGTH_MEASURE( 1.000000000000000082E-05 ), #264, 'distance_accuracy_value', 'NONE');
#9 = EDGE_LOOP ( 'NONE', ( #163, #241 ) ) ;
#10 = ADVANCED_FACE ( 'NONE', ( #53 ), #135, .F. ) ;
#11 = CARTESIAN_POINT ( 'NONE',  ( 0.000000000000000000, 1.250000000000000000, 0.000000000000000000 ) ) ;
#12 = ORIENTED_EDGE ( 'NONE', *, *, #91, .F. ) ;
#13 = CLOSED_SHELL ( 'NONE', ( #233, #205, #293, #235 ) ) ;
#14 = PRODUCT_RELATED_PRODUCT_CATEGORY ( 'part', '', ( #118 ) ) ;
#15 = LENGTH_MEASURE_WITH_UNIT ( LENGTH_MEASURE( 0.02539999999999999897 ), #254 );
#16 = AXIS2_PLACEMENT_3D ( 'NONE', #196, #249, #222 ) ;
#17 = STYLED_ITEM ( 'NONE', ( #47 ), #293 ) ;
#18 = CARTESIAN_POINT ( 'NONE',  ( 1.530367125165163595E-34, 1.250000000000000000, 0.000000000000000000 ) ) ;
#19 = CARTESIAN_POINT ( 'NONE',  ( -0.2500000000000001110, 3.000000000000000444, 0.000000000000000000 ) ) ;
#20 = VERTEX_POINT ( 'NONE', #34 ) ;
#21 =( CONVERSION_BASED_UNIT ( 'INCH', #259 ) LENGTH_UNIT ( ) NAMED_UNIT ( #74 ) );
#22 =( NAMED_UNIT ( * ) PLANE_ANGLE_UNIT ( ) SI_UNIT ( $, .RADIAN. ) );
#23 =( LENGTH_UNIT ( ) NAMED_UNIT ( * ) SI_UNIT ( $, .METRE. ) );
#24 = EDGE_CURVE ( 'NONE', #20, #98, #173, .T. ) ;
#25 = CIRCLE ( 'NONE', #231, 0.2500000000000000000 ) ;
#26 = SURFACE_STYLE_USAGE ( .BOTH. , #268 ) ;
#27 =( CONVERSION_BASED_UNIT ( 'INCH', #299 ) LENGTH_UNIT ( ) NAMED_UNIT ( #56 ) );
#28 = FILL_AREA_STYLE_COLOUR ( '', #270 ) ;
#29 = ORIENTED_EDGE ( 'NONE', *, *, #35, .T. ) ;
#30 = PRESENTATION_LAYER_ASSIGNMENT (  '', '', ( #67 ) ) ;
#31 = CARTESIAN_POINT ( 'NONE',  ( 0.000000000000000000, 1.250000000000000000, 0.000000000000000000 ) ) ;
#32 = EDGE_LOOP ( 'NONE', ( #307, #168, #101, #148 ) ) ;
#33 = SURFACE_STYLE_USAGE ( .BOTH. , #292 ) ;
#34 = CARTESIAN_POINT ( 'NONE',  ( 0.2500000000000000000, 3.000000000000000444, 3.061616997868383634E-17 ) ) ;
#35 = EDGE_CURVE ( 'NONE', #245, #5, #129, .T. ) ;
#36 = STYLED_ITEM ( 'NONE', ( #271 ), #205 ) ;
#37 = PRODUCT_DEFINITION_FORMATION_WITH_SPECIFIED_SOURCE ( 'ANY', '', #118, .NOT_KNOWN. ) ;
#38 = PLANE ( 'NONE',  #139 ) ;
#39 = DIRECTION ( 'NONE',  ( -3.498990854706726443E-17, 1.000000000000000000, -0.000000000000000000 ) ) ;
#40 = PRESENTATION_LAYER_ASSIGNMENT (  '', '', ( #300 ) ) ;
#41 = DIRECTION ( 'NONE',  ( -0.000000000000000000, -1.000000000000000000, -0.000000000000000000 ) ) ;
#42 = AXIS2_PLACEMENT_3D ( 'NONE', #11, #78, #134 ) ;
#43 =( NAMED_UNIT ( * ) PLANE_ANGLE_UNIT ( ) SI_UNIT ( $, .RADIAN. ) );
#44 = SURFACE_SIDE_STYLE ('',( #308 ) ) ;
#45 = DIRECTION ( 'NONE',  ( -0.000000000000000000, -1.000000000000000000, -0.000000000000000000 ) ) ;
#46 = VECTOR ( 'NONE', #229, 39.37007874015748143 ) ;
#47 = PRESENTATION_STYLE_ASSIGNMENT (( #26 ) ) ;
#48 = EDGE_LOOP ( 'NONE', ( #70, #188 ) ) ;
#49 = AXIS2_PLACEMENT_3D ( 'NONE', #124, #214, #309 ) ;
#50 =( GEOMETRIC_REPRESENTATION_CONTEXT ( 3 ) GLOBAL_UNCERTAINTY_ASSIGNED_CONTEXT ( ( #291 ) ) GLOBAL_UNIT_ASSIGNED_CONTEXT ( ( #130, #82, #105 ) ) REPRESENTATION_CONTEXT ( 'NONE', 'WORKASPACE' ) );
#51 = FILL_AREA_STYLE ('',( #269 ) ) ;
#52 = ORIENTED_EDGE ( 'NONE', *, *, #261, .T. ) ;
#53 = FACE_OUTER_BOUND ( 'NONE', #110, .T. ) ;
#54 = PRESENTATION_STYLE_ASSIGNMENT (( #246 ) ) ;
#55 = FILL_AREA_STYLE_COLOUR ( '', #126 ) ;
#56 = DIMENSIONAL_EXPONENTS ( 1.000000000000000000, 0.000000000000000000, 0.000000000000000000, 0.000000000000000000, 0.000000000000000000, 0.000000000000000000, 0.000000000000000000 ) ;
#57 = EDGE_LOOP ( 'NONE', ( #198, #189, #287, #224 ) ) ;
#58 = CIRCLE ( 'NONE', #86, 0.2500000000000000000 ) ;
#59 = COLOUR_RGB ( '',1.000000000000000000, 0.000000000000000000, 0.000000000000000000 ) ;
#60 = SURFACE_STYLE_FILL_AREA ( #115 ) ;
#61 = PRESENTATION_LAYER_ASSIGNMENT (  '', '', ( #17 ) ) ;
#62 = PRESENTATION_STYLE_ASSIGNMENT (( #107 ) ) ;
#63 = CARTESIAN_POINT ( 'NONE',  ( -6.123233995736772199E-17, 3.000000000000000444, 0.000000000000000000 ) ) ;
#64 = FACE_OUTER_BOUND ( 'NONE', #9, .T. ) ;
#65 = CARTESIAN_POINT ( 'NONE',  ( 0.000000000000000000, 1.250000000000000000, 0.000000000000000000 ) ) ;
#66 = UNCERTAINTY_MEASURE_WITH_UNIT (LENGTH_MEASURE( 1.000000000000000082E-05 ), #21, 'distance_accuracy_value', 'NONE');
#67 = STYLED_ITEM ( 'NONE', ( #99 ), #235 ) ;
#68 = CARTESIAN_POINT ( 'NONE',  ( 0.000000000000000000, 1.250000000000000000, 0.000000000000000000 ) ) ;
#69 = CARTESIAN_POINT ( 'NONE',  ( 3.061616997868383018E-17, 0.000000000000000000, 0.2500000000000000000 ) ) ;
#70 = ORIENTED_EDGE ( 'NONE', *, *, #213, .F. ) ;
#71 = STYLED_ITEM ( 'NONE', ( #54 ), #215 ) ;
#72 = ORIENTED_EDGE ( 'NONE', *, *, #226, .T. ) ;
#73 = APPLICATION_PROTOCOL_DEFINITION ( 'draft international standard', 'automotive_design', 1998, #267 ) ;
#74 = DIMENSIONAL_EXPONENTS ( 1.000000000000000000, 0.000000000000000000, 0.000000000000000000, 0.000000000000000000, 0.000000000000000000, 0.000000000000000000, 0.000000000000000000 ) ;
#75 = FACE_OUTER_BOUND ( 'NONE', #32, .T. ) ;
#76 =( NAMED_UNIT ( * ) PLANE_ANGLE_UNIT ( ) SI_UNIT ( $, .RADIAN. ) );
#77 = ORIENTED_EDGE ( 'NONE', *, *, #192, .T. ) ;
#78 = DIRECTION ( 'NONE',  ( -3.498990854706726443E-17, 1.000000000000000000, -0.000000000000000000 ) ) ;
#79 = CARTESIAN_POINT ( 'NONE',  ( 0.2499999999999999722, 3.000000000000000444, 3.061616997868383634E-17 ) ) ;
#80 = DIRECTION ( 'NONE',  ( -1.000000000000000000, 0.000000000000000000, 0.000000000000000000 ) ) ;
#81 = DIMENSIONAL_EXPONENTS ( 1.000000000000000000, 0.000000000000000000, 0.000000000000000000, 0.000000000000000000, 0.000000000000000000, 0.000000000000000000, 0.000000000000000000 ) ;
#82 =( NAMED_UNIT ( * ) PLANE_ANGLE_UNIT ( ) SI_UNIT ( $, .RADIAN. ) );
#83 = ORIENTED_EDGE ( 'NONE', *, *, #24, .F. ) ;
#84 = DIRECTION ( 'NONE',  ( -0.000000000000000000, -1.000000000000000000, -0.000000000000000000 ) ) ;
#85 =( NAMED_UNIT ( * ) PLANE_ANGLE_UNIT ( ) SI_UNIT ( $, .RADIAN. ) );
#86 = AXIS2_PLACEMENT_3D ( 'NONE', #65, #262, #141 ) ;
#87 = SURFACE_STYLE_USAGE ( .BOTH. , #153 ) ;
#88 = FACE_OUTER_BOUND ( 'NONE', #57, .T. ) ;
#89 = EDGE_CURVE ( 'NONE', #204, #201, #7, .T. ) ;
#90 = DIRECTION ( 'NONE',  ( -3.498990854706726443E-17, 1.000000000000000000, 0.000000000000000000 ) ) ;
#91 = EDGE_CURVE ( 'NONE', #245, #20, #294, .T. ) ;
#92 = FILL_AREA_STYLE ('',( #303 ) ) ;
#93 = EDGE_CURVE ( 'NONE', #279, #201, #119, .T. ) ;
#94 = MECHANICAL_DESIGN_GEOMETRIC_PRESENTATION_REPRESENTATION (  '', ( #1 ), #160 ) ;
#95 = CARTESIAN_POINT ( 'NONE',  ( 0.000000000000000000, 0.000000000000000000, 0.000000000000000000 ) ) ;
#96 = FACE_OUTER_BOUND ( 'NONE', #161, .T. ) ;
#97 = CARTESIAN_POINT ( 'NONE',  ( -6.123233995736772199E-17, 3.000000000000000444, 0.000000000000000000 ) ) ;
#98 = VERTEX_POINT ( 'NONE', #125 ) ;
#99 = PRESENTATION_STYLE_ASSIGNMENT (( #158 ) ) ;
#100 = DIRECTION ( 'NONE',  ( 0.000000000000000000, 0.000000000000000000, -1.000000000000000000 ) ) ;
#101 = ORIENTED_EDGE ( 'NONE', *, *, #89, .F. ) ;
#102 = PRODUCT_CONTEXT ( 'NONE', #267, 'mechanical' ) ;
#103 = AXIS2_PLACEMENT_3D ( 'NONE', #31, #111, #197 ) ;
#104 =( NAMED_UNIT ( * ) SI_UNIT ( $, .STERADIAN. ) SOLID_ANGLE_UNIT ( ) );
#105 =( NAMED_UNIT ( * ) SI_UNIT ( $, .STERADIAN. ) SOLID_ANGLE_UNIT ( ) );
#106 =( NAMED_UNIT ( * ) SI_UNIT ( $, .STERADIAN. ) SOLID_ANGLE_UNIT ( ) );
#107 = SURFACE_STYLE_USAGE ( .BOTH. , #244 ) ;
#108 = DIRECTION ( 'NONE',  ( -3.498990854706726443E-17, 1.000000000000000000, -0.000000000000000000 ) ) ;
#109 = FACE_OUTER_BOUND ( 'NONE', #187, .T. ) ;
#110 = EDGE_LOOP ( 'NONE', ( #77, #274 ) ) ;
#111 = DIRECTION ( 'NONE',  ( 0.000000000000000000, 1.000000000000000000, 0.000000000000000000 ) ) ;
#112 =( LENGTH_UNIT ( ) NAMED_UNIT ( * ) SI_UNIT ( $, .METRE. ) );
#113 = PLANE ( 'NONE',  #103 ) ;
#114 = CARTESIAN_POINT ( 'NONE',  ( -0.2500000000000000000, 1.250000000000000000, 0.000000000000000000 ) ) ;
#115 = FILL_AREA_STYLE ('',( #55 ) ) ;
#116 = FILL_AREA_STYLE ('',( #232 ) ) ;
#117 = VECTOR ( 'NONE', #84, 39.37007874015748143 ) ;
#118 = PRODUCT ( '30527', '30527', '', ( #102 ) ) ;
#119 = LINE ( 'NONE', #206, #46 ) ;
#120 = ADVANCED_FACE ( 'NONE', ( #96 ), #185, .T. ) ;
#121 = DIRECTION ( 'NONE',  ( -3.498990854706726443E-17, 1.000000000000000000, -0.000000000000000000 ) ) ;
#122 = CLOSED_SHELL ( 'NONE', ( #289, #251, #120, #10 ) ) ;
#123 = PRESENTATION_LAYER_ASSIGNMENT (  '', '', ( #1 ) ) ;
#124 = CARTESIAN_POINT ( 'NONE',  ( 0.000000000000000000, 0.000000000000000000, 0.000000000000000000 ) ) ;
#125 = CARTESIAN_POINT ( 'NONE',  ( -0.2500000000000001110, 3.000000000000000444, 0.000000000000000000 ) ) ;
#126 = COLOUR_RGB ( '',0.7921568627450980005, 0.8196078431372548767, 0.9333333333333333481 ) ;
#127 =( LENGTH_UNIT ( ) NAMED_UNIT ( * ) SI_UNIT ( $, .METRE. ) );
#128 = DIRECTION ( 'NONE',  ( 0.000000000000000000, 0.000000000000000000, -1.000000000000000000 ) ) ;
#129 = CIRCLE ( 'NONE', #16, 0.2500000000000000000 ) ;
#130 =( CONVERSION_BASED_UNIT ( 'INCH', #165 ) LENGTH_UNIT ( ) NAMED_UNIT ( #272 ) );
#131 = DIRECTION ( 'NONE',  ( -0.000000000000000000, -1.000000000000000000, -0.000000000000000000 ) ) ;
#132 = DIMENSIONAL_EXPONENTS ( 1.000000000000000000, 0.000000000000000000, 0.000000000000000000, 0.000000000000000000, 0.000000000000000000, 0.000000000000000000, 0.000000000000000000 ) ;
#133 = ORIENTED_EDGE ( 'NONE', *, *, #261, .F. ) ;
#134 = DIRECTION ( 'NONE',  ( -1.000000000000000000, 0.000000000000000000, 0.000000000000000000 ) ) ;
#135 = PLANE ( 'NONE',  #275 ) ;
#136 = AXIS2_PLACEMENT_3D ( 'NONE', #219, #240, #242 ) ;
#137 =( NAMED_UNIT ( * ) SI_UNIT ( $, .STERADIAN. ) SOLID_ANGLE_UNIT ( ) );
#138 = DIRECTION ( 'NONE',  ( -1.000000000000000000, 0.000000000000000000, 0.000000000000000000 ) ) ;
#139 = AXIS2_PLACEMENT_3D ( 'NONE', #95, #140, #184 ) ;
#140 = DIRECTION ( 'NONE',  ( 0.000000000000000000, -1.000000000000000000, -0.000000000000000000 ) ) ;
#141 = DIRECTION ( 'NONE',  ( 0.000000000000000000, 0.000000000000000000, -1.000000000000000000 ) ) ;
#142 = CARTESIAN_POINT ( 'NONE',  ( 0.000000000000000000, 0.000000000000000000, 0.000000000000000000 ) ) ;
#143 =( GEOMETRIC_REPRESENTATION_CONTEXT ( 3 ) GLOBAL_UNCERTAINTY_ASSIGNED_CONTEXT ( ( #278 ) ) GLOBAL_UNIT_ASSIGNED_CONTEXT ( ( #27, #85, #150 ) ) REPRESENTATION_CONTEXT ( 'NONE', 'WORKASPACE' ) );
#144 =( GEOMETRIC_REPRESENTATION_CONTEXT ( 3 ) GLOBAL_UNCERTAINTY_ASSIGNED_CONTEXT ( ( #8 ) ) GLOBAL_UNIT_ASSIGNED_CONTEXT ( ( #264, #22, #106 ) ) REPRESENTATION_CONTEXT ( 'NONE', 'WORKASPACE' ) );
#145 = SURFACE_STYLE_FILL_AREA ( #51 ) ;
#146 = ORIENTED_EDGE ( 'NONE', *, *, #164, .F. ) ;
#147 = SURFACE_STYLE_FILL_AREA ( #273 ) ;
#148 = ORIENTED_EDGE ( 'NONE', *, *, #226, .F. ) ;
#149 = LENGTH_MEASURE_WITH_UNIT ( LENGTH_MEASURE( 0.02539999999999999897 ), #221 );
#150 =( NAMED_UNIT ( * ) SI_UNIT ( $, .STERADIAN. ) SOLID_ANGLE_UNIT ( ) );
#151 = COLOUR_RGB ( '',1.000000000000000000, 0.000000000000000000, 0.000000000000000000 ) ;
#152 = FILL_AREA_STYLE ('',( #200 ) ) ;
#153 = SURFACE_SIDE_STYLE ('',( #60 ) ) ;
#154 =( NAMED_UNIT ( * ) SI_UNIT ( $, .STERADIAN. ) SOLID_ANGLE_UNIT ( ) );
#155 = ORIENTED_EDGE ( 'NONE', *, *, #93, .F. ) ;
#156 = MECHANICAL_DESIGN_GEOMETRIC_PRESENTATION_REPRESENTATION (  '', ( #67 ), #288 ) ;
#157 = PLANE ( 'NONE',  #243 ) ;
#158 = SURFACE_STYLE_USAGE ( .BOTH. , #44 ) ;
#159 = VECTOR ( 'NONE', #258, 39.37007874015748143 ) ;
#160 =( GEOMETRIC_REPRESENTATION_CONTEXT ( 3 ) GLOBAL_UNCERTAINTY_ASSIGNED_CONTEXT ( ( #304 ) ) GLOBAL_UNIT_ASSIGNED_CONTEXT ( ( #228, #210, #137 ) ) REPRESENTATION_CONTEXT ( 'NONE', 'WORKASPACE' ) );
#161 = EDGE_LOOP ( 'NONE', ( #12, #29, #170, #83 ) ) ;
#162 =( GEOMETRIC_REPRESENTATION_CONTEXT ( 3 ) GLOBAL_UNCERTAINTY_ASSIGNED_CONTEXT ( ( #260 ) ) GLOBAL_UNIT_ASSIGNED_CONTEXT ( ( #216, #76, #104 ) ) REPRESENTATION_CONTEXT ( 'NONE', 'WORKASPACE' ) );
#163 = ORIENTED_EDGE ( 'NONE', *, *, #89, .T. ) ;
#164 = EDGE_CURVE ( 'NONE', #225, #279, #58, .T. ) ;
#165 = LENGTH_MEASURE_WITH_UNIT ( LENGTH_MEASURE( 0.02539999999999999897 ), #277 );
#166 = EDGE_LOOP ( 'NONE', ( #155, #52, #72, #285 ) ) ;
#167 = LINE ( 'NONE', #227, #117 ) ;
#168 = ORIENTED_EDGE ( 'NONE', *, *, #93, .T. ) ;
#169 = SURFACE_STYLE_FILL_AREA ( #152 ) ;
#170 = ORIENTED_EDGE ( 'NONE', *, *, #171, .T. ) ;
#171 = EDGE_CURVE ( 'NONE', #5, #98, #236, .T. ) ;
#172 = ADVANCED_BREP_SHAPE_REPRESENTATION ( '30527', ( #6, #215, #136 ), #162 ) ;
#173 = CIRCLE ( 'NONE', #280, 0.2500000000000000555 ) ;
#174 = MECHANICAL_DESIGN_GEOMETRIC_PRESENTATION_REPRESENTATION (  '', ( #17 ), #144 ) ;
#175 = DIRECTION ( 'NONE',  ( 3.498990854706726443E-17, -1.000000000000000000, 0.000000000000000000 ) ) ;
#176 = PRODUCT_DEFINITION ( 'UNKNOWN', '', #37, #177 ) ;
#177 = PRODUCT_DEFINITION_CONTEXT ( 'detailed design', #263, 'design' ) ;
#178 = AXIS2_PLACEMENT_3D ( 'NONE', #290, #131, #128 ) ;
#179 = CYLINDRICAL_SURFACE ( 'NONE', #276, 0.2500000000000000000 ) ;
#180 = UNCERTAINTY_MEASURE_WITH_UNIT (LENGTH_MEASURE( 1.000000000000000082E-05 ), #248, 'distance_accuracy_value', 'NONE');
#181 = SURFACE_STYLE_FILL_AREA ( #92 ) ;
#182 = CIRCLE ( 'NONE', #230, 0.2500000000000000555 ) ;
#183 = AXIS2_PLACEMENT_3D ( 'NONE', #142, #45, #100 ) ;
#184 = DIRECTION ( 'NONE',  ( 0.000000000000000000, 0.000000000000000000, -1.000000000000000000 ) ) ;
#185 = CYLINDRICAL_SURFACE ( 'NONE', #305, 0.2500000000000000555 ) ;
#186 = DIRECTION ( 'NONE',  ( -3.498990854706726443E-17, 1.000000000000000000, -0.000000000000000000 ) ) ;
#187 = EDGE_LOOP ( 'NONE', ( #146, #133 ) ) ;
#188 = ORIENTED_EDGE ( 'NONE', *, *, #35, .F. ) ;
#189 = ORIENTED_EDGE ( 'NONE', *, *, #91, .T. ) ;
#190 = CIRCLE ( 'NONE', #42, 0.2500000000000000000 ) ;
#191 = APPLICATION_PROTOCOL_DEFINITION ( 'draft international standard', 'automotive_design', 1998, #263 ) ;
#192 = EDGE_CURVE ( 'NONE', #98, #20, #182, .T. ) ;
#193 = PRODUCT_DEFINITION_SHAPE ( 'NONE', 'NONE',  #176 ) ;
#194 =( NAMED_UNIT ( * ) PLANE_ANGLE_UNIT ( ) SI_UNIT ( $, .RADIAN. ) );
#195 = SURFACE_SIDE_STYLE ('',( #169 ) ) ;
#196 = CARTESIAN_POINT ( 'NONE',  ( 0.000000000000000000, 1.250000000000000000, 0.000000000000000000 ) ) ;
#197 = DIRECTION ( 'NONE',  ( 0.000000000000000000, -0.000000000000000000, 1.000000000000000000 ) ) ;
#198 = ORIENTED_EDGE ( 'NONE', *, *, #213, .T. ) ;
#199 = DIRECTION ( 'NONE',  ( -1.000000000000000000, 0.000000000000000000, 0.000000000000000000 ) ) ;
#200 = FILL_AREA_STYLE_COLOUR ( '', #203 ) ;
#201 = VERTEX_POINT ( 'NONE', #69 ) ;
#202 = EDGE_CURVE ( 'NONE', #201, #204, #217, .T. ) ;
#203 = COLOUR_RGB ( '',0.7921568627450980005, 0.8196078431372548767, 0.9333333333333333481 ) ;
#204 = VERTEX_POINT ( 'NONE', #252 ) ;
#205 = ADVANCED_FACE ( 'NONE', ( #109 ), #113, .T. ) ;
#206 = CARTESIAN_POINT ( 'NONE',  ( 3.061616997868383018E-17, 0.000000000000000000, 0.2500000000000000000 ) ) ;
#207 = DIRECTION ( 'NONE',  ( 0.000000000000000000, 0.000000000000000000, -1.000000000000000000 ) ) ;
#208 =( NAMED_UNIT ( * ) SI_UNIT ( $, .STERADIAN. ) SOLID_ANGLE_UNIT ( ) );
#209 = CYLINDRICAL_SURFACE ( 'NONE', #183, 0.2500000000000000000 ) ;
#210 =( NAMED_UNIT ( * ) PLANE_ANGLE_UNIT ( ) SI_UNIT ( $, .RADIAN. ) );
#211 = PRESENTATION_LAYER_ASSIGNMENT (  '', '', ( #36 ) ) ;
#212 = CARTESIAN_POINT ( 'NONE',  ( -6.123233995736772199E-17, 3.000000000000000444, 0.000000000000000000 ) ) ;
#213 = EDGE_CURVE ( 'NONE', #5, #245, #190, .T. ) ;
#214 = DIRECTION ( 'NONE',  ( -0.000000000000000000, -1.000000000000000000, -0.000000000000000000 ) ) ;
#215 = MANIFOLD_SOLID_BREP ( 'Revolve - Tool Body (Straight Shanked)', #122 ) ;
#216 =( CONVERSION_BASED_UNIT ( 'INCH', #2 ) LENGTH_UNIT ( ) NAMED_UNIT ( #81 ) );
#217 = CIRCLE ( 'NONE', #49, 0.2500000000000000000 ) ;
#218 = MECHANICAL_DESIGN_GEOMETRIC_PRESENTATION_REPRESENTATION (  '', ( #71 ), #250 ) ;
#219 = CARTESIAN_POINT ( 'NONE',  ( 0.000000000000000000, 0.000000000000000000, 0.000000000000000000 ) ) ;
#220 = LENGTH_MEASURE_WITH_UNIT ( LENGTH_MEASURE( 0.02539999999999999897 ), #127 );
#221 =( LENGTH_UNIT ( ) NAMED_UNIT ( * ) SI_UNIT ( $, .METRE. ) );
#222 = DIRECTION ( 'NONE',  ( -1.000000000000000000, 0.000000000000000000, 0.000000000000000000 ) ) ;
#223 = VECTOR ( 'NONE', #121, 39.37007874015748143 ) ;
#224 = ORIENTED_EDGE ( 'NONE', *, *, #171, .F. ) ;
#225 = VERTEX_POINT ( 'NONE', #296 ) ;
#226 = EDGE_CURVE ( 'NONE', #225, #204, #167, .T. ) ;
#227 = CARTESIAN_POINT ( 'NONE',  ( 0.000000000000000000, 0.000000000000000000, -0.2500000000000000000 ) ) ;
#228 =( CONVERSION_BASED_UNIT ( 'INCH', #15 ) LENGTH_UNIT ( ) NAMED_UNIT ( #295 ) );
#229 = DIRECTION ( 'NONE',  ( -0.000000000000000000, -1.000000000000000000, -0.000000000000000000 ) ) ;
#230 = AXIS2_PLACEMENT_3D ( 'NONE', #212, #186, #284 ) ;
#231 = AXIS2_PLACEMENT_3D ( 'NONE', #68, #41, #207 ) ;
#232 = FILL_AREA_STYLE_COLOUR ( '', #238 ) ;
#233 = ADVANCED_FACE ( 'NONE', ( #75 ), #179, .T. ) ;
#234 = CARTESIAN_POINT ( 'NONE',  ( 0.000000000000000000, 0.000000000000000000, 0.000000000000000000 ) ) ;
#235 = ADVANCED_FACE ( 'NONE', ( #64 ), #38, .T. ) ;
#236 = LINE ( 'NONE', #19, #223 ) ;
#237 = DIRECTION ( 'NONE',  ( -0.000000000000000000, -1.000000000000000000, -0.000000000000000000 ) ) ;
#238 = COLOUR_RGB ( '',1.000000000000000000, 0.000000000000000000, 0.000000000000000000 ) ;
#239 = DIRECTION ( 'NONE',  ( -3.498990854706726443E-17, 1.000000000000000000, -0.000000000000000000 ) ) ;
#240 = DIRECTION ( 'NONE',  ( 0.000000000000000000, 0.000000000000000000, 1.000000000000000000 ) ) ;
#241 = ORIENTED_EDGE ( 'NONE', *, *, #202, .T. ) ;
#242 = DIRECTION ( 'NONE',  ( 1.000000000000000000, 0.000000000000000000, 0.000000000000000000 ) ) ;
#243 = AXIS2_PLACEMENT_3D ( 'NONE', #18, #90, #256 ) ;
#244 = SURFACE_SIDE_STYLE ('',( #145 ) ) ;
#245 = VERTEX_POINT ( 'NONE', #283 ) ;
#246 = SURFACE_STYLE_USAGE ( .BOTH. , #195 ) ;
#247 = CARTESIAN_POINT ( 'NONE',  ( 0.2500000000000000000, 3.000000000000000444, 0.000000000000000000 ) ) ;
#248 =( CONVERSION_BASED_UNIT ( 'INCH', #149 ) LENGTH_UNIT ( ) NAMED_UNIT ( #4 ) );
#249 = DIRECTION ( 'NONE',  ( -3.498990854706726443E-17, 1.000000000000000000, -0.000000000000000000 ) ) ;
#250 =( GEOMETRIC_REPRESENTATION_CONTEXT ( 3 ) GLOBAL_UNCERTAINTY_ASSIGNED_CONTEXT ( ( #180 ) ) GLOBAL_UNIT_ASSIGNED_CONTEXT ( ( #248, #194, #154 ) ) REPRESENTATION_CONTEXT ( 'NONE', 'WORKASPACE' ) );
#251 = ADVANCED_FACE ( 'NONE', ( #286 ), #157, .F. ) ;
#252 = CARTESIAN_POINT ( 'NONE',  ( 0.000000000000000000, 0.000000000000000000, -0.2500000000000000000 ) ) ;
#253 = DIRECTION ( 'NONE',  ( 1.000000000000000000, 3.498990854706726443E-17, 0.000000000000000000 ) ) ;
#254 =( LENGTH_UNIT ( ) NAMED_UNIT ( * ) SI_UNIT ( $, .METRE. ) );
#255 = PRESENTATION_LAYER_ASSIGNMENT (  '', '', ( #71 ) ) ;
#256 = DIRECTION ( 'NONE',  ( -1.000000000000000000, -3.498990854706726443E-17, 0.000000000000000000 ) ) ;
#257 = CARTESIAN_POINT ( 'NONE',  ( 3.061616997868383018E-17, 1.250000000000000000, 0.2500000000000000000 ) ) ;
#258 = DIRECTION ( 'NONE',  ( -3.498990854706726443E-17, 1.000000000000000000, -0.000000000000000000 ) ) ;
#259 = LENGTH_MEASURE_WITH_UNIT ( LENGTH_MEASURE( 0.02539999999999999897 ), #301 );
#260 = UNCERTAINTY_MEASURE_WITH_UNIT (LENGTH_MEASURE( 1.000000000000000082E-05 ), #216, 'distance_accuracy_value', 'NONE');
#261 = EDGE_CURVE ( 'NONE', #279, #225, #25, .T. ) ;
#262 = DIRECTION ( 'NONE',  ( -0.000000000000000000, -1.000000000000000000, -0.000000000000000000 ) ) ;
#263 = APPLICATION_CONTEXT ( 'automotive_design' ) ;
#264 =( CONVERSION_BASED_UNIT ( 'INCH', #220 ) LENGTH_UNIT ( ) NAMED_UNIT ( #132 ) );
#265 = MECHANICAL_DESIGN_GEOMETRIC_PRESENTATION_REPRESENTATION (  '', ( #300 ), #143 ) ;
#266 = SHAPE_DEFINITION_REPRESENTATION ( #193, #172 ) ;
#267 = APPLICATION_CONTEXT ( 'automotive_design' ) ;
#268 = SURFACE_SIDE_STYLE ('',( #181 ) ) ;
#269 = FILL_AREA_STYLE_COLOUR ( '', #59 ) ;
#270 = COLOUR_RGB ( '',1.000000000000000000, 0.000000000000000000, 0.000000000000000000 ) ;
#271 = PRESENTATION_STYLE_ASSIGNMENT (( #33 ) ) ;
#272 = DIMENSIONAL_EXPONENTS ( 1.000000000000000000, 0.000000000000000000, 0.000000000000000000, 0.000000000000000000, 0.000000000000000000, 0.000000000000000000, 0.000000000000000000 ) ;
#273 = FILL_AREA_STYLE ('',( #28 ) ) ;
#274 = ORIENTED_EDGE ( 'NONE', *, *, #24, .T. ) ;
#275 = AXIS2_PLACEMENT_3D ( 'NONE', #247, #175, #253 ) ;
#276 = AXIS2_PLACEMENT_3D ( 'NONE', #234, #237, #282 ) ;
#277 =( LENGTH_UNIT ( ) NAMED_UNIT ( * ) SI_UNIT ( $, .METRE. ) );
#278 = UNCERTAINTY_MEASURE_WITH_UNIT (LENGTH_MEASURE( 1.000000000000000082E-05 ), #27, 'distance_accuracy_value', 'NONE');
#279 = VERTEX_POINT ( 'NONE', #257 ) ;
#280 = AXIS2_PLACEMENT_3D ( 'NONE', #3, #108, #199 ) ;
#281 = CYLINDRICAL_SURFACE ( 'NONE', #306, 0.2500000000000000555 ) ;
#282 = DIRECTION ( 'NONE',  ( 0.000000000000000000, 0.000000000000000000, -1.000000000000000000 ) ) ;
#283 = CARTESIAN_POINT ( 'NONE',  ( 0.2500000000000000000, 1.250000000000000000, 3.061616997868383634E-17 ) ) ;
#284 = DIRECTION ( 'NONE',  ( -1.000000000000000000, 0.000000000000000000, 0.000000000000000000 ) ) ;
#285 = ORIENTED_EDGE ( 'NONE', *, *, #202, .F. ) ;
#286 = FACE_OUTER_BOUND ( 'NONE', #48, .T. ) ;
#287 = ORIENTED_EDGE ( 'NONE', *, *, #192, .F. ) ;
#288 =( GEOMETRIC_REPRESENTATION_CONTEXT ( 3 ) GLOBAL_UNCERTAINTY_ASSIGNED_CONTEXT ( ( #66 ) ) GLOBAL_UNIT_ASSIGNED_CONTEXT ( ( #21, #43, #208 ) ) REPRESENTATION_CONTEXT ( 'NONE', 'WORKASPACE' ) );
#289 = ADVANCED_FACE ( 'NONE', ( #88 ), #281, .T. ) ;
#290 = CARTESIAN_POINT ( 'NONE',  ( 0.000000000000000000, 0.000000000000000000, 0.000000000000000000 ) ) ;
#291 = UNCERTAINTY_MEASURE_WITH_UNIT (LENGTH_MEASURE( 1.000000000000000082E-05 ), #130, 'distance_accuracy_value', 'NONE');
#292 = SURFACE_SIDE_STYLE ('',( #147 ) ) ;
#293 = ADVANCED_FACE ( 'NONE', ( #302 ), #209, .T. ) ;
#294 = LINE ( 'NONE', #79, #159 ) ;
#295 = DIMENSIONAL_EXPONENTS ( 1.000000000000000000, 0.000000000000000000, 0.000000000000000000, 0.000000000000000000, 0.000000000000000000, 0.000000000000000000, 0.000000000000000000 ) ;
#296 = CARTESIAN_POINT ( 'NONE',  ( 0.000000000000000000, 1.250000000000000000, -0.2500000000000000000 ) ) ;
#297 = PRESENTATION_STYLE_ASSIGNMENT (( #87 ) ) ;
#298 = MECHANICAL_DESIGN_GEOMETRIC_PRESENTATION_REPRESENTATION (  '', ( #36 ), #50 ) ;
#299 = LENGTH_MEASURE_WITH_UNIT ( LENGTH_MEASURE( 0.02539999999999999897 ), #112 );
#300 = STYLED_ITEM ( 'NONE', ( #297 ), #6 ) ;
#301 =( LENGTH_UNIT ( ) NAMED_UNIT ( * ) SI_UNIT ( $, .METRE. ) );
#302 = FACE_OUTER_BOUND ( 'NONE', #166, .T. ) ;
#303 = FILL_AREA_STYLE_COLOUR ( '', #151 ) ;
#304 = UNCERTAINTY_MEASURE_WITH_UNIT (LENGTH_MEASURE( 1.000000000000000082E-05 ), #228, 'distance_accuracy_value', 'NONE');
#305 = AXIS2_PLACEMENT_3D ( 'NONE', #97, #239, #80 ) ;
#306 = AXIS2_PLACEMENT_3D ( 'NONE', #63, #39, #138 ) ;
#307 = ORIENTED_EDGE ( 'NONE', *, *, #164, .T. ) ;
#308 = SURFACE_STYLE_FILL_AREA ( #116 ) ;
#309 = DIRECTION ( 'NONE',  ( 0.000000000000000000, 0.000000000000000000, -1.000000000000000000 ) ) ;
ENDSEC;
END-ISO-10303-21;
