ISO-10303-21;
HEADER;
FILE_DESCRIPTION (( 'STEP AP214' ),
    '1' );
FILE_NAME ('81715W.STEP',
    '2023-06-23T03:03:49',
    ( '' ),
    ( '' ),
    'SwSTEP 2.0',
    'SolidWorks 2023',
    '' );
FILE_SCHEMA (( 'AUTOMOTIVE_DESIGN' ));
ENDSEC;

DATA;
#1 = CARTESIAN_POINT ( 'NONE',  ( 3.061616997868383018E-17, 2.500000000000000000, 0.2500000000000000000 ) ) ;
#2 = PRODUCT_RELATED_PRODUCT_CATEGORY ( 'part', '', ( #37 ) ) ;
#3 = DIRECTION ( 'NONE',  ( -0.000000000000000000, -1.000000000000000000, -0.000000000000000000 ) ) ;
#4 = DIRECTION ( 'NONE',  ( -1.000000000000000000, 0.000000000000000000, 0.000000000000000000 ) ) ;
#5 = AXIS2_PLACEMENT_3D ( 'NONE', #304, #45, #17 ) ;
#6 = CARTESIAN_POINT ( 'NONE',  ( 0.000000000000000000, 0.000000000000000000, -0.2500000000000000000 ) ) ;
#7 = DIRECTION ( 'NONE',  ( 1.224646799147353207E-16, -1.000000000000000000, 0.000000000000000000 ) ) ;
#8 = DIRECTION ( 'NONE',  ( 0.000000000000000000, 0.000000000000000000, -1.000000000000000000 ) ) ;
#9 = PRESENTATION_STYLE_ASSIGNMENT (( #61 ) ) ;
#10 =( CONVERSION_BASED_UNIT ( 'INCH', #80 ) LENGTH_UNIT ( ) NAMED_UNIT ( #276 ) );
#11 = ORIENTED_EDGE ( 'NONE', *, *, #137, .T. ) ;
#12 = MECHANICAL_DESIGN_GEOMETRIC_PRESENTATION_REPRESENTATION (  '', ( #96 ), #159 ) ;
#13 = PLANE ( 'NONE',  #186 ) ;
#14 = DIRECTION ( 'NONE',  ( 0.000000000000000000, 0.000000000000000000, -1.000000000000000000 ) ) ;
#15 = PRESENTATION_STYLE_ASSIGNMENT (( #228 ) ) ;
#16 = AXIS2_PLACEMENT_3D ( 'NONE', #133, #273, #247 ) ;
#17 = DIRECTION ( 'NONE',  ( 0.000000000000000000, 0.000000000000000000, -1.000000000000000000 ) ) ;
#18 = FILL_AREA_STYLE ('',( #19 ) ) ;
#19 = FILL_AREA_STYLE_COLOUR ( '', #274 ) ;
#20 = VERTEX_POINT ( 'NONE', #28 ) ;
#21 =( NAMED_UNIT ( * ) SI_UNIT ( $, .STERADIAN. ) SOLID_ANGLE_UNIT ( ) );
#22 = ORIENTED_EDGE ( 'NONE', *, *, #51, .T. ) ;
#23 = PRODUCT_DEFINITION ( 'UNKNOWN', '', #145, #75 ) ;
#24 = AXIS2_PLACEMENT_3D ( 'NONE', #277, #179, #14 ) ;
#25 =( LENGTH_UNIT ( ) NAMED_UNIT ( * ) SI_UNIT ( $, .METRE. ) );
#26 = VERTEX_POINT ( 'NONE', #132 ) ;
#27 = SURFACE_SIDE_STYLE ('',( #103 ) ) ;
#28 = CARTESIAN_POINT ( 'NONE',  ( -0.2500000000000006106, 5.000000000000000000, 0.000000000000000000 ) ) ;
#29 =( GEOMETRIC_REPRESENTATION_CONTEXT ( 3 ) GLOBAL_UNCERTAINTY_ASSIGNED_CONTEXT ( ( #229 ) ) GLOBAL_UNIT_ASSIGNED_CONTEXT ( ( #231, #253, #184 ) ) REPRESENTATION_CONTEXT ( 'NONE', 'WORKASPACE' ) );
#30 = STYLED_ITEM ( 'NONE', ( #15 ), #191 ) ;
#31 = SURFACE_STYLE_FILL_AREA ( #105 ) ;
#32 = ADVANCED_FACE ( 'NONE', ( #91 ), #268, .T. ) ;
#33 = FACE_OUTER_BOUND ( 'NONE', #150, .T. ) ;
#34 = COLOUR_RGB ( '',1.000000000000000000, 0.000000000000000000, 0.000000000000000000 ) ;
#35 = PRESENTATION_LAYER_ASSIGNMENT (  '', '', ( #194 ) ) ;
#36 = CARTESIAN_POINT ( 'NONE',  ( 0.2499999999999998335, 5.000000000000000000, 3.061616997868384251E-17 ) ) ;
#37 = PRODUCT ( '81715W', '81715W', '', ( #177 ) ) ;
#38 = CARTESIAN_POINT ( 'NONE',  ( -3.061616997868383141E-16, 5.000000000000000000, 0.000000000000000000 ) ) ;
#39 = ADVANCED_FACE ( 'NONE', ( #88 ), #203, .F. ) ;
#40 = SURFACE_STYLE_FILL_AREA ( #185 ) ;
#41 = DIRECTION ( 'NONE',  ( -1.224646799147353207E-16, 1.000000000000000000, -0.000000000000000000 ) ) ;
#42 = COLOUR_RGB ( '',0.7921568627450980005, 0.8196078431372548767, 0.9333333333333333481 ) ;
#43 = APPLICATION_CONTEXT ( 'automotive_design' ) ;
#44 = SURFACE_STYLE_FILL_AREA ( #141 ) ;
#45 = DIRECTION ( 'NONE',  ( -0.000000000000000000, -1.000000000000000000, -0.000000000000000000 ) ) ;
#46 = UNCERTAINTY_MEASURE_WITH_UNIT (LENGTH_MEASURE( 1.000000000000000082E-05 ), #198, 'distance_accuracy_value', 'NONE');
#47 = ORIENTED_EDGE ( 'NONE', *, *, #113, .T. ) ;
#48 = VECTOR ( 'NONE', #215, 39.37007874015748143 ) ;
#49 = LENGTH_MEASURE_WITH_UNIT ( LENGTH_MEASURE( 0.02539999999999999897 ), #165 );
#50 = ORIENTED_EDGE ( 'NONE', *, *, #64, .F. ) ;
#51 = EDGE_CURVE ( 'NONE', #20, #239, #57, .T. ) ;
#52 = UNCERTAINTY_MEASURE_WITH_UNIT (LENGTH_MEASURE( 1.000000000000000082E-05 ), #10, 'distance_accuracy_value', 'NONE');
#53 =( NAMED_UNIT ( * ) PLANE_ANGLE_UNIT ( ) SI_UNIT ( $, .RADIAN. ) );
#54 = VERTEX_POINT ( 'NONE', #130 ) ;
#55 =( LENGTH_UNIT ( ) NAMED_UNIT ( * ) SI_UNIT ( $, .METRE. ) );
#56 = FILL_AREA_STYLE_COLOUR ( '', #42 ) ;
#57 = CIRCLE ( 'NONE', #238, 0.2500000000000002776 ) ;
#58 = SHAPE_DEFINITION_REPRESENTATION ( #236, #67 ) ;
#59 =( NAMED_UNIT ( * ) PLANE_ANGLE_UNIT ( ) SI_UNIT ( $, .RADIAN. ) );
#60 = ADVANCED_FACE ( 'NONE', ( #246 ), #287, .T. ) ;
#61 = SURFACE_STYLE_USAGE ( .BOTH. , #27 ) ;
#62 = CARTESIAN_POINT ( 'NONE',  ( 0.000000000000000000, 2.500000000000000000, 0.000000000000000000 ) ) ;
#63 = VECTOR ( 'NONE', #272, 39.37007874015748143 ) ;
#64 = EDGE_CURVE ( 'NONE', #168, #239, #94, .T. ) ;
#65 = CARTESIAN_POINT ( 'NONE',  ( 0.000000000000000000, 0.000000000000000000, 0.000000000000000000 ) ) ;
#66 = DIRECTION ( 'NONE',  ( -1.000000000000000000, 0.000000000000000000, 0.000000000000000000 ) ) ;
#67 = ADVANCED_BREP_SHAPE_REPRESENTATION ( '81715W', ( #191, #293, #174 ), #219 ) ;
#68 = DIRECTION ( 'NONE',  ( -1.000000000000000000, -1.224646799147353207E-16, 0.000000000000000000 ) ) ;
#69 =( GEOMETRIC_REPRESENTATION_CONTEXT ( 3 ) GLOBAL_UNCERTAINTY_ASSIGNED_CONTEXT ( ( #261 ) ) GLOBAL_UNIT_ASSIGNED_CONTEXT ( ( #76, #307, #21 ) ) REPRESENTATION_CONTEXT ( 'NONE', 'WORKASPACE' ) );
#70 = AXIS2_PLACEMENT_3D ( 'NONE', #286, #288, #8 ) ;
#71 = DIMENSIONAL_EXPONENTS ( 1.000000000000000000, 0.000000000000000000, 0.000000000000000000, 0.000000000000000000, 0.000000000000000000, 0.000000000000000000, 0.000000000000000000 ) ;
#72 = LENGTH_MEASURE_WITH_UNIT ( LENGTH_MEASURE( 0.02539999999999999897 ), #98 );
#73 = ORIENTED_EDGE ( 'NONE', *, *, #240, .F. ) ;
#74 = SURFACE_STYLE_USAGE ( .BOTH. , #258 ) ;
#75 = PRODUCT_DEFINITION_CONTEXT ( 'detailed design', #290, 'design' ) ;
#76 =( CONVERSION_BASED_UNIT ( 'INCH', #49 ) LENGTH_UNIT ( ) NAMED_UNIT ( #302 ) );
#77 = EDGE_CURVE ( 'NONE', #54, #26, #208, .T. ) ;
#78 = ORIENTED_EDGE ( 'NONE', *, *, #64, .T. ) ;
#79 = AXIS2_PLACEMENT_3D ( 'NONE', #38, #297, #66 ) ;
#80 = LENGTH_MEASURE_WITH_UNIT ( LENGTH_MEASURE( 0.02539999999999999897 ), #266 );
#81 =( NAMED_UNIT ( * ) PLANE_ANGLE_UNIT ( ) SI_UNIT ( $, .RADIAN. ) );
#82 = AXIS2_PLACEMENT_3D ( 'NONE', #85, #156, #176 ) ;
#83 =( GEOMETRIC_REPRESENTATION_CONTEXT ( 3 ) GLOBAL_UNCERTAINTY_ASSIGNED_CONTEXT ( ( #52 ) ) GLOBAL_UNIT_ASSIGNED_CONTEXT ( ( #10, #53, #220 ) ) REPRESENTATION_CONTEXT ( 'NONE', 'WORKASPACE' ) );
#84 = LENGTH_MEASURE_WITH_UNIT ( LENGTH_MEASURE( 0.02539999999999999897 ), #25 );
#85 = CARTESIAN_POINT ( 'NONE',  ( 0.000000000000000000, 0.000000000000000000, 0.000000000000000000 ) ) ;
#86 = SURFACE_SIDE_STYLE ('',( #263 ) ) ;
#87 =( NAMED_UNIT ( * ) SI_UNIT ( $, .STERADIAN. ) SOLID_ANGLE_UNIT ( ) );
#88 = FACE_OUTER_BOUND ( 'NONE', #214, .T. ) ;
#89 = PRESENTATION_LAYER_ASSIGNMENT (  '', '', ( #309 ) ) ;
#90 = MECHANICAL_DESIGN_GEOMETRIC_PRESENTATION_REPRESENTATION (  '', ( #194 ), #230 ) ;
#91 = FACE_OUTER_BOUND ( 'NONE', #99, .T. ) ;
#92 = DIRECTION ( 'NONE',  ( -1.000000000000000000, 0.000000000000000000, 0.000000000000000000 ) ) ;
#93 =( LENGTH_UNIT ( ) NAMED_UNIT ( * ) SI_UNIT ( $, .METRE. ) );
#94 = LINE ( 'NONE', #36, #63 ) ;
#95 = CYLINDRICAL_SURFACE ( 'NONE', #5, 0.2500000000000000000 ) ;
#96 = STYLED_ITEM ( 'NONE', ( #201 ), #60 ) ;
#97 = ORIENTED_EDGE ( 'NONE', *, *, #291, .F. ) ;
#98 =( LENGTH_UNIT ( ) NAMED_UNIT ( * ) SI_UNIT ( $, .METRE. ) );
#99 = EDGE_LOOP ( 'NONE', ( #264, #262 ) ) ;
#100 = ORIENTED_EDGE ( 'NONE', *, *, #285, .F. ) ;
#101 = STYLED_ITEM ( 'NONE', ( #167 ), #269 ) ;
#102 = LINE ( 'NONE', #197, #299 ) ;
#103 = SURFACE_STYLE_FILL_AREA ( #110 ) ;
#104 = DIRECTION ( 'NONE',  ( 1.000000000000000000, 0.000000000000000000, 0.000000000000000000 ) ) ;
#105 = FILL_AREA_STYLE ('',( #226 ) ) ;
#106 = CLOSED_SHELL ( 'NONE', ( #161, #142, #182, #39 ) ) ;
#107 = AXIS2_PLACEMENT_3D ( 'NONE', #136, #41, #92 ) ;
#108 = PRESENTATION_STYLE_ASSIGNMENT (( #175 ) ) ;
#109 = APPLICATION_PROTOCOL_DEFINITION ( 'draft international standard', 'automotive_design', 1998, #43 ) ;
#110 = FILL_AREA_STYLE ('',( #224 ) ) ;
#111 = AXIS2_PLACEMENT_3D ( 'NONE', #65, #227, #210 ) ;
#112 = DIRECTION ( 'NONE',  ( -1.224646799147353207E-16, 1.000000000000000000, 0.000000000000000000 ) ) ;
#113 = EDGE_CURVE ( 'NONE', #281, #216, #209, .T. ) ;
#114 = CYLINDRICAL_SURFACE ( 'NONE', #79, 0.2500000000000001110 ) ;
#115 = CARTESIAN_POINT ( 'NONE',  ( -3.061616997868383141E-16, 5.000000000000000000, 0.000000000000000000 ) ) ;
#116 = AXIS2_PLACEMENT_3D ( 'NONE', #221, #7, #199 ) ;
#117 = UNCERTAINTY_MEASURE_WITH_UNIT (LENGTH_MEASURE( 1.000000000000000082E-05 ), #178, 'distance_accuracy_value', 'NONE');
#118 = FACE_OUTER_BOUND ( 'NONE', #278, .T. ) ;
#119 = ORIENTED_EDGE ( 'NONE', *, *, #291, .T. ) ;
#120 = DIMENSIONAL_EXPONENTS ( 1.000000000000000000, 0.000000000000000000, 0.000000000000000000, 0.000000000000000000, 0.000000000000000000, 0.000000000000000000, 0.000000000000000000 ) ;
#121 = SURFACE_STYLE_USAGE ( .BOTH. , #284 ) ;
#122 = STYLED_ITEM ( 'NONE', ( #108 ), #293 ) ;
#123 = SURFACE_STYLE_FILL_AREA ( #18 ) ;
#124 = ORIENTED_EDGE ( 'NONE', *, *, #300, .F. ) ;
#125 = DIRECTION ( 'NONE',  ( -1.000000000000000000, 0.000000000000000000, 0.000000000000000000 ) ) ;
#126 = VERTEX_POINT ( 'NONE', #138 ) ;
#127 = CARTESIAN_POINT ( 'NONE',  ( 0.000000000000000000, 0.000000000000000000, 0.000000000000000000 ) ) ;
#128 = COLOUR_RGB ( '',1.000000000000000000, 0.000000000000000000, 0.000000000000000000 ) ;
#129 =( LENGTH_UNIT ( ) NAMED_UNIT ( * ) SI_UNIT ( $, .METRE. ) );
#130 = CARTESIAN_POINT ( 'NONE',  ( 0.000000000000000000, 0.000000000000000000, -0.2500000000000000000 ) ) ;
#131 = COLOUR_RGB ( '',1.000000000000000000, 0.000000000000000000, 0.000000000000000000 ) ;
#132 = CARTESIAN_POINT ( 'NONE',  ( 3.061616997868383018E-17, 0.000000000000000000, 0.2500000000000000000 ) ) ;
#133 = CARTESIAN_POINT ( 'NONE',  ( 0.000000000000000000, 2.500000000000000000, 0.000000000000000000 ) ) ;
#134 = PRESENTATION_LAYER_ASSIGNMENT (  '', '', ( #30 ) ) ;
#135 = MECHANICAL_DESIGN_GEOMETRIC_PRESENTATION_REPRESENTATION (  '', ( #122 ), #83 ) ;
#136 = CARTESIAN_POINT ( 'NONE',  ( 0.000000000000000000, 2.500000000000000000, 0.000000000000000000 ) ) ;
#137 = EDGE_CURVE ( 'NONE', #168, #126, #255, .T. ) ;
#138 = CARTESIAN_POINT ( 'NONE',  ( -0.2500000000000000000, 2.500000000000000000, 0.000000000000000000 ) ) ;
#139 = CARTESIAN_POINT ( 'NONE',  ( 0.2500000000000000000, 2.500000000000000000, 3.061616997868385483E-17 ) ) ;
#140 = LENGTH_MEASURE_WITH_UNIT ( LENGTH_MEASURE( 0.02539999999999999897 ), #93 );
#141 = FILL_AREA_STYLE ('',( #283 ) ) ;
#142 = ADVANCED_FACE ( 'NONE', ( #33 ), #13, .F. ) ;
#143 = ORIENTED_EDGE ( 'NONE', *, *, #234, .F. ) ;
#144 =( NAMED_UNIT ( * ) PLANE_ANGLE_UNIT ( ) SI_UNIT ( $, .RADIAN. ) );
#145 = PRODUCT_DEFINITION_FORMATION_WITH_SPECIFIED_SOURCE ( 'ANY', '', #37, .NOT_KNOWN. ) ;
#146 = ORIENTED_EDGE ( 'NONE', *, *, #285, .T. ) ;
#147 = LINE ( 'NONE', #169, #48 ) ;
#148 = ORIENTED_EDGE ( 'NONE', *, *, #300, .T. ) ;
#149 = DIRECTION ( 'NONE',  ( -0.000000000000000000, -1.000000000000000000, -0.000000000000000000 ) ) ;
#150 = EDGE_LOOP ( 'NONE', ( #166, #188 ) ) ;
#151 =( NAMED_UNIT ( * ) SI_UNIT ( $, .STERADIAN. ) SOLID_ANGLE_UNIT ( ) );
#152 = EDGE_CURVE ( 'NONE', #26, #54, #294, .T. ) ;
#153 = DIRECTION ( 'NONE',  ( -1.224646799147353207E-16, 1.000000000000000000, -0.000000000000000000 ) ) ;
#154 = AXIS2_PLACEMENT_3D ( 'NONE', #115, #256, #125 ) ;
#155 =( CONVERSION_BASED_UNIT ( 'INCH', #245 ) LENGTH_UNIT ( ) NAMED_UNIT ( #71 ) );
#156 = DIRECTION ( 'NONE',  ( 0.000000000000000000, -1.000000000000000000, -0.000000000000000000 ) ) ;
#157 = EDGE_CURVE ( 'NONE', #126, #168, #202, .T. ) ;
#158 = FACE_OUTER_BOUND ( 'NONE', #280, .T. ) ;
#159 =( GEOMETRIC_REPRESENTATION_CONTEXT ( 3 ) GLOBAL_UNCERTAINTY_ASSIGNED_CONTEXT ( ( #117 ) ) GLOBAL_UNIT_ASSIGNED_CONTEXT ( ( #178, #59, #151 ) ) REPRESENTATION_CONTEXT ( 'NONE', 'WORKASPACE' ) );
#160 = DIRECTION ( 'NONE',  ( -1.224646799147353207E-16, 1.000000000000000000, -0.000000000000000000 ) ) ;
#161 = ADVANCED_FACE ( 'NONE', ( #158 ), #114, .T. ) ;
#162 = DIRECTION ( 'NONE',  ( 0.000000000000000000, 0.000000000000000000, -1.000000000000000000 ) ) ;
#163 =( GEOMETRIC_REPRESENTATION_CONTEXT ( 3 ) GLOBAL_UNCERTAINTY_ASSIGNED_CONTEXT ( ( #190 ) ) GLOBAL_UNIT_ASSIGNED_CONTEXT ( ( #155, #81, #289 ) ) REPRESENTATION_CONTEXT ( 'NONE', 'WORKASPACE' ) );
#164 = PRESENTATION_LAYER_ASSIGNMENT (  '', '', ( #122 ) ) ;
#165 =( LENGTH_UNIT ( ) NAMED_UNIT ( * ) SI_UNIT ( $, .METRE. ) );
#166 = ORIENTED_EDGE ( 'NONE', *, *, #157, .F. ) ;
#167 = PRESENTATION_STYLE_ASSIGNMENT (( #121 ) ) ;
#168 = VERTEX_POINT ( 'NONE', #139 ) ;
#169 = CARTESIAN_POINT ( 'NONE',  ( -0.2500000000000004441, 5.000000000000000000, 0.000000000000000000 ) ) ;
#170 = EDGE_LOOP ( 'NONE', ( #100, #47, #119, #172 ) ) ;
#171 = UNCERTAINTY_MEASURE_WITH_UNIT (LENGTH_MEASURE( 1.000000000000000082E-05 ), #237, 'distance_accuracy_value', 'NONE');
#172 = ORIENTED_EDGE ( 'NONE', *, *, #152, .F. ) ;
#173 = CIRCLE ( 'NONE', #154, 0.2500000000000002776 ) ;
#174 = AXIS2_PLACEMENT_3D ( 'NONE', #243, #222, #104 ) ;
#175 = SURFACE_STYLE_USAGE ( .BOTH. , #86 ) ;
#176 = DIRECTION ( 'NONE',  ( 0.000000000000000000, 0.000000000000000000, -1.000000000000000000 ) ) ;
#177 = PRODUCT_CONTEXT ( 'NONE', #43, 'mechanical' ) ;
#178 =( CONVERSION_BASED_UNIT ( 'INCH', #204 ) LENGTH_UNIT ( ) NAMED_UNIT ( #120 ) );
#179 = DIRECTION ( 'NONE',  ( -0.000000000000000000, -1.000000000000000000, -0.000000000000000000 ) ) ;
#180 = DIMENSIONAL_EXPONENTS ( 1.000000000000000000, 0.000000000000000000, 0.000000000000000000, 0.000000000000000000, 0.000000000000000000, 0.000000000000000000, 0.000000000000000000 ) ;
#181 = VECTOR ( 'NONE', #3, 39.37007874015748143 ) ;
#182 = ADVANCED_FACE ( 'NONE', ( #118 ), #211, .T. ) ;
#183 = CARTESIAN_POINT ( 'NONE',  ( 1.874699728327322010E-33, 2.500000000000000000, 0.000000000000000000 ) ) ;
#184 =( NAMED_UNIT ( * ) SI_UNIT ( $, .STERADIAN. ) SOLID_ANGLE_UNIT ( ) );
#185 = FILL_AREA_STYLE ('',( #301 ) ) ;
#186 = AXIS2_PLACEMENT_3D ( 'NONE', #183, #112, #68 ) ;
#187 = CYLINDRICAL_SURFACE ( 'NONE', #260, 0.2500000000000000000 ) ;
#188 = ORIENTED_EDGE ( 'NONE', *, *, #137, .F. ) ;
#189 = DIRECTION ( 'NONE',  ( -0.000000000000000000, -1.000000000000000000, -0.000000000000000000 ) ) ;
#190 = UNCERTAINTY_MEASURE_WITH_UNIT (LENGTH_MEASURE( 1.000000000000000082E-05 ), #155, 'distance_accuracy_value', 'NONE');
#191 = MANIFOLD_SOLID_BREP ( 'Revolve - Cutting Edge', #193 ) ;
#192 = FACE_OUTER_BOUND ( 'NONE', #308, .T. ) ;
#193 = CLOSED_SHELL ( 'NONE', ( #269, #60, #249, #32 ) ) ;
#194 = STYLED_ITEM ( 'NONE', ( #213 ), #249 ) ;
#195 = FACE_OUTER_BOUND ( 'NONE', #170, .T. ) ;
#196 = ORIENTED_EDGE ( 'NONE', *, *, #77, .F. ) ;
#197 = CARTESIAN_POINT ( 'NONE',  ( 3.061616997868383018E-17, 0.000000000000000000, 0.2500000000000000000 ) ) ;
#198 =( CONVERSION_BASED_UNIT ( 'INCH', #84 ) LENGTH_UNIT ( ) NAMED_UNIT ( #207 ) );
#199 = DIRECTION ( 'NONE',  ( 1.000000000000000000, 1.224646799147353207E-16, 0.000000000000000000 ) ) ;
#200 = FILL_AREA_STYLE ('',( #56 ) ) ;
#201 = PRESENTATION_STYLE_ASSIGNMENT (( #205 ) ) ;
#202 = CIRCLE ( 'NONE', #282, 0.2500000000000000000 ) ;
#203 = PLANE ( 'NONE',  #116 ) ;
#204 = LENGTH_MEASURE_WITH_UNIT ( LENGTH_MEASURE( 0.02539999999999999897 ), #55 );
#205 = SURFACE_STYLE_USAGE ( .BOTH. , #295 ) ;
#206 = CARTESIAN_POINT ( 'NONE',  ( 0.000000000000000000, 2.500000000000000000, 0.000000000000000000 ) ) ;
#207 = DIMENSIONAL_EXPONENTS ( 1.000000000000000000, 0.000000000000000000, 0.000000000000000000, 0.000000000000000000, 0.000000000000000000, 0.000000000000000000, 0.000000000000000000 ) ;
#208 = CIRCLE ( 'NONE', #111, 0.2500000000000000000 ) ;
#209 = CIRCLE ( 'NONE', #232, 0.2500000000000000000 ) ;
#210 = DIRECTION ( 'NONE',  ( 0.000000000000000000, 0.000000000000000000, -1.000000000000000000 ) ) ;
#211 = CYLINDRICAL_SURFACE ( 'NONE', #305, 0.2500000000000001110 ) ;
#212 = ORIENTED_EDGE ( 'NONE', *, *, #234, .T. ) ;
#213 = PRESENTATION_STYLE_ASSIGNMENT (( #74 ) ) ;
#214 = EDGE_LOOP ( 'NONE', ( #22, #212 ) ) ;
#215 = DIRECTION ( 'NONE',  ( -1.224646799147353207E-16, 1.000000000000000000, -0.000000000000000000 ) ) ;
#216 = VERTEX_POINT ( 'NONE', #306 ) ;
#217 = MECHANICAL_DESIGN_GEOMETRIC_PRESENTATION_REPRESENTATION (  '', ( #30 ), #29 ) ;
#218 = DIRECTION ( 'NONE',  ( 0.000000000000000000, 0.000000000000000000, -1.000000000000000000 ) ) ;
#219 =( GEOMETRIC_REPRESENTATION_CONTEXT ( 3 ) GLOBAL_UNCERTAINTY_ASSIGNED_CONTEXT ( ( #46 ) ) GLOBAL_UNIT_ASSIGNED_CONTEXT ( ( #198, #267, #87 ) ) REPRESENTATION_CONTEXT ( 'NONE', 'WORKASPACE' ) );
#220 =( NAMED_UNIT ( * ) SI_UNIT ( $, .STERADIAN. ) SOLID_ANGLE_UNIT ( ) );
#221 = CARTESIAN_POINT ( 'NONE',  ( 0.2500000000000000000, 5.000000000000000000, 0.000000000000000000 ) ) ;
#222 = DIRECTION ( 'NONE',  ( 0.000000000000000000, 0.000000000000000000, 1.000000000000000000 ) ) ;
#223 = ORIENTED_EDGE ( 'NONE', *, *, #157, .T. ) ;
#224 = FILL_AREA_STYLE_COLOUR ( '', #34 ) ;
#225 = MECHANICAL_DESIGN_GEOMETRIC_PRESENTATION_REPRESENTATION (  '', ( #101 ), #69 ) ;
#226 = FILL_AREA_STYLE_COLOUR ( '', #128 ) ;
#227 = DIRECTION ( 'NONE',  ( -0.000000000000000000, -1.000000000000000000, -0.000000000000000000 ) ) ;
#228 = SURFACE_STYLE_USAGE ( .BOTH. , #252 ) ;
#229 = UNCERTAINTY_MEASURE_WITH_UNIT (LENGTH_MEASURE( 1.000000000000000082E-05 ), #231, 'distance_accuracy_value', 'NONE');
#230 =( GEOMETRIC_REPRESENTATION_CONTEXT ( 3 ) GLOBAL_UNCERTAINTY_ASSIGNED_CONTEXT ( ( #171 ) ) GLOBAL_UNIT_ASSIGNED_CONTEXT ( ( #237, #144, #235 ) ) REPRESENTATION_CONTEXT ( 'NONE', 'WORKASPACE' ) );
#231 =( CONVERSION_BASED_UNIT ( 'INCH', #140 ) LENGTH_UNIT ( ) NAMED_UNIT ( #180 ) );
#232 = AXIS2_PLACEMENT_3D ( 'NONE', #62, #298, #162 ) ;
#233 = EDGE_LOOP ( 'NONE', ( #124, #259 ) ) ;
#234 = EDGE_CURVE ( 'NONE', #239, #20, #173, .T. ) ;
#235 =( NAMED_UNIT ( * ) SI_UNIT ( $, .STERADIAN. ) SOLID_ANGLE_UNIT ( ) );
#236 = PRODUCT_DEFINITION_SHAPE ( 'NONE', 'NONE',  #23 ) ;
#237 =( CONVERSION_BASED_UNIT ( 'INCH', #72 ) LENGTH_UNIT ( ) NAMED_UNIT ( #248 ) );
#238 = AXIS2_PLACEMENT_3D ( 'NONE', #292, #153, #4 ) ;
#239 = VERTEX_POINT ( 'NONE', #279 ) ;
#240 = EDGE_CURVE ( 'NONE', #126, #20, #147, .T. ) ;
#241 = ORIENTED_EDGE ( 'NONE', *, *, #51, .F. ) ;
#242 = LINE ( 'NONE', #6, #181 ) ;
#243 = CARTESIAN_POINT ( 'NONE',  ( 0.000000000000000000, 0.000000000000000000, 0.000000000000000000 ) ) ;
#244 = COLOUR_RGB ( '',0.7921568627450980005, 0.8196078431372548767, 0.9333333333333333481 ) ;
#245 = LENGTH_MEASURE_WITH_UNIT ( LENGTH_MEASURE( 0.02539999999999999897 ), #129 );
#246 = FACE_OUTER_BOUND ( 'NONE', #233, .T. ) ;
#247 = DIRECTION ( 'NONE',  ( 0.000000000000000000, -0.000000000000000000, 1.000000000000000000 ) ) ;
#248 = DIMENSIONAL_EXPONENTS ( 1.000000000000000000, 0.000000000000000000, 0.000000000000000000, 0.000000000000000000, 0.000000000000000000, 0.000000000000000000, 0.000000000000000000 ) ;
#249 = ADVANCED_FACE ( 'NONE', ( #195 ), #95, .T. ) ;
#250 = DIRECTION ( 'NONE',  ( -1.000000000000000000, 0.000000000000000000, 0.000000000000000000 ) ) ;
#251 = CIRCLE ( 'NONE', #70, 0.2500000000000000000 ) ;
#252 = SURFACE_SIDE_STYLE ('',( #40 ) ) ;
#253 =( NAMED_UNIT ( * ) PLANE_ANGLE_UNIT ( ) SI_UNIT ( $, .RADIAN. ) );
#254 = MECHANICAL_DESIGN_GEOMETRIC_PRESENTATION_REPRESENTATION (  '', ( #309 ), #163 ) ;
#255 = CIRCLE ( 'NONE', #107, 0.2500000000000000000 ) ;
#256 = DIRECTION ( 'NONE',  ( -1.224646799147353207E-16, 1.000000000000000000, -0.000000000000000000 ) ) ;
#257 = ORIENTED_EDGE ( 'NONE', *, *, #240, .T. ) ;
#258 = SURFACE_SIDE_STYLE ('',( #44 ) ) ;
#259 = ORIENTED_EDGE ( 'NONE', *, *, #113, .F. ) ;
#260 = AXIS2_PLACEMENT_3D ( 'NONE', #127, #189, #218 ) ;
#261 = UNCERTAINTY_MEASURE_WITH_UNIT (LENGTH_MEASURE( 1.000000000000000082E-05 ), #76, 'distance_accuracy_value', 'NONE');
#262 = ORIENTED_EDGE ( 'NONE', *, *, #152, .T. ) ;
#263 = SURFACE_STYLE_FILL_AREA ( #200 ) ;
#264 = ORIENTED_EDGE ( 'NONE', *, *, #77, .T. ) ;
#265 = PRESENTATION_LAYER_ASSIGNMENT (  '', '', ( #96 ) ) ;
#266 =( LENGTH_UNIT ( ) NAMED_UNIT ( * ) SI_UNIT ( $, .METRE. ) );
#267 =( NAMED_UNIT ( * ) PLANE_ANGLE_UNIT ( ) SI_UNIT ( $, .RADIAN. ) );
#268 = PLANE ( 'NONE',  #82 ) ;
#269 = ADVANCED_FACE ( 'NONE', ( #192 ), #187, .T. ) ;
#270 = APPLICATION_PROTOCOL_DEFINITION ( 'draft international standard', 'automotive_design', 1998, #290 ) ;
#271 = PRESENTATION_LAYER_ASSIGNMENT (  '', '', ( #101 ) ) ;
#272 = DIRECTION ( 'NONE',  ( -1.224646799147353207E-16, 1.000000000000000000, -0.000000000000000000 ) ) ;
#273 = DIRECTION ( 'NONE',  ( 0.000000000000000000, 1.000000000000000000, 0.000000000000000000 ) ) ;
#274 = COLOUR_RGB ( '',1.000000000000000000, 0.000000000000000000, 0.000000000000000000 ) ;
#275 = DIRECTION ( 'NONE',  ( -1.000000000000000000, 0.000000000000000000, 0.000000000000000000 ) ) ;
#276 = DIMENSIONAL_EXPONENTS ( 1.000000000000000000, 0.000000000000000000, 0.000000000000000000, 0.000000000000000000, 0.000000000000000000, 0.000000000000000000, 0.000000000000000000 ) ;
#277 = CARTESIAN_POINT ( 'NONE',  ( 0.000000000000000000, 0.000000000000000000, 0.000000000000000000 ) ) ;
#278 = EDGE_LOOP ( 'NONE', ( #50, #11, #257, #143 ) ) ;
#279 = CARTESIAN_POINT ( 'NONE',  ( 0.2500000000000000000, 5.000000000000000000, 3.061616997868385483E-17 ) ) ;
#280 = EDGE_LOOP ( 'NONE', ( #223, #78, #241, #73 ) ) ;
#281 = VERTEX_POINT ( 'NONE', #1 ) ;
#282 = AXIS2_PLACEMENT_3D ( 'NONE', #206, #296, #275 ) ;
#283 = FILL_AREA_STYLE_COLOUR ( '', #131 ) ;
#284 = SURFACE_SIDE_STYLE ('',( #123 ) ) ;
#285 = EDGE_CURVE ( 'NONE', #281, #26, #102, .T. ) ;
#286 = CARTESIAN_POINT ( 'NONE',  ( 0.000000000000000000, 2.500000000000000000, 0.000000000000000000 ) ) ;
#287 = PLANE ( 'NONE',  #16 ) ;
#288 = DIRECTION ( 'NONE',  ( -0.000000000000000000, -1.000000000000000000, -0.000000000000000000 ) ) ;
#289 =( NAMED_UNIT ( * ) SI_UNIT ( $, .STERADIAN. ) SOLID_ANGLE_UNIT ( ) );
#290 = APPLICATION_CONTEXT ( 'automotive_design' ) ;
#291 = EDGE_CURVE ( 'NONE', #216, #54, #242, .T. ) ;
#292 = CARTESIAN_POINT ( 'NONE',  ( -3.061616997868383141E-16, 5.000000000000000000, 0.000000000000000000 ) ) ;
#293 = MANIFOLD_SOLID_BREP ( 'Revolve - Tool Body (Straight Shanked)', #106 ) ;
#294 = CIRCLE ( 'NONE', #24, 0.2500000000000000000 ) ;
#295 = SURFACE_SIDE_STYLE ('',( #31 ) ) ;
#296 = DIRECTION ( 'NONE',  ( -1.224646799147353207E-16, 1.000000000000000000, -0.000000000000000000 ) ) ;
#297 = DIRECTION ( 'NONE',  ( -1.224646799147353207E-16, 1.000000000000000000, -0.000000000000000000 ) ) ;
#298 = DIRECTION ( 'NONE',  ( -0.000000000000000000, -1.000000000000000000, -0.000000000000000000 ) ) ;
#299 = VECTOR ( 'NONE', #149, 39.37007874015748143 ) ;
#300 = EDGE_CURVE ( 'NONE', #216, #281, #251, .T. ) ;
#301 = FILL_AREA_STYLE_COLOUR ( '', #244 ) ;
#302 = DIMENSIONAL_EXPONENTS ( 1.000000000000000000, 0.000000000000000000, 0.000000000000000000, 0.000000000000000000, 0.000000000000000000, 0.000000000000000000, 0.000000000000000000 ) ;
#303 = CARTESIAN_POINT ( 'NONE',  ( -3.061616997868383141E-16, 5.000000000000000000, 0.000000000000000000 ) ) ;
#304 = CARTESIAN_POINT ( 'NONE',  ( 0.000000000000000000, 0.000000000000000000, 0.000000000000000000 ) ) ;
#305 = AXIS2_PLACEMENT_3D ( 'NONE', #303, #160, #250 ) ;
#306 = CARTESIAN_POINT ( 'NONE',  ( 0.000000000000000000, 2.500000000000000000, -0.2500000000000000000 ) ) ;
#307 =( NAMED_UNIT ( * ) PLANE_ANGLE_UNIT ( ) SI_UNIT ( $, .RADIAN. ) );
#308 = EDGE_LOOP ( 'NONE', ( #148, #146, #196, #97 ) ) ;
#309 = STYLED_ITEM ( 'NONE', ( #9 ), #32 ) ;
ENDSEC;
END-ISO-10303-21;
