ISO-10303-21;
HEADER;
FILE_DESCRIPTION (( 'STEP AP214' ),
    '1' );
FILE_NAME ('00795.STEP',
    '2023-06-22T14:16:57',
    ( '' ),
    ( '' ),
    'SwSTEP 2.0',
    'SolidWorks 2023',
    '' );
FILE_SCHEMA (( 'AUTOMOTIVE_DESIGN' ));
ENDSEC;

DATA;
#1 =( CONVERSION_BASED_UNIT ( 'INCH', #106 ) LENGTH_UNIT ( ) NAMED_UNIT ( #200 ) );
#2 = CARTESIAN_POINT ( 'NONE',  ( 6.123233995736766036E-17, 0.000000000000000000, 0.5000000000000000000 ) ) ;
#3 = DIRECTION ( 'NONE',  ( -4.259641040512529009E-17, 1.000000000000000000, -0.000000000000000000 ) ) ;
#4 =( LENGTH_UNIT ( ) NAMED_UNIT ( * ) SI_UNIT ( $, .METRE. ) );
#5 = DIMENSIONAL_EXPONENTS ( 1.000000000000000000, 0.000000000000000000, 0.000000000000000000, 0.000000000000000000, 0.000000000000000000, 0.000000000000000000, 0.000000000000000000 ) ;
#6 = LINE ( 'NONE', #244, #12 ) ;
#7 = SURFACE_STYLE_FILL_AREA ( #94 ) ;
#8 = EDGE_CURVE ( 'NONE', #186, #50, #6, .T. ) ;
#9 = CARTESIAN_POINT ( 'NONE',  ( 0.000000000000000000, 4.125000000000000000, 0.000000000000000000 ) ) ;
#10 = EDGE_CURVE ( 'NONE', #217, #29, #293, .T. ) ;
#11 = DIRECTION ( 'NONE',  ( -1.000000000000000000, 0.000000000000000000, 0.000000000000000000 ) ) ;
#12 = VECTOR ( 'NONE', #73, 39.37007874015748143 ) ;
#13 = CYLINDRICAL_SURFACE ( 'NONE', #148, 0.5000000000000001110 ) ;
#14 = MANIFOLD_SOLID_BREP ( 'Revolve - Tool Body (Straight Shanked)', #19 ) ;
#15 = ORIENTED_EDGE ( 'NONE', *, *, #239, .F. ) ;
#16 = APPLICATION_CONTEXT ( 'automotive_design' ) ;
#17 = PRESENTATION_STYLE_ASSIGNMENT (( #299 ) ) ;
#18 =( CONVERSION_BASED_UNIT ( 'INCH', #304 ) LENGTH_UNIT ( ) NAMED_UNIT ( #194 ) );
#19 = CLOSED_SHELL ( 'NONE', ( #283, #112, #179, #37 ) ) ;
#20 = MANIFOLD_SOLID_BREP ( 'Revolve - Cutting Edge', #211 ) ;
#21 = PRESENTATION_LAYER_ASSIGNMENT (  '', '', ( #172 ) ) ;
#22 = EDGE_CURVE ( 'NONE', #50, #29, #193, .T. ) ;
#23 = EDGE_LOOP ( 'NONE', ( #101, #290, #258, #119 ) ) ;
#24 = CARTESIAN_POINT ( 'NONE',  ( 0.4999999999999999445, 7.000000000000000000, 6.123233995736767268E-17 ) ) ;
#25 = FILL_AREA_STYLE_COLOUR ( '', #167 ) ;
#26 = DIMENSIONAL_EXPONENTS ( 1.000000000000000000, 0.000000000000000000, 0.000000000000000000, 0.000000000000000000, 0.000000000000000000, 0.000000000000000000, 0.000000000000000000 ) ;
#27 = DIRECTION ( 'NONE',  ( 1.000000000000000000, 0.000000000000000000, 0.000000000000000000 ) ) ;
#28 = CYLINDRICAL_SURFACE ( 'NONE', #182, 0.5000000000000000000 ) ;
#29 = VERTEX_POINT ( 'NONE', #2 ) ;
#30 = VECTOR ( 'NONE', #92, 39.37007874015748143 ) ;
#31 = PLANE ( 'NONE',  #81 ) ;
#32 = AXIS2_PLACEMENT_3D ( 'NONE', #291, #72, #173 ) ;
#33 = ORIENTED_EDGE ( 'NONE', *, *, #301, .T. ) ;
#34 = DIRECTION ( 'NONE',  ( -0.000000000000000000, -1.000000000000000000, -0.000000000000000000 ) ) ;
#35 = AXIS2_PLACEMENT_3D ( 'NONE', #276, #232, #82 ) ;
#36 = PRESENTATION_STYLE_ASSIGNMENT (( #270 ) ) ;
#37 = ADVANCED_FACE ( 'NONE', ( #105 ), #261, .F. ) ;
#38 = CARTESIAN_POINT ( 'NONE',  ( 0.000000000000000000, 4.125000000000000000, 0.000000000000000000 ) ) ;
#39 = SURFACE_SIDE_STYLE ('',( #7 ) ) ;
#40 = DIRECTION ( 'NONE',  ( 0.000000000000000000, 0.000000000000000000, -1.000000000000000000 ) ) ;
#41 = SURFACE_STYLE_FILL_AREA ( #248 ) ;
#42 = EDGE_LOOP ( 'NONE', ( #170, #307, #83, #71 ) ) ;
#43 =( GEOMETRIC_REPRESENTATION_CONTEXT ( 3 ) GLOBAL_UNCERTAINTY_ASSIGNED_CONTEXT ( ( #180 ) ) GLOBAL_UNIT_ASSIGNED_CONTEXT ( ( #18, #210, #70 ) ) REPRESENTATION_CONTEXT ( 'NONE', 'WORKASPACE' ) );
#44 = SURFACE_STYLE_USAGE ( .BOTH. , #156 ) ;
#45 = SURFACE_STYLE_FILL_AREA ( #185 ) ;
#46 = CARTESIAN_POINT ( 'NONE',  ( 0.000000000000000000, 0.000000000000000000, 0.000000000000000000 ) ) ;
#47 = MECHANICAL_DESIGN_GEOMETRIC_PRESENTATION_REPRESENTATION (  '', ( #146 ), #88 ) ;
#48 = CARTESIAN_POINT ( 'NONE',  ( -0.5000000000000002220, 7.000000000000000000, 0.000000000000000000 ) ) ;
#49 = SHAPE_DEFINITION_REPRESENTATION ( #135, #174 ) ;
#50 = VERTEX_POINT ( 'NONE', #282 ) ;
#51 =( NAMED_UNIT ( * ) SI_UNIT ( $, .STERADIAN. ) SOLID_ANGLE_UNIT ( ) );
#52 = DIRECTION ( 'NONE',  ( 0.000000000000000000, 0.000000000000000000, -1.000000000000000000 ) ) ;
#53 = SURFACE_STYLE_USAGE ( .BOTH. , #113 ) ;
#54 =( NAMED_UNIT ( * ) PLANE_ANGLE_UNIT ( ) SI_UNIT ( $, .RADIAN. ) );
#55 = VERTEX_POINT ( 'NONE', #169 ) ;
#56 = PLANE ( 'NONE',  #219 ) ;
#57 = ORIENTED_EDGE ( 'NONE', *, *, #130, .T. ) ;
#58 = PRESENTATION_LAYER_ASSIGNMENT (  '', '', ( #238 ) ) ;
#59 = ORIENTED_EDGE ( 'NONE', *, *, #235, .F. ) ;
#60 = UNCERTAINTY_MEASURE_WITH_UNIT (LENGTH_MEASURE( 1.000000000000000082E-05 ), #287, 'distance_accuracy_value', 'NONE');
#61 = DIRECTION ( 'NONE',  ( -4.259641040512529009E-17, 1.000000000000000000, 0.000000000000000000 ) ) ;
#62 =( LENGTH_UNIT ( ) NAMED_UNIT ( * ) SI_UNIT ( $, .METRE. ) );
#63 = FACE_OUTER_BOUND ( 'NONE', #23, .T. ) ;
#64 = ORIENTED_EDGE ( 'NONE', *, *, #118, .F. ) ;
#65 = FACE_OUTER_BOUND ( 'NONE', #231, .T. ) ;
#66 = UNCERTAINTY_MEASURE_WITH_UNIT (LENGTH_MEASURE( 1.000000000000000082E-05 ), #204, 'distance_accuracy_value', 'NONE');
#67 = DIRECTION ( 'NONE',  ( -4.259641040512529009E-17, 1.000000000000000000, -0.000000000000000000 ) ) ;
#68 = SURFACE_STYLE_FILL_AREA ( #230 ) ;
#69 = ADVANCED_FACE ( 'NONE', ( #141 ), #28, .T. ) ;
#70 =( NAMED_UNIT ( * ) SI_UNIT ( $, .STERADIAN. ) SOLID_ANGLE_UNIT ( ) );
#71 = ORIENTED_EDGE ( 'NONE', *, *, #130, .F. ) ;
#72 = DIRECTION ( 'NONE',  ( -4.259641040512529009E-17, 1.000000000000000000, -0.000000000000000000 ) ) ;
#73 = DIRECTION ( 'NONE',  ( -0.000000000000000000, -1.000000000000000000, -0.000000000000000000 ) ) ;
#74 = PRESENTATION_STYLE_ASSIGNMENT (( #171 ) ) ;
#75 = SURFACE_SIDE_STYLE ('',( #41 ) ) ;
#76 = DIRECTION ( 'NONE',  ( 0.000000000000000000, 0.000000000000000000, -1.000000000000000000 ) ) ;
#77 = FACE_OUTER_BOUND ( 'NONE', #195, .T. ) ;
#78 = LENGTH_MEASURE_WITH_UNIT ( LENGTH_MEASURE( 0.02539999999999999897 ), #62 );
#79 = COLOUR_RGB ( '',1.000000000000000000, 0.000000000000000000, 0.000000000000000000 ) ;
#80 = DIRECTION ( 'NONE',  ( -4.259641040512529009E-17, 1.000000000000000000, -0.000000000000000000 ) ) ;
#81 = AXIS2_PLACEMENT_3D ( 'NONE', #93, #61, #90 ) ;
#82 = DIRECTION ( 'NONE',  ( 0.000000000000000000, 0.000000000000000000, -1.000000000000000000 ) ) ;
#83 = ORIENTED_EDGE ( 'NONE', *, *, #8, .T. ) ;
#84 = CARTESIAN_POINT ( 'NONE',  ( 0.000000000000000000, 4.125000000000000000, 0.000000000000000000 ) ) ;
#85 = CARTESIAN_POINT ( 'NONE',  ( 0.000000000000000000, 0.000000000000000000, 0.000000000000000000 ) ) ;
#86 = CARTESIAN_POINT ( 'NONE',  ( 0.000000000000000000, 0.000000000000000000, 0.000000000000000000 ) ) ;
#87 = APPLICATION_PROTOCOL_DEFINITION ( 'draft international standard', 'automotive_design', 1998, #16 ) ;
#88 =( GEOMETRIC_REPRESENTATION_CONTEXT ( 3 ) GLOBAL_UNCERTAINTY_ASSIGNED_CONTEXT ( ( #99 ) ) GLOBAL_UNIT_ASSIGNED_CONTEXT ( ( #176, #199, #223 ) ) REPRESENTATION_CONTEXT ( 'NONE', 'WORKASPACE' ) );
#89 = ADVANCED_FACE ( 'NONE', ( #269 ), #56, .T. ) ;
#90 = DIRECTION ( 'NONE',  ( -1.000000000000000000, -4.259641040512529009E-17, 0.000000000000000000 ) ) ;
#91 = CIRCLE ( 'NONE', #35, 0.5000000000000000000 ) ;
#92 = DIRECTION ( 'NONE',  ( -0.000000000000000000, -1.000000000000000000, -0.000000000000000000 ) ) ;
#93 = CARTESIAN_POINT ( 'NONE',  ( 4.536135448504664961E-34, 4.125000000000000000, 0.000000000000000000 ) ) ;
#94 = FILL_AREA_STYLE ('',( #224 ) ) ;
#95 = DIRECTION ( 'NONE',  ( -4.259641040512529009E-17, 1.000000000000000000, -0.000000000000000000 ) ) ;
#96 = FILL_AREA_STYLE_COLOUR ( '', #208 ) ;
#97 = DIRECTION ( 'NONE',  ( -0.000000000000000000, -1.000000000000000000, -0.000000000000000000 ) ) ;
#98 = MECHANICAL_DESIGN_GEOMETRIC_PRESENTATION_REPRESENTATION (  '', ( #238 ), #252 ) ;
#99 = UNCERTAINTY_MEASURE_WITH_UNIT (LENGTH_MEASURE( 1.000000000000000082E-05 ), #176, 'distance_accuracy_value', 'NONE');
#100 =( NAMED_UNIT ( * ) SI_UNIT ( $, .STERADIAN. ) SOLID_ANGLE_UNIT ( ) );
#101 = ORIENTED_EDGE ( 'NONE', *, *, #235, .T. ) ;
#102 = STYLED_ITEM ( 'NONE', ( #213 ), #69 ) ;
#103 = CIRCLE ( 'NONE', #253, 0.5000000000000000000 ) ;
#104 = PRODUCT_CONTEXT ( 'NONE', #16, 'mechanical' ) ;
#105 = FACE_OUTER_BOUND ( 'NONE', #142, .T. ) ;
#106 = LENGTH_MEASURE_WITH_UNIT ( LENGTH_MEASURE( 0.02539999999999999897 ), #111 );
#107 =( GEOMETRIC_REPRESENTATION_CONTEXT ( 3 ) GLOBAL_UNCERTAINTY_ASSIGNED_CONTEXT ( ( #66 ) ) GLOBAL_UNIT_ASSIGNED_CONTEXT ( ( #204, #187, #100 ) ) REPRESENTATION_CONTEXT ( 'NONE', 'WORKASPACE' ) );
#108 = STYLED_ITEM ( 'NONE', ( #17 ), #289 ) ;
#109 = ORIENTED_EDGE ( 'NONE', *, *, #234, .F. ) ;
#110 = STYLED_ITEM ( 'NONE', ( #128 ), #20 ) ;
#111 =( LENGTH_UNIT ( ) NAMED_UNIT ( * ) SI_UNIT ( $, .METRE. ) );
#112 = ADVANCED_FACE ( 'NONE', ( #196 ), #31, .F. ) ;
#113 = SURFACE_SIDE_STYLE ('',( #308 ) ) ;
#114 = ORIENTED_EDGE ( 'NONE', *, *, #292, .T. ) ;
#115 = LINE ( 'NONE', #24, #227 ) ;
#116 = CARTESIAN_POINT ( 'NONE',  ( 0.5000000000000000000, 7.000000000000000000, 0.000000000000000000 ) ) ;
#117 =( GEOMETRIC_REPRESENTATION_CONTEXT ( 3 ) GLOBAL_UNCERTAINTY_ASSIGNED_CONTEXT ( ( #184 ) ) GLOBAL_UNIT_ASSIGNED_CONTEXT ( ( #1, #54, #51 ) ) REPRESENTATION_CONTEXT ( 'NONE', 'WORKASPACE' ) );
#118 = EDGE_CURVE ( 'NONE', #190, #145, #165, .T. ) ;
#119 = ORIENTED_EDGE ( 'NONE', *, *, #8, .F. ) ;
#120 = COLOUR_RGB ( '',0.7921568627450980005, 0.8196078431372548767, 0.9333333333333333481 ) ;
#121 = DIRECTION ( 'NONE',  ( 0.000000000000000000, -0.000000000000000000, 1.000000000000000000 ) ) ;
#122 = DIMENSIONAL_EXPONENTS ( 1.000000000000000000, 0.000000000000000000, 0.000000000000000000, 0.000000000000000000, 0.000000000000000000, 0.000000000000000000, 0.000000000000000000 ) ;
#123 = EDGE_LOOP ( 'NONE', ( #288, #33, #240, #265 ) ) ;
#124 = CARTESIAN_POINT ( 'NONE',  ( 6.123233995736766036E-17, 0.000000000000000000, 0.5000000000000000000 ) ) ;
#125 = FILL_AREA_STYLE ('',( #149 ) ) ;
#126 = AXIS2_PLACEMENT_3D ( 'NONE', #86, #306, #27 ) ;
#127 = CARTESIAN_POINT ( 'NONE',  ( 0.5000000000000000000, 4.125000000000000000, 6.123233995736767268E-17 ) ) ;
#128 = PRESENTATION_STYLE_ASSIGNMENT (( #177 ) ) ;
#129 = AXIS2_PLACEMENT_3D ( 'NONE', #188, #67, #251 ) ;
#130 = EDGE_CURVE ( 'NONE', #29, #50, #198, .T. ) ;
#131 = PLANE ( 'NONE',  #260 ) ;
#132 = CARTESIAN_POINT ( 'NONE',  ( -1.224646799147351975E-16, 7.000000000000000000, 0.000000000000000000 ) ) ;
#133 = SURFACE_SIDE_STYLE ('',( #68 ) ) ;
#134 = MECHANICAL_DESIGN_GEOMETRIC_PRESENTATION_REPRESENTATION (  '', ( #108 ), #117 ) ;
#135 = PRODUCT_DEFINITION_SHAPE ( 'NONE', 'NONE',  #216 ) ;
#136 = AXIS2_PLACEMENT_3D ( 'NONE', #116, #138, #209 ) ;
#137 =( CONVERSION_BASED_UNIT ( 'INCH', #189 ) LENGTH_UNIT ( ) NAMED_UNIT ( #26 ) );
#138 = DIRECTION ( 'NONE',  ( 4.259641040512529009E-17, -1.000000000000000000, 0.000000000000000000 ) ) ;
#139 = AXIS2_PLACEMENT_3D ( 'NONE', #46, #275, #162 ) ;
#140 =( GEOMETRIC_REPRESENTATION_CONTEXT ( 3 ) GLOBAL_UNCERTAINTY_ASSIGNED_CONTEXT ( ( #155 ) ) GLOBAL_UNIT_ASSIGNED_CONTEXT ( ( #137, #259, #285 ) ) REPRESENTATION_CONTEXT ( 'NONE', 'WORKASPACE' ) );
#141 = FACE_OUTER_BOUND ( 'NONE', #42, .T. ) ;
#142 = EDGE_LOOP ( 'NONE', ( #161, #212 ) ) ;
#143 = DIRECTION ( 'NONE',  ( 0.000000000000000000, 1.000000000000000000, 0.000000000000000000 ) ) ;
#144 =( LENGTH_UNIT ( ) NAMED_UNIT ( * ) SI_UNIT ( $, .METRE. ) );
#145 = VERTEX_POINT ( 'NONE', #127 ) ;
#146 = STYLED_ITEM ( 'NONE', ( #74 ), #89 ) ;
#147 = MECHANICAL_DESIGN_GEOMETRIC_PRESENTATION_REPRESENTATION (  '', ( #102 ), #309 ) ;
#148 = AXIS2_PLACEMENT_3D ( 'NONE', #305, #80, #11 ) ;
#149 = FILL_AREA_STYLE_COLOUR ( '', #160 ) ;
#150 = CARTESIAN_POINT ( 'NONE',  ( 0.000000000000000000, 0.000000000000000000, 0.000000000000000000 ) ) ;
#151 = CARTESIAN_POINT ( 'NONE',  ( 0.000000000000000000, 0.000000000000000000, 0.000000000000000000 ) ) ;
#152 = PRESENTATION_STYLE_ASSIGNMENT (( #44 ) ) ;
#153 = CIRCLE ( 'NONE', #129, 0.5000000000000001110 ) ;
#154 = EDGE_CURVE ( 'NONE', #145, #190, #103, .T. ) ;
#155 = UNCERTAINTY_MEASURE_WITH_UNIT (LENGTH_MEASURE( 1.000000000000000082E-05 ), #137, 'distance_accuracy_value', 'NONE');
#156 = SURFACE_SIDE_STYLE ('',( #45 ) ) ;
#157 = VERTEX_POINT ( 'NONE', #298 ) ;
#158 = VECTOR ( 'NONE', #3, 39.37007874015748143 ) ;
#159 = DIRECTION ( 'NONE',  ( -1.000000000000000000, 0.000000000000000000, 0.000000000000000000 ) ) ;
#160 = COLOUR_RGB ( '',1.000000000000000000, 0.000000000000000000, 0.000000000000000000 ) ;
#161 = ORIENTED_EDGE ( 'NONE', *, *, #207, .T. ) ;
#162 = DIRECTION ( 'NONE',  ( 0.000000000000000000, 0.000000000000000000, -1.000000000000000000 ) ) ;
#163 = PRODUCT_DEFINITION_CONTEXT ( 'detailed design', #268, 'design' ) ;
#164 = FILL_AREA_STYLE ('',( #25 ) ) ;
#165 = CIRCLE ( 'NONE', #32, 0.5000000000000000000 ) ;
#166 = LINE ( 'NONE', #48, #158 ) ;
#167 = COLOUR_RGB ( '',1.000000000000000000, 0.000000000000000000, 0.000000000000000000 ) ;
#168 = DIRECTION ( 'NONE',  ( -4.259641040512529009E-17, 1.000000000000000000, -0.000000000000000000 ) ) ;
#169 = CARTESIAN_POINT ( 'NONE',  ( -0.5000000000000002220, 7.000000000000000000, 0.000000000000000000 ) ) ;
#170 = ORIENTED_EDGE ( 'NONE', *, *, #10, .F. ) ;
#171 = SURFACE_STYLE_USAGE ( .BOTH. , #295 ) ;
#172 = STYLED_ITEM ( 'NONE', ( #152 ), #257 ) ;
#173 = DIRECTION ( 'NONE',  ( -1.000000000000000000, 0.000000000000000000, 0.000000000000000000 ) ) ;
#174 = ADVANCED_BREP_SHAPE_REPRESENTATION ( '00795', ( #20, #14, #126 ), #140 ) ;
#175 = AXIS2_PLACEMENT_3D ( 'NONE', #150, #246, #40 ) ;
#176 =( CONVERSION_BASED_UNIT ( 'INCH', #266 ) LENGTH_UNIT ( ) NAMED_UNIT ( #243 ) );
#177 = SURFACE_STYLE_USAGE ( .BOTH. , #75 ) ;
#178 = SURFACE_STYLE_FILL_AREA ( #125 ) ;
#179 = ADVANCED_FACE ( 'NONE', ( #77 ), #13, .T. ) ;
#180 = UNCERTAINTY_MEASURE_WITH_UNIT (LENGTH_MEASURE( 1.000000000000000082E-05 ), #18, 'distance_accuracy_value', 'NONE');
#181 = CARTESIAN_POINT ( 'NONE',  ( 0.000000000000000000, 4.125000000000000000, -0.5000000000000000000 ) ) ;
#182 = AXIS2_PLACEMENT_3D ( 'NONE', #242, #34, #76 ) ;
#183 = PRODUCT_RELATED_PRODUCT_CATEGORY ( 'part', '', ( #249 ) ) ;
#184 = UNCERTAINTY_MEASURE_WITH_UNIT (LENGTH_MEASURE( 1.000000000000000082E-05 ), #1, 'distance_accuracy_value', 'NONE');
#185 = FILL_AREA_STYLE ('',( #96 ) ) ;
#186 = VERTEX_POINT ( 'NONE', #181 ) ;
#187 =( NAMED_UNIT ( * ) PLANE_ANGLE_UNIT ( ) SI_UNIT ( $, .RADIAN. ) );
#188 = CARTESIAN_POINT ( 'NONE',  ( -1.224646799147351975E-16, 7.000000000000000000, 0.000000000000000000 ) ) ;
#189 = LENGTH_MEASURE_WITH_UNIT ( LENGTH_MEASURE( 0.02539999999999999897 ), #263 );
#190 = VERTEX_POINT ( 'NONE', #229 ) ;
#191 = COLOUR_RGB ( '',0.7921568627450980005, 0.8196078431372548767, 0.9333333333333333481 ) ;
#192 = LENGTH_MEASURE_WITH_UNIT ( LENGTH_MEASURE( 0.02539999999999999897 ), #4 );
#193 = CIRCLE ( 'NONE', #267, 0.5000000000000000000 ) ;
#194 = DIMENSIONAL_EXPONENTS ( 1.000000000000000000, 0.000000000000000000, 0.000000000000000000, 0.000000000000000000, 0.000000000000000000, 0.000000000000000000, 0.000000000000000000 ) ;
#195 = EDGE_LOOP ( 'NONE', ( #277, #214, #114, #15 ) ) ;
#196 = FACE_OUTER_BOUND ( 'NONE', #262, .T. ) ;
#197 = DIRECTION ( 'NONE',  ( -0.000000000000000000, -1.000000000000000000, -0.000000000000000000 ) ) ;
#198 = CIRCLE ( 'NONE', #175, 0.5000000000000000000 ) ;
#199 =( NAMED_UNIT ( * ) PLANE_ANGLE_UNIT ( ) SI_UNIT ( $, .RADIAN. ) );
#200 = DIMENSIONAL_EXPONENTS ( 1.000000000000000000, 0.000000000000000000, 0.000000000000000000, 0.000000000000000000, 0.000000000000000000, 0.000000000000000000, 0.000000000000000000 ) ;
#201 = DIRECTION ( 'NONE',  ( -1.000000000000000000, 0.000000000000000000, 0.000000000000000000 ) ) ;
#202 =( NAMED_UNIT ( * ) PLANE_ANGLE_UNIT ( ) SI_UNIT ( $, .RADIAN. ) );
#203 = DIRECTION ( 'NONE',  ( -4.259641040512529009E-17, 1.000000000000000000, -0.000000000000000000 ) ) ;
#204 =( CONVERSION_BASED_UNIT ( 'INCH', #279 ) LENGTH_UNIT ( ) NAMED_UNIT ( #5 ) );
#205 = AXIS2_PLACEMENT_3D ( 'NONE', #302, #206, #159 ) ;
#206 = DIRECTION ( 'NONE',  ( -4.259641040512529009E-17, 1.000000000000000000, -0.000000000000000000 ) ) ;
#207 = EDGE_CURVE ( 'NONE', #55, #157, #220, .T. ) ;
#208 = COLOUR_RGB ( '',1.000000000000000000, 0.000000000000000000, 0.000000000000000000 ) ;
#209 = DIRECTION ( 'NONE',  ( 1.000000000000000000, 4.259641040512529009E-17, 0.000000000000000000 ) ) ;
#210 =( NAMED_UNIT ( * ) PLANE_ANGLE_UNIT ( ) SI_UNIT ( $, .RADIAN. ) );
#211 = CLOSED_SHELL ( 'NONE', ( #257, #89, #69, #289 ) ) ;
#212 = ORIENTED_EDGE ( 'NONE', *, *, #239, .T. ) ;
#213 = PRESENTATION_STYLE_ASSIGNMENT (( #53 ) ) ;
#214 = ORIENTED_EDGE ( 'NONE', *, *, #154, .T. ) ;
#215 = DIRECTION ( 'NONE',  ( 0.000000000000000000, 0.000000000000000000, -1.000000000000000000 ) ) ;
#216 = PRODUCT_DEFINITION ( 'UNKNOWN', '', #294, #163 ) ;
#217 = VERTEX_POINT ( 'NONE', #272 ) ;
#218 = DIMENSIONAL_EXPONENTS ( 1.000000000000000000, 0.000000000000000000, 0.000000000000000000, 0.000000000000000000, 0.000000000000000000, 0.000000000000000000, 0.000000000000000000 ) ;
#219 = AXIS2_PLACEMENT_3D ( 'NONE', #38, #143, #121 ) ;
#220 = CIRCLE ( 'NONE', #205, 0.5000000000000001110 ) ;
#221 = MECHANICAL_DESIGN_GEOMETRIC_PRESENTATION_REPRESENTATION (  '', ( #172 ), #107 ) ;
#222 =( CONVERSION_BASED_UNIT ( 'INCH', #78 ) LENGTH_UNIT ( ) NAMED_UNIT ( #218 ) );
#223 =( NAMED_UNIT ( * ) SI_UNIT ( $, .STERADIAN. ) SOLID_ANGLE_UNIT ( ) );
#224 = FILL_AREA_STYLE_COLOUR ( '', #191 ) ;
#225 =( NAMED_UNIT ( * ) SI_UNIT ( $, .STERADIAN. ) SOLID_ANGLE_UNIT ( ) );
#226 = FACE_OUTER_BOUND ( 'NONE', #123, .T. ) ;
#227 = VECTOR ( 'NONE', #168, 39.37007874015748143 ) ;
#228 = PRESENTATION_LAYER_ASSIGNMENT (  '', '', ( #146 ) ) ;
#229 = CARTESIAN_POINT ( 'NONE',  ( -0.5000000000000000000, 4.125000000000000000, 0.000000000000000000 ) ) ;
#230 = FILL_AREA_STYLE ('',( #255 ) ) ;
#231 = EDGE_LOOP ( 'NONE', ( #254, #57 ) ) ;
#232 = DIRECTION ( 'NONE',  ( -0.000000000000000000, -1.000000000000000000, -0.000000000000000000 ) ) ;
#233 = CYLINDRICAL_SURFACE ( 'NONE', #245, 0.5000000000000001110 ) ;
#234 = EDGE_CURVE ( 'NONE', #217, #186, #273, .T. ) ;
#235 = EDGE_CURVE ( 'NONE', #186, #217, #91, .T. ) ;
#236 = DIRECTION ( 'NONE',  ( 0.000000000000000000, -1.000000000000000000, -0.000000000000000000 ) ) ;
#237 = EDGE_LOOP ( 'NONE', ( #59, #109 ) ) ;
#238 = STYLED_ITEM ( 'NONE', ( #36 ), #14 ) ;
#239 = EDGE_CURVE ( 'NONE', #157, #55, #153, .T. ) ;
#240 = ORIENTED_EDGE ( 'NONE', *, *, #207, .F. ) ;
#241 = FILL_AREA_STYLE_COLOUR ( '', #120 ) ;
#242 = CARTESIAN_POINT ( 'NONE',  ( 0.000000000000000000, 0.000000000000000000, 0.000000000000000000 ) ) ;
#243 = DIMENSIONAL_EXPONENTS ( 1.000000000000000000, 0.000000000000000000, 0.000000000000000000, 0.000000000000000000, 0.000000000000000000, 0.000000000000000000, 0.000000000000000000 ) ;
#244 = CARTESIAN_POINT ( 'NONE',  ( 0.000000000000000000, 0.000000000000000000, -0.5000000000000000000 ) ) ;
#245 = AXIS2_PLACEMENT_3D ( 'NONE', #132, #203, #278 ) ;
#246 = DIRECTION ( 'NONE',  ( -0.000000000000000000, -1.000000000000000000, -0.000000000000000000 ) ) ;
#247 = MECHANICAL_DESIGN_GEOMETRIC_PRESENTATION_REPRESENTATION (  '', ( #110 ), #43 ) ;
#248 = FILL_AREA_STYLE ('',( #241 ) ) ;
#249 = PRODUCT ( '00795', '00795', '', ( #104 ) ) ;
#250 = CYLINDRICAL_SURFACE ( 'NONE', #139, 0.5000000000000000000 ) ;
#251 = DIRECTION ( 'NONE',  ( -1.000000000000000000, 0.000000000000000000, 0.000000000000000000 ) ) ;
#252 =( GEOMETRIC_REPRESENTATION_CONTEXT ( 3 ) GLOBAL_UNCERTAINTY_ASSIGNED_CONTEXT ( ( #297 ) ) GLOBAL_UNIT_ASSIGNED_CONTEXT ( ( #222, #202, #225 ) ) REPRESENTATION_CONTEXT ( 'NONE', 'WORKASPACE' ) );
#253 = AXIS2_PLACEMENT_3D ( 'NONE', #9, #95, #201 ) ;
#254 = ORIENTED_EDGE ( 'NONE', *, *, #22, .T. ) ;
#255 = FILL_AREA_STYLE_COLOUR ( '', #79 ) ;
#256 =( LENGTH_UNIT ( ) NAMED_UNIT ( * ) SI_UNIT ( $, .METRE. ) );
#257 = ADVANCED_FACE ( 'NONE', ( #63 ), #250, .T. ) ;
#258 = ORIENTED_EDGE ( 'NONE', *, *, #22, .F. ) ;
#259 =( NAMED_UNIT ( * ) PLANE_ANGLE_UNIT ( ) SI_UNIT ( $, .RADIAN. ) );
#260 = AXIS2_PLACEMENT_3D ( 'NONE', #85, #236, #215 ) ;
#261 = PLANE ( 'NONE',  #136 ) ;
#262 = EDGE_LOOP ( 'NONE', ( #64, #284 ) ) ;
#263 =( LENGTH_UNIT ( ) NAMED_UNIT ( * ) SI_UNIT ( $, .METRE. ) );
#264 =( NAMED_UNIT ( * ) PLANE_ANGLE_UNIT ( ) SI_UNIT ( $, .RADIAN. ) );
#265 = ORIENTED_EDGE ( 'NONE', *, *, #292, .F. ) ;
#266 = LENGTH_MEASURE_WITH_UNIT ( LENGTH_MEASURE( 0.02539999999999999897 ), #271 );
#267 = AXIS2_PLACEMENT_3D ( 'NONE', #151, #197, #52 ) ;
#268 = APPLICATION_CONTEXT ( 'automotive_design' ) ;
#269 = FACE_OUTER_BOUND ( 'NONE', #237, .T. ) ;
#270 = SURFACE_STYLE_USAGE ( .BOTH. , #39 ) ;
#271 =( LENGTH_UNIT ( ) NAMED_UNIT ( * ) SI_UNIT ( $, .METRE. ) );
#272 = CARTESIAN_POINT ( 'NONE',  ( 6.123233995736766036E-17, 4.125000000000000000, 0.5000000000000000000 ) ) ;
#273 = CIRCLE ( 'NONE', #274, 0.5000000000000000000 ) ;
#274 = AXIS2_PLACEMENT_3D ( 'NONE', #84, #97, #303 ) ;
#275 = DIRECTION ( 'NONE',  ( -0.000000000000000000, -1.000000000000000000, -0.000000000000000000 ) ) ;
#276 = CARTESIAN_POINT ( 'NONE',  ( 0.000000000000000000, 4.125000000000000000, 0.000000000000000000 ) ) ;
#277 = ORIENTED_EDGE ( 'NONE', *, *, #301, .F. ) ;
#278 = DIRECTION ( 'NONE',  ( -1.000000000000000000, 0.000000000000000000, 0.000000000000000000 ) ) ;
#279 = LENGTH_MEASURE_WITH_UNIT ( LENGTH_MEASURE( 0.02539999999999999897 ), #256 );
#280 =( NAMED_UNIT ( * ) SI_UNIT ( $, .STERADIAN. ) SOLID_ANGLE_UNIT ( ) );
#281 = APPLICATION_PROTOCOL_DEFINITION ( 'draft international standard', 'automotive_design', 1998, #268 ) ;
#282 = CARTESIAN_POINT ( 'NONE',  ( 0.000000000000000000, 0.000000000000000000, -0.5000000000000000000 ) ) ;
#283 = ADVANCED_FACE ( 'NONE', ( #226 ), #233, .T. ) ;
#284 = ORIENTED_EDGE ( 'NONE', *, *, #154, .F. ) ;
#285 =( NAMED_UNIT ( * ) SI_UNIT ( $, .STERADIAN. ) SOLID_ANGLE_UNIT ( ) );
#286 = PRESENTATION_LAYER_ASSIGNMENT (  '', '', ( #108 ) ) ;
#287 =( CONVERSION_BASED_UNIT ( 'INCH', #192 ) LENGTH_UNIT ( ) NAMED_UNIT ( #122 ) );
#288 = ORIENTED_EDGE ( 'NONE', *, *, #118, .T. ) ;
#289 = ADVANCED_FACE ( 'NONE', ( #65 ), #131, .T. ) ;
#290 = ORIENTED_EDGE ( 'NONE', *, *, #10, .T. ) ;
#291 = CARTESIAN_POINT ( 'NONE',  ( 0.000000000000000000, 4.125000000000000000, 0.000000000000000000 ) ) ;
#292 = EDGE_CURVE ( 'NONE', #190, #55, #166, .T. ) ;
#293 = LINE ( 'NONE', #124, #30 ) ;
#294 = PRODUCT_DEFINITION_FORMATION_WITH_SPECIFIED_SOURCE ( 'ANY', '', #249, .NOT_KNOWN. ) ;
#295 = SURFACE_SIDE_STYLE ('',( #178 ) ) ;
#296 = PRESENTATION_LAYER_ASSIGNMENT (  '', '', ( #102 ) ) ;
#297 = UNCERTAINTY_MEASURE_WITH_UNIT (LENGTH_MEASURE( 1.000000000000000082E-05 ), #222, 'distance_accuracy_value', 'NONE');
#298 = CARTESIAN_POINT ( 'NONE',  ( 0.5000000000000000000, 7.000000000000000000, 6.123233995736767268E-17 ) ) ;
#299 = SURFACE_STYLE_USAGE ( .BOTH. , #133 ) ;
#300 = PRESENTATION_LAYER_ASSIGNMENT (  '', '', ( #110 ) ) ;
#301 = EDGE_CURVE ( 'NONE', #145, #157, #115, .T. ) ;
#302 = CARTESIAN_POINT ( 'NONE',  ( -1.224646799147351975E-16, 7.000000000000000000, 0.000000000000000000 ) ) ;
#303 = DIRECTION ( 'NONE',  ( 0.000000000000000000, 0.000000000000000000, -1.000000000000000000 ) ) ;
#304 = LENGTH_MEASURE_WITH_UNIT ( LENGTH_MEASURE( 0.02539999999999999897 ), #144 );
#305 = CARTESIAN_POINT ( 'NONE',  ( -1.224646799147351975E-16, 7.000000000000000000, 0.000000000000000000 ) ) ;
#306 = DIRECTION ( 'NONE',  ( 0.000000000000000000, 0.000000000000000000, 1.000000000000000000 ) ) ;
#307 = ORIENTED_EDGE ( 'NONE', *, *, #234, .T. ) ;
#308 = SURFACE_STYLE_FILL_AREA ( #164 ) ;
#309 =( GEOMETRIC_REPRESENTATION_CONTEXT ( 3 ) GLOBAL_UNCERTAINTY_ASSIGNED_CONTEXT ( ( #60 ) ) GLOBAL_UNIT_ASSIGNED_CONTEXT ( ( #287, #264, #280 ) ) REPRESENTATION_CONTEXT ( 'NONE', 'WORKASPACE' ) );
ENDSEC;
END-ISO-10303-21;
