ISO-10303-21;
HEADER;
FILE_DESCRIPTION (( 'STEP AP214' ),
    '1' );
FILE_NAME ('06078.STEP',
    '2023-07-05T16:00:35',
    ( '' ),
    ( '' ),
    'SwSTEP 2.0',
    'SolidWorks 2023',
    '' );
FILE_SCHEMA (( 'AUTOMOTIVE_DESIGN' ));
ENDSEC;

DATA;
#1 = DIRECTION ( 'NONE',  ( -1.216062324813796344E-16, 1.000000000000000000, -0.000000000000000000 ) ) ;
#2 = SURFACE_SIDE_STYLE ('',( #189 ) ) ;
#3 = STYLED_ITEM ( 'NONE', ( #97 ), #63 ) ;
#4 = AXIS2_PLACEMENT_3D ( 'NONE', #162, #9, #237 ) ;
#5 = ORIENTED_EDGE ( 'NONE', *, *, #211, .T. ) ;
#6 =( NAMED_UNIT ( * ) SI_UNIT ( $, .STERADIAN. ) SOLID_ANGLE_UNIT ( ) );
#7 = VECTOR ( 'NONE', #8, 39.37007874015748854 ) ;
#8 = DIRECTION ( 'NONE',  ( 0.000000000000000000, 0.7071067811865462405, 0.7071067811865486830 ) ) ;
#9 = DIRECTION ( 'NONE',  ( -1.216062324813796344E-16, 1.000000000000000000, -0.000000000000000000 ) ) ;
#10 = PRESENTATION_STYLE_ASSIGNMENT (( #234 ) ) ;
#11 =( CONVERSION_BASED_UNIT ( 'INCH', #83 ) LENGTH_UNIT ( ) NAMED_UNIT ( #113 ) );
#12 = CLOSED_SHELL ( 'NONE', ( #108, #181, #110 ) ) ;
#13 = SURFACE_SIDE_STYLE ('',( #119 ) ) ;
#14 = FILL_AREA_STYLE_COLOUR ( '', #255 ) ;
#15 = SURFACE_SIDE_STYLE ('',( #200 ) ) ;
#16 = DIRECTION ( 'NONE',  ( 0.000000000000000000, 1.000000000000000000, 0.000000000000000000 ) ) ;
#17 = STYLED_ITEM ( 'NONE', ( #233 ), #110 ) ;
#18 = DIRECTION ( 'NONE',  ( -1.000000000000000000, -1.365923996832133335E-16, 0.000000000000000000 ) ) ;
#19 = FILL_AREA_STYLE_COLOUR ( '', #29 ) ;
#20 = AXIS2_PLACEMENT_3D ( 'NONE', #265, #155, #220 ) ;
#21 = AXIS2_PLACEMENT_3D ( 'NONE', #261, #262, #225 ) ;
#22 = VERTEX_POINT ( 'NONE', #31 ) ;
#23 = MECHANICAL_DESIGN_GEOMETRIC_PRESENTATION_REPRESENTATION (  '', ( #86 ), #73 ) ;
#24 = EDGE_LOOP ( 'NONE', ( #212, #69, #5 ) ) ;
#25 = ORIENTED_EDGE ( 'NONE', *, *, #67, .F. ) ;
#26 = CONICAL_SURFACE ( 'NONE', #146, 39.37007874015762354, 0.7853981633974500554 ) ;
#27 = ADVANCED_FACE ( 'NONE', ( #35 ), #81, .T. ) ;
#28 = ORIENTED_EDGE ( 'NONE', *, *, #211, .F. ) ;
#29 = COLOUR_RGB ( '',1.000000000000000000, 0.000000000000000000, 0.000000000000000000 ) ;
#30 = PLANE ( 'NONE',  #156 ) ;
#31 = CARTESIAN_POINT ( 'NONE',  ( 0.000000000000000000, 0.000000000000000000, 0.000000000000000000 ) ) ;
#32 = PLANE ( 'NONE',  #103 ) ;
#33 = PRODUCT_DEFINITION_CONTEXT ( 'detailed design', #207, 'design' ) ;
#34 = FACE_OUTER_BOUND ( 'NONE', #210, .T. ) ;
#35 = FACE_OUTER_BOUND ( 'NONE', #171, .T. ) ;
#36 = DIRECTION ( 'NONE',  ( 0.000000000000000000, 0.000000000000000000, 1.000000000000000000 ) ) ;
#37 = PLANE ( 'NONE',  #154 ) ;
#38 = EDGE_CURVE ( 'NONE', #91, #75, #216, .T. ) ;
#39 =( NAMED_UNIT ( * ) PLANE_ANGLE_UNIT ( ) SI_UNIT ( $, .RADIAN. ) );
#40 = AXIS2_PLACEMENT_3D ( 'NONE', #101, #147, #150 ) ;
#41 = EDGE_CURVE ( 'NONE', #112, #93, #260, .T. ) ;
#42 = PRESENTATION_LAYER_ASSIGNMENT (  '', '', ( #3 ) ) ;
#43 = AXIS2_PLACEMENT_3D ( 'NONE', #126, #36, #89 ) ;
#44 = DIMENSIONAL_EXPONENTS ( 1.000000000000000000, 0.000000000000000000, 0.000000000000000000, 0.000000000000000000, 0.000000000000000000, 0.000000000000000000, 0.000000000000000000 ) ;
#45 = ORIENTED_EDGE ( 'NONE', *, *, #127, .T. ) ;
#46 = AXIS2_PLACEMENT_3D ( 'NONE', #240, #56, #120 ) ;
#47 = ORIENTED_EDGE ( 'NONE', *, *, #190, .T. ) ;
#48 = UNCERTAINTY_MEASURE_WITH_UNIT (LENGTH_MEASURE( 1.000000000000000082E-05 ), #165, 'distance_accuracy_value', 'NONE');
#49 = CARTESIAN_POINT ( 'NONE',  ( 0.000000000000000000, 0.000000000000000000, 0.000000000000000000 ) ) ;
#50 = FILL_AREA_STYLE ('',( #99 ) ) ;
#51 =( NAMED_UNIT ( * ) SI_UNIT ( $, .STERADIAN. ) SOLID_ANGLE_UNIT ( ) );
#52 = SURFACE_SIDE_STYLE ('',( #239 ) ) ;
#53 = UNCERTAINTY_MEASURE_WITH_UNIT (LENGTH_MEASURE( 1.000000000000000082E-05 ), #11, 'distance_accuracy_value', 'NONE');
#54 = LENGTH_MEASURE_WITH_UNIT ( LENGTH_MEASURE( 0.02539999999999999897 ), #238 );
#55 = MANIFOLD_SOLID_BREP ( 'Revolve - Tool Body (Pointed)', #192 ) ;
#56 = DIRECTION ( 'NONE',  ( -1.216062324813796344E-16, 1.000000000000000000, -0.000000000000000000 ) ) ;
#57 = APPLICATION_CONTEXT ( 'automotive_design' ) ;
#58 = DIRECTION ( 'NONE',  ( -1.216062324813796344E-16, 1.000000000000000000, -0.000000000000000000 ) ) ;
#59 = PRESENTATION_STYLE_ASSIGNMENT (( #61 ) ) ;
#60 = DIRECTION ( 'NONE',  ( -1.216062324813796344E-16, 1.000000000000000000, -0.000000000000000000 ) ) ;
#61 = SURFACE_STYLE_USAGE ( .BOTH. , #2 ) ;
#62 = CARTESIAN_POINT ( 'NONE',  ( 2.731847993664263711E-16, 0.2499999999999992506, 0.000000000000000000 ) ) ;
#63 = MANIFOLD_SOLID_BREP ( 'Revolve - Cutting Edge', #12 ) ;
#64 = EDGE_CURVE ( 'NONE', #214, #174, #195, .T. ) ;
#65 = PRODUCT_CONTEXT ( 'NONE', #57, 'mechanical' ) ;
#66 = PRODUCT ( '06078', '06078', '', ( #65 ) ) ;
#67 = EDGE_CURVE ( 'NONE', #112, #174, #169, .T. ) ;
#68 = PRESENTATION_LAYER_ASSIGNMENT (  '', '', ( #76 ) ) ;
#69 = ORIENTED_EDGE ( 'NONE', *, *, #133, .T. ) ;
#70 = EDGE_LOOP ( 'NONE', ( #198, #28 ) ) ;
#71 = DIMENSIONAL_EXPONENTS ( 1.000000000000000000, 0.000000000000000000, 0.000000000000000000, 0.000000000000000000, 0.000000000000000000, 0.000000000000000000, 0.000000000000000000 ) ;
#72 = PRODUCT_DEFINITION ( 'UNKNOWN', '', #199, #33 ) ;
#73 =( GEOMETRIC_REPRESENTATION_CONTEXT ( 3 ) GLOBAL_UNCERTAINTY_ASSIGNED_CONTEXT ( ( #143 ) ) GLOBAL_UNIT_ASSIGNED_CONTEXT ( ( #142, #180, #176 ) ) REPRESENTATION_CONTEXT ( 'NONE', 'WORKASPACE' ) );
#74 = DIMENSIONAL_EXPONENTS ( 1.000000000000000000, 0.000000000000000000, 0.000000000000000000, 0.000000000000000000, 0.000000000000000000, 0.000000000000000000, 0.000000000000000000 ) ;
#75 = VERTEX_POINT ( 'NONE', #203 ) ;
#76 = STYLED_ITEM ( 'NONE', ( #10 ), #181 ) ;
#77 = ORIENTED_EDGE ( 'NONE', *, *, #64, .F. ) ;
#78 = DIRECTION ( 'NONE',  ( 1.216062324813796344E-16, -1.000000000000000000, 0.000000000000000000 ) ) ;
#79 = LENGTH_MEASURE_WITH_UNIT ( LENGTH_MEASURE( 0.02539999999999999897 ), #201 );
#80 = FILL_AREA_STYLE ('',( #217 ) ) ;
#81 = CYLINDRICAL_SURFACE ( 'NONE', #46, 0.2499999999999998612 ) ;
#82 = AXIS2_PLACEMENT_3D ( 'NONE', #98, #196, #114 ) ;
#83 = LENGTH_MEASURE_WITH_UNIT ( LENGTH_MEASURE( 0.02539999999999999897 ), #259 );
#84 =( NAMED_UNIT ( * ) SI_UNIT ( $, .STERADIAN. ) SOLID_ANGLE_UNIT ( ) );
#85 = AXIS2_PLACEMENT_3D ( 'NONE', #223, #145, #129 ) ;
#86 = STYLED_ITEM ( 'NONE', ( #140 ), #55 ) ;
#87 = ADVANCED_FACE ( 'NONE', ( #90 ), #37, .F. ) ;
#88 =( CONVERSION_BASED_UNIT ( 'INCH', #208 ) LENGTH_UNIT ( ) NAMED_UNIT ( #137 ) );
#89 = DIRECTION ( 'NONE',  ( 1.000000000000000000, 0.000000000000000000, 0.000000000000000000 ) ) ;
#90 = FACE_OUTER_BOUND ( 'NONE', #161, .T. ) ;
#91 = VERTEX_POINT ( 'NONE', #228 ) ;
#92 = ORIENTED_EDGE ( 'NONE', *, *, #38, .T. ) ;
#93 = VERTEX_POINT ( 'NONE', #264 ) ;
#94 = CARTESIAN_POINT ( 'NONE',  ( 0.000000000000000000, 0.000000000000000000, 0.000000000000000000 ) ) ;
#95 = SURFACE_STYLE_USAGE ( .BOTH. , #52 ) ;
#96 = LINE ( 'NONE', #94, #232 ) ;
#97 = PRESENTATION_STYLE_ASSIGNMENT (( #257 ) ) ;
#98 = CARTESIAN_POINT ( 'NONE',  ( 0.000000000000000000, 0.2499999999999991118, 0.000000000000000000 ) ) ;
#99 = FILL_AREA_STYLE_COLOUR ( '', #226 ) ;
#100 = LENGTH_MEASURE_WITH_UNIT ( LENGTH_MEASURE( 0.02539999999999999897 ), #125 );
#101 = CARTESIAN_POINT ( 'NONE',  ( -6.123233995736772199E-17, 3.000000000000000444, 0.000000000000000000 ) ) ;
#102 =( LENGTH_UNIT ( ) NAMED_UNIT ( * ) SI_UNIT ( $, .METRE. ) );
#103 = AXIS2_PLACEMENT_3D ( 'NONE', #167, #16, #241 ) ;
#104 = FILL_AREA_STYLE ('',( #19 ) ) ;
#105 =( GEOMETRIC_REPRESENTATION_CONTEXT ( 3 ) GLOBAL_UNCERTAINTY_ASSIGNED_CONTEXT ( ( #53 ) ) GLOBAL_UNIT_ASSIGNED_CONTEXT ( ( #11, #166, #122 ) ) REPRESENTATION_CONTEXT ( 'NONE', 'WORKASPACE' ) );
#106 = EDGE_LOOP ( 'NONE', ( #213, #47, #250, #25 ) ) ;
#107 =( GEOMETRIC_REPRESENTATION_CONTEXT ( 3 ) GLOBAL_UNCERTAINTY_ASSIGNED_CONTEXT ( ( #253 ) ) GLOBAL_UNIT_ASSIGNED_CONTEXT ( ( #183, #244, #6 ) ) REPRESENTATION_CONTEXT ( 'NONE', 'WORKASPACE' ) );
#108 = ADVANCED_FACE ( 'NONE', ( #209 ), #263, .T. ) ;
#109 = COLOUR_RGB ( '',1.000000000000000000, 0.000000000000000000, 0.000000000000000000 ) ;
#110 = ADVANCED_FACE ( 'NONE', ( #136 ), #26, .T. ) ;
#111 = ORIENTED_EDGE ( 'NONE', *, *, #41, .F. ) ;
#112 = VERTEX_POINT ( 'NONE', #258 ) ;
#113 = DIMENSIONAL_EXPONENTS ( 1.000000000000000000, 0.000000000000000000, 0.000000000000000000, 0.000000000000000000, 0.000000000000000000, 0.000000000000000000, 0.000000000000000000 ) ;
#114 = DIRECTION ( 'NONE',  ( 0.000000000000000000, 0.000000000000000000, -1.000000000000000000 ) ) ;
#115 =( LENGTH_UNIT ( ) NAMED_UNIT ( * ) SI_UNIT ( $, .METRE. ) );
#116 = SURFACE_STYLE_FILL_AREA ( #50 ) ;
#117 = VECTOR ( 'NONE', #1, 39.37007874015748143 ) ;
#118 = PRESENTATION_LAYER_ASSIGNMENT (  '', '', ( #185 ) ) ;
#119 = SURFACE_STYLE_FILL_AREA ( #80 ) ;
#120 = DIRECTION ( 'NONE',  ( -1.000000000000000000, 0.000000000000000000, 0.000000000000000000 ) ) ;
#121 = DIRECTION ( 'NONE',  ( 0.000000000000000000, 1.000000000000000000, 0.000000000000000000 ) ) ;
#122 =( NAMED_UNIT ( * ) SI_UNIT ( $, .STERADIAN. ) SOLID_ANGLE_UNIT ( ) );
#123 = FILL_AREA_STYLE ('',( #224 ) ) ;
#124 = LINE ( 'NONE', #243, #235 ) ;
#125 =( LENGTH_UNIT ( ) NAMED_UNIT ( * ) SI_UNIT ( $, .METRE. ) );
#126 = CARTESIAN_POINT ( 'NONE',  ( 0.000000000000000000, 0.000000000000000000, 0.000000000000000000 ) ) ;
#127 = EDGE_CURVE ( 'NONE', #22, #91, #160, .T. ) ;
#128 = CIRCLE ( 'NONE', #229, 0.2499999999999996947 ) ;
#129 = DIRECTION ( 'NONE',  ( -1.000000000000000000, 0.000000000000000000, 0.000000000000000000 ) ) ;
#130 = DIRECTION ( 'NONE',  ( -1.000000000000000000, -1.216062324813796344E-16, 0.000000000000000000 ) ) ;
#131 = MECHANICAL_DESIGN_GEOMETRIC_PRESENTATION_REPRESENTATION (  '', ( #76 ), #204 ) ;
#132 = ORIENTED_EDGE ( 'NONE', *, *, #190, .F. ) ;
#133 = EDGE_CURVE ( 'NONE', #22, #75, #96, .T. ) ;
#134 = DIMENSIONAL_EXPONENTS ( 1.000000000000000000, 0.000000000000000000, 0.000000000000000000, 0.000000000000000000, 0.000000000000000000, 0.000000000000000000, 0.000000000000000000 ) ;
#135 = COLOUR_RGB ( '',1.000000000000000000, 0.000000000000000000, 0.000000000000000000 ) ;
#136 = FACE_OUTER_BOUND ( 'NONE', #157, .T. ) ;
#137 = DIMENSIONAL_EXPONENTS ( 1.000000000000000000, 0.000000000000000000, 0.000000000000000000, 0.000000000000000000, 0.000000000000000000, 0.000000000000000000, 0.000000000000000000 ) ;
#138 = CIRCLE ( 'NONE', #231, 0.2500000000000000555 ) ;
#139 = DIRECTION ( 'NONE',  ( -1.000000000000000000, 0.000000000000000000, 0.000000000000000000 ) ) ;
#140 = PRESENTATION_STYLE_ASSIGNMENT (( #95 ) ) ;
#141 = DIRECTION ( 'NONE',  ( 8.659560562354947649E-17, 0.7071067811865462405, -0.7071067811865486830 ) ) ;
#142 =( CONVERSION_BASED_UNIT ( 'INCH', #79 ) LENGTH_UNIT ( ) NAMED_UNIT ( #134 ) );
#143 = UNCERTAINTY_MEASURE_WITH_UNIT (LENGTH_MEASURE( 1.000000000000000082E-05 ), #142, 'distance_accuracy_value', 'NONE');
#144 = CARTESIAN_POINT ( 'NONE',  ( -0.2500000000000001110, 3.000000000000000444, 0.000000000000000000 ) ) ;
#145 = DIRECTION ( 'NONE',  ( -1.216062324813796344E-16, 1.000000000000000000, -0.000000000000000000 ) ) ;
#146 = AXIS2_PLACEMENT_3D ( 'NONE', #197, #121, #175 ) ;
#147 = DIRECTION ( 'NONE',  ( -1.216062324813796344E-16, 1.000000000000000000, -0.000000000000000000 ) ) ;
#148 = PRESENTATION_LAYER_ASSIGNMENT (  '', '', ( #86 ) ) ;
#149 =( GEOMETRIC_REPRESENTATION_CONTEXT ( 3 ) GLOBAL_UNCERTAINTY_ASSIGNED_CONTEXT ( ( #48 ) ) GLOBAL_UNIT_ASSIGNED_CONTEXT ( ( #165, #236, #51 ) ) REPRESENTATION_CONTEXT ( 'NONE', 'WORKASPACE' ) );
#150 = DIRECTION ( 'NONE',  ( -1.000000000000000000, 0.000000000000000000, 0.000000000000000000 ) ) ;
#151 = PRODUCT_RELATED_PRODUCT_CATEGORY ( 'part', '', ( #66 ) ) ;
#152 = SHAPE_DEFINITION_REPRESENTATION ( #188, #245 ) ;
#153 = DIRECTION ( 'NONE',  ( -1.216062324813796344E-16, 1.000000000000000000, 0.000000000000000000 ) ) ;
#154 = AXIS2_PLACEMENT_3D ( 'NONE', #247, #153, #130 ) ;
#155 = DIRECTION ( 'NONE',  ( 0.000000000000000000, 1.000000000000000000, 0.000000000000000000 ) ) ;
#156 = AXIS2_PLACEMENT_3D ( 'NONE', #163, #78, #221 ) ;
#157 = EDGE_LOOP ( 'NONE', ( #215, #45, #92 ) ) ;
#158 = MECHANICAL_DESIGN_GEOMETRIC_PRESENTATION_REPRESENTATION (  '', ( #3 ), #105 ) ;
#159 = MECHANICAL_DESIGN_GEOMETRIC_PRESENTATION_REPRESENTATION (  '', ( #185 ), #107 ) ;
#160 = LINE ( 'NONE', #49, #7 ) ;
#161 = EDGE_LOOP ( 'NONE', ( #111, #191 ) ) ;
#162 = CARTESIAN_POINT ( 'NONE',  ( 2.731847993664263711E-16, 0.2499999999999992506, 0.000000000000000000 ) ) ;
#163 = CARTESIAN_POINT ( 'NONE',  ( 0.2499999999999999722, 3.000000000000000444, 0.000000000000000000 ) ) ;
#164 = FILL_AREA_STYLE ('',( #14 ) ) ;
#165 =( CONVERSION_BASED_UNIT ( 'INCH', #54 ) LENGTH_UNIT ( ) NAMED_UNIT ( #74 ) );
#166 =( NAMED_UNIT ( * ) PLANE_ANGLE_UNIT ( ) SI_UNIT ( $, .RADIAN. ) );
#167 = CARTESIAN_POINT ( 'NONE',  ( 0.000000000000000000, 0.2499999999999991118, 0.000000000000000000 ) ) ;
#168 = EDGE_CURVE ( 'NONE', #174, #214, #138, .T. ) ;
#169 = LINE ( 'NONE', #187, #117 ) ;
#170 =( CONVERSION_BASED_UNIT ( 'INCH', #205 ) LENGTH_UNIT ( ) NAMED_UNIT ( #71 ) );
#171 = EDGE_LOOP ( 'NONE', ( #132, #249, #193, #77 ) ) ;
#172 = ORIENTED_EDGE ( 'NONE', *, *, #168, .T. ) ;
#173 = PRESENTATION_LAYER_ASSIGNMENT (  '', '', ( #17 ) ) ;
#174 = VERTEX_POINT ( 'NONE', #144 ) ;
#175 = DIRECTION ( 'NONE',  ( 0.000000000000000000, 0.000000000000000000, 1.000000000000000000 ) ) ;
#176 =( NAMED_UNIT ( * ) SI_UNIT ( $, .STERADIAN. ) SOLID_ANGLE_UNIT ( ) );
#177 = ADVANCED_FACE ( 'NONE', ( #34 ), #30, .F. ) ;
#178 = UNCERTAINTY_MEASURE_WITH_UNIT (LENGTH_MEASURE( 1.000000000000000082E-05 ), #88, 'distance_accuracy_value', 'NONE');
#179 = DIRECTION ( 'NONE',  ( -1.216062324813796344E-16, 1.000000000000000000, -0.000000000000000000 ) ) ;
#180 =( NAMED_UNIT ( * ) PLANE_ANGLE_UNIT ( ) SI_UNIT ( $, .RADIAN. ) );
#181 = ADVANCED_FACE ( 'NONE', ( #222 ), #32, .T. ) ;
#182 = SURFACE_SIDE_STYLE ('',( #116 ) ) ;
#183 =( CONVERSION_BASED_UNIT ( 'INCH', #100 ) LENGTH_UNIT ( ) NAMED_UNIT ( #44 ) );
#184 = APPLICATION_PROTOCOL_DEFINITION ( 'draft international standard', 'automotive_design', 1998, #57 ) ;
#185 = STYLED_ITEM ( 'NONE', ( #59 ), #108 ) ;
#186 = APPLICATION_PROTOCOL_DEFINITION ( 'draft international standard', 'automotive_design', 1998, #207 ) ;
#187 = CARTESIAN_POINT ( 'NONE',  ( -0.2499999999999999167, 3.000000000000000444, 0.000000000000000000 ) ) ;
#188 = PRODUCT_DEFINITION_SHAPE ( 'NONE', 'NONE',  #72 ) ;
#189 = SURFACE_STYLE_FILL_AREA ( #104 ) ;
#190 = EDGE_CURVE ( 'NONE', #93, #214, #124, .T. ) ;
#191 = ORIENTED_EDGE ( 'NONE', *, *, #242, .F. ) ;
#192 = CLOSED_SHELL ( 'NONE', ( #206, #87, #27, #177 ) ) ;
#193 = ORIENTED_EDGE ( 'NONE', *, *, #67, .T. ) ;
#194 = SURFACE_STYLE_USAGE ( .BOTH. , #13 ) ;
#195 = CIRCLE ( 'NONE', #85, 0.2500000000000000555 ) ;
#196 = DIRECTION ( 'NONE',  ( -0.000000000000000000, -1.000000000000000000, -0.000000000000000000 ) ) ;
#197 = CARTESIAN_POINT ( 'NONE',  ( 0.000000000000000000, 39.37007874015748143, 0.000000000000000000 ) ) ;
#198 = ORIENTED_EDGE ( 'NONE', *, *, #38, .F. ) ;
#199 = PRODUCT_DEFINITION_FORMATION_WITH_SPECIFIED_SOURCE ( 'ANY', '', #66, .NOT_KNOWN. ) ;
#200 = SURFACE_STYLE_FILL_AREA ( #123 ) ;
#201 =( LENGTH_UNIT ( ) NAMED_UNIT ( * ) SI_UNIT ( $, .METRE. ) );
#202 = FACE_OUTER_BOUND ( 'NONE', #106, .T. ) ;
#203 = CARTESIAN_POINT ( 'NONE',  ( 3.061616997868383018E-17, 0.2499999999999991118, -0.2499999999999999722 ) ) ;
#204 =( GEOMETRIC_REPRESENTATION_CONTEXT ( 3 ) GLOBAL_UNCERTAINTY_ASSIGNED_CONTEXT ( ( #218 ) ) GLOBAL_UNIT_ASSIGNED_CONTEXT ( ( #170, #39, #84 ) ) REPRESENTATION_CONTEXT ( 'NONE', 'WORKASPACE' ) );
#205 = LENGTH_MEASURE_WITH_UNIT ( LENGTH_MEASURE( 0.02539999999999999897 ), #115 );
#206 = ADVANCED_FACE ( 'NONE', ( #202 ), #246, .T. ) ;
#207 = APPLICATION_CONTEXT ( 'automotive_design' ) ;
#208 = LENGTH_MEASURE_WITH_UNIT ( LENGTH_MEASURE( 0.02539999999999999897 ), #102 );
#209 = FACE_OUTER_BOUND ( 'NONE', #24, .T. ) ;
#210 = EDGE_LOOP ( 'NONE', ( #172, #252 ) ) ;
#211 = EDGE_CURVE ( 'NONE', #75, #91, #219, .T. ) ;
#212 = ORIENTED_EDGE ( 'NONE', *, *, #127, .F. ) ;
#213 = ORIENTED_EDGE ( 'NONE', *, *, #41, .T. ) ;
#214 = VERTEX_POINT ( 'NONE', #248 ) ;
#215 = ORIENTED_EDGE ( 'NONE', *, *, #133, .F. ) ;
#216 = CIRCLE ( 'NONE', #82, 0.2499999999999999722 ) ;
#217 = FILL_AREA_STYLE_COLOUR ( '', #109 ) ;
#218 = UNCERTAINTY_MEASURE_WITH_UNIT (LENGTH_MEASURE( 1.000000000000000082E-05 ), #170, 'distance_accuracy_value', 'NONE');
#219 = CIRCLE ( 'NONE', #21, 0.2499999999999999722 ) ;
#220 = DIRECTION ( 'NONE',  ( 0.000000000000000000, 0.000000000000000000, 1.000000000000000000 ) ) ;
#221 = DIRECTION ( 'NONE',  ( 1.000000000000000000, 1.216062324813796344E-16, 0.000000000000000000 ) ) ;
#222 = FACE_OUTER_BOUND ( 'NONE', #70, .T. ) ;
#223 = CARTESIAN_POINT ( 'NONE',  ( -6.123233995736772199E-17, 3.000000000000000444, 0.000000000000000000 ) ) ;
#224 = FILL_AREA_STYLE_COLOUR ( '', #135 ) ;
#225 = DIRECTION ( 'NONE',  ( 0.000000000000000000, 0.000000000000000000, -1.000000000000000000 ) ) ;
#226 = COLOUR_RGB ( '',0.7921568627450980005, 0.8196078431372548767, 0.9333333333333333481 ) ;
#227 =( NAMED_UNIT ( * ) PLANE_ANGLE_UNIT ( ) SI_UNIT ( $, .RADIAN. ) );
#228 = CARTESIAN_POINT ( 'NONE',  ( 0.000000000000000000, 0.2499999999999991118, 0.2499999999999999722 ) ) ;
#229 = AXIS2_PLACEMENT_3D ( 'NONE', #62, #58, #18 ) ;
#230 =( NAMED_UNIT ( * ) SI_UNIT ( $, .STERADIAN. ) SOLID_ANGLE_UNIT ( ) );
#231 = AXIS2_PLACEMENT_3D ( 'NONE', #254, #179, #139 ) ;
#232 = VECTOR ( 'NONE', #141, 39.37007874015748854 ) ;
#233 = PRESENTATION_STYLE_ASSIGNMENT (( #194 ) ) ;
#234 = SURFACE_STYLE_USAGE ( .BOTH. , #15 ) ;
#235 = VECTOR ( 'NONE', #60, 39.37007874015748143 ) ;
#236 =( NAMED_UNIT ( * ) PLANE_ANGLE_UNIT ( ) SI_UNIT ( $, .RADIAN. ) );
#237 = DIRECTION ( 'NONE',  ( -1.000000000000000000, -1.365923996832133335E-16, 0.000000000000000000 ) ) ;
#238 =( LENGTH_UNIT ( ) NAMED_UNIT ( * ) SI_UNIT ( $, .METRE. ) );
#239 = SURFACE_STYLE_FILL_AREA ( #164 ) ;
#240 = CARTESIAN_POINT ( 'NONE',  ( -6.123233995736772199E-17, 3.000000000000000444, 0.000000000000000000 ) ) ;
#241 = DIRECTION ( 'NONE',  ( 0.000000000000000000, -0.000000000000000000, 1.000000000000000000 ) ) ;
#242 = EDGE_CURVE ( 'NONE', #93, #112, #128, .T. ) ;
#243 = CARTESIAN_POINT ( 'NONE',  ( 0.2499999999999998057, 3.000000000000000444, 3.061616997868381785E-17 ) ) ;
#244 =( NAMED_UNIT ( * ) PLANE_ANGLE_UNIT ( ) SI_UNIT ( $, .RADIAN. ) );
#245 = ADVANCED_BREP_SHAPE_REPRESENTATION ( '06078', ( #63, #55, #43 ), #251 ) ;
#246 = CYLINDRICAL_SURFACE ( 'NONE', #40, 0.2499999999999998612 ) ;
#247 = CARTESIAN_POINT ( 'NONE',  ( 2.731847993664263218E-16, 0.2499999999999991118, 0.000000000000000000 ) ) ;
#248 = CARTESIAN_POINT ( 'NONE',  ( 0.2499999999999999722, 3.000000000000000444, 3.061616997868383018E-17 ) ) ;
#249 = ORIENTED_EDGE ( 'NONE', *, *, #242, .T. ) ;
#250 = ORIENTED_EDGE ( 'NONE', *, *, #168, .F. ) ;
#251 =( GEOMETRIC_REPRESENTATION_CONTEXT ( 3 ) GLOBAL_UNCERTAINTY_ASSIGNED_CONTEXT ( ( #178 ) ) GLOBAL_UNIT_ASSIGNED_CONTEXT ( ( #88, #227, #230 ) ) REPRESENTATION_CONTEXT ( 'NONE', 'WORKASPACE' ) );
#252 = ORIENTED_EDGE ( 'NONE', *, *, #64, .T. ) ;
#253 = UNCERTAINTY_MEASURE_WITH_UNIT (LENGTH_MEASURE( 1.000000000000000082E-05 ), #183, 'distance_accuracy_value', 'NONE');
#254 = CARTESIAN_POINT ( 'NONE',  ( -6.123233995736772199E-17, 3.000000000000000444, 0.000000000000000000 ) ) ;
#255 = COLOUR_RGB ( '',0.7921568627450980005, 0.8196078431372548767, 0.9333333333333333481 ) ;
#256 = MECHANICAL_DESIGN_GEOMETRIC_PRESENTATION_REPRESENTATION (  '', ( #17 ), #149 ) ;
#257 = SURFACE_STYLE_USAGE ( .BOTH. , #182 ) ;
#258 = CARTESIAN_POINT ( 'NONE',  ( -0.2499999999999994171, 0.2499999999999992228, 0.000000000000000000 ) ) ;
#259 =( LENGTH_UNIT ( ) NAMED_UNIT ( * ) SI_UNIT ( $, .METRE. ) );
#260 = CIRCLE ( 'NONE', #4, 0.2499999999999996947 ) ;
#261 = CARTESIAN_POINT ( 'NONE',  ( 0.000000000000000000, 0.2499999999999991118, 0.000000000000000000 ) ) ;
#262 = DIRECTION ( 'NONE',  ( -0.000000000000000000, -1.000000000000000000, -0.000000000000000000 ) ) ;
#263 = CONICAL_SURFACE ( 'NONE', #20, 39.37007874015762354, 0.7853981633974500554 ) ;
#264 = CARTESIAN_POINT ( 'NONE',  ( 0.2499999999999999722, 0.2499999999999992784, 3.061616997868383018E-17 ) ) ;
#265 = CARTESIAN_POINT ( 'NONE',  ( 0.000000000000000000, 39.37007874015748143, 0.000000000000000000 ) ) ;
ENDSEC;
END-ISO-10303-21;
