ISO-10303-21;
HEADER;
FILE_DESCRIPTION (( 'STEP AP214' ),
    '1' );
FILE_NAME ('Micro_BEM-078-04X.STEP',
    '2021-09-03T13:00:05',
    ( '' ),
    ( '' ),
    'SwSTEP 2.0',
    'SolidWorks 2020',
    '' );
FILE_SCHEMA (( 'AUTOMOTIVE_DESIGN' ));
ENDSEC;

DATA;
#1 = EDGE_CURVE ( 'NONE', #60, #173, #321, .T. ) ;
#2 = CARTESIAN_POINT ( 'NONE',  ( 0.0000000000000000000, 0.0000000000000000000, 0.0000000000000000000 ) ) ;
#3 =( NAMED_UNIT ( * ) PLANE_ANGLE_UNIT ( ) SI_UNIT ( $, .RADIAN. ) );
#4 = AXIS2_PLACEMENT_3D ( 'NONE', #59, #12, #138 ) ;
#5 = CARTESIAN_POINT ( 'NONE',  ( 0.0000000000000000000, 0.0000000000000000000, 1.500000000000000222 ) ) ;
#6 = ADVANCED_BREP_SHAPE_REPRESENTATION ( 'Micro_BEM-078-04X', ( #93, #238 ), #219 ) ;
#7 = ADVANCED_FACE ( 'NONE', ( #17 ), #318, .T. ) ;
#8 = DIRECTION ( 'NONE',  ( -1.000000000000000000, 0.0000000000000000000, 2.188366338220633428E-16 ) ) ;
#9 = PRESENTATION_STYLE_ASSIGNMENT (( #132 ) ) ;
#10 = CYLINDRICAL_SURFACE ( 'NONE', #110, 0.03901095000000000257 ) ;
#11 = AXIS2_PLACEMENT_3D ( 'NONE', #230, #145, #41 ) ;
#12 = DIRECTION ( 'NONE',  ( 0.0000000000000000000, 0.0000000000000000000, -1.000000000000000000 ) ) ;
#13 = ORIENTED_EDGE ( 'NONE', *, *, #64, .F. ) ;
#14 = APPLICATION_CONTEXT ( 'automotive_design' ) ;
#15 = EDGE_CURVE ( 'NONE', #83, #212, #301, .T. ) ;
#16 = CONICAL_SURFACE ( 'NONE', #120, 0.03901095000000000257, 0.1745329251994338915 ) ;
#17 = FACE_OUTER_BOUND ( 'NONE', #133, .T. ) ;
#18 = ORIENTED_EDGE ( 'NONE', *, *, #64, .T. ) ;
#19 = LINE ( 'NONE', #95, #66 ) ;
#20 = ORIENTED_EDGE ( 'NONE', *, *, #53, .T. ) ;
#21 = CARTESIAN_POINT ( 'NONE',  ( 2.302335982397025094E-17, 0.0000000000000000000, 0.1880000000000000282 ) ) ;
#22 = ORIENTED_EDGE ( 'NONE', *, *, #174, .F. ) ;
#23 = FACE_OUTER_BOUND ( 'NONE', #65, .T. ) ;
#24 = PRODUCT_DEFINITION_SHAPE ( 'NONE', 'NONE',  #320 ) ;
#25 = ORIENTED_EDGE ( 'NONE', *, *, #119, .F. ) ;
#26 = LINE ( 'NONE', #46, #105 ) ;
#27 = EDGE_CURVE ( 'NONE', #58, #169, #168, .T. ) ;
#28 = DIRECTION ( 'NONE',  ( 1.224646799147353700E-16, 0.0000000000000000000, 1.000000000000000000 ) ) ;
#29 = PRESENTATION_LAYER_ASSIGNMENT (  '', '', ( #90 ) ) ;
#30 = CIRCLE ( 'NONE', #33, 0.03901095000000000257 ) ;
#31 = ADVANCED_FACE ( 'NONE', ( #91 ), #139, .T. ) ;
#32 = ORIENTED_EDGE ( 'NONE', *, *, #255, .T. ) ;
#33 = AXIS2_PLACEMENT_3D ( 'NONE', #241, #92, #264 ) ;
#34 = CARTESIAN_POINT ( 'NONE',  ( 3.933724995124051744E-17, 0.0000000000000000000, 0.3212130222250907940 ) ) ;
#35 = ORIENTED_EDGE ( 'NONE', *, *, #115, .T. ) ;
#36 = AXIS2_PLACEMENT_3D ( 'NONE', #242, #324, #48 ) ;
#37 = ORIENTED_EDGE ( 'NONE', *, *, #182, .T. ) ;
#38 = FACE_OUTER_BOUND ( 'NONE', #96, .T. ) ;
#39 = ORIENTED_EDGE ( 'NONE', *, *, #15, .T. ) ;
#40 = CYLINDRICAL_SURFACE ( 'NONE', #36, 0.06250000000000002776 ) ;
#41 = DIRECTION ( 'NONE',  ( 1.000000000000000000, 0.0000000000000000000, 0.0000000000000000000 ) ) ;
#42 = FACE_OUTER_BOUND ( 'NONE', #140, .T. ) ;
#43 = ORIENTED_EDGE ( 'NONE', *, *, #148, .T. ) ;
#44 = AXIS2_PLACEMENT_3D ( 'NONE', #21, #319, #266 ) ;
#45 = MECHANICAL_DESIGN_GEOMETRIC_PRESENTATION_REPRESENTATION (  '', ( #106 ), #286 ) ;
#46 = CARTESIAN_POINT ( 'NONE',  ( 0.03901095000000000257, 4.777463504919744426E-18, -4.777463504919746737E-18 ) ) ;
#47 = ORIENTED_EDGE ( 'NONE', *, *, #161, .F. ) ;
#48 = DIRECTION ( 'NONE',  ( -1.000000000000000000, 0.0000000000000000000, 0.0000000000000000000 ) ) ;
#49 = DIRECTION ( 'NONE',  ( 1.224646799147353700E-16, 0.0000000000000000000, 1.000000000000000000 ) ) ;
#50 = DIRECTION ( 'NONE',  ( 1.000000000000000000, 0.0000000000000000000, 0.0000000000000000000 ) ) ;
#51 = DIMENSIONAL_EXPONENTS ( 1.000000000000000000, 0.0000000000000000000, 0.0000000000000000000, 0.0000000000000000000, 0.0000000000000000000, 0.0000000000000000000, 0.0000000000000000000 ) ;
#52 = VECTOR ( 'NONE', #259, 39.37007874015748143 ) ;
#53 = EDGE_CURVE ( 'NONE', #212, #169, #71, .T. ) ;
#54 = FILL_AREA_STYLE_COLOUR ( '', #205 ) ;
#55 = CIRCLE ( 'NONE', #100, 0.04750000000000064587 ) ;
#56 = ORIENTED_EDGE ( 'NONE', *, *, #53, .F. ) ;
#57 = DIRECTION ( 'NONE',  ( 0.0000000000000000000, -1.000000000000000000, 0.0000000000000000000 ) ) ;
#58 = VERTEX_POINT ( 'NONE', #114 ) ;
#59 = CARTESIAN_POINT ( 'NONE',  ( 0.0000000000000000000, 0.0000000000000000000, 1.485000000000000764 ) ) ;
#60 = VERTEX_POINT ( 'NONE', #67 ) ;
#61 = AXIS2_PLACEMENT_3D ( 'NONE', #68, #172, #178 ) ;
#62 = ORIENTED_EDGE ( 'NONE', *, *, #206, .T. ) ;
#63 = ORIENTED_EDGE ( 'NONE', *, *, #147, .T. ) ;
#64 = EDGE_CURVE ( 'NONE', #173, #169, #224, .T. ) ;
#65 = EDGE_LOOP ( 'NONE', ( #56, #248, #125, #18 ) ) ;
#66 = VECTOR ( 'NONE', #233, 39.37007874015748854 ) ;
#67 = CARTESIAN_POINT ( 'NONE',  ( 0.06250000000000002776, 7.654042494670959086E-18, 1.485000000000000764 ) ) ;
#68 = CARTESIAN_POINT ( 'NONE',  ( 4.777463504919746737E-18, 0.0000000000000000000, 0.03901095000000000257 ) ) ;
#69 = DIRECTION ( 'NONE',  ( 1.000000000000000000, 0.0000000000000000000, 0.0000000000000000000 ) ) ;
#70 = CARTESIAN_POINT ( 'NONE',  ( 0.0000000000000000000, 0.0000000000000000000, 0.0000000000000000000 ) ) ;
#71 = LINE ( 'NONE', #195, #193 ) ;
#72 = CARTESIAN_POINT ( 'NONE',  ( 0.0000000000000000000, 0.0000000000000000000, 1.500000000000000222 ) ) ;
#73 = ORIENTED_EDGE ( 'NONE', *, *, #147, .F. ) ;
#74 = VECTOR ( 'NONE', #310, 39.37007874015748143 ) ;
#75 = LINE ( 'NONE', #294, #134 ) ;
#76 =( LENGTH_UNIT ( ) NAMED_UNIT ( * ) SI_UNIT ( $, .METRE. ) );
#77 = DIRECTION ( 'NONE',  ( 1.000000000000000000, 0.0000000000000000000, 0.0000000000000000000 ) ) ;
#78 = DIMENSIONAL_EXPONENTS ( 1.000000000000000000, 0.0000000000000000000, 0.0000000000000000000, 0.0000000000000000000, 0.0000000000000000000, 0.0000000000000000000, 0.0000000000000000000 ) ;
#79 = SURFACE_STYLE_FILL_AREA ( #158 ) ;
#80 = AXIS2_PLACEMENT_3D ( 'NONE', #236, #28, #317 ) ;
#81 = LENGTH_MEASURE_WITH_UNIT ( LENGTH_MEASURE( 0.02539999999999999897 ), #203 );
#82 = DIRECTION ( 'NONE',  ( -1.224646799147353700E-16, -0.0000000000000000000, -1.000000000000000000 ) ) ;
#83 = VERTEX_POINT ( 'NONE', #263 ) ;
#84 =( GEOMETRIC_REPRESENTATION_CONTEXT ( 3 ) GLOBAL_UNCERTAINTY_ASSIGNED_CONTEXT ( ( #160 ) ) GLOBAL_UNIT_ASSIGNED_CONTEXT ( ( #151, #128, #213 ) ) REPRESENTATION_CONTEXT ( 'NONE', 'WORKASPACE' ) );
#85 = VERTEX_POINT ( 'NONE', #265 ) ;
#86 = AXIS2_PLACEMENT_3D ( 'NONE', #271, #124, #50 ) ;
#87 = ORIENTED_EDGE ( 'NONE', *, *, #250, .T. ) ;
#88 = CARTESIAN_POINT ( 'NONE',  ( 0.0000000000000000000, 0.0000000000000000000, 1.500000000000000222 ) ) ;
#89 = PLANE ( 'NONE',  #113 ) ;
#90 = STYLED_ITEM ( 'NONE', ( #302 ), #93 ) ;
#91 = FACE_OUTER_BOUND ( 'NONE', #167, .T. ) ;
#92 = DIRECTION ( 'NONE',  ( 1.224646799147353700E-16, 0.0000000000000000000, 1.000000000000000000 ) ) ;
#93 = MANIFOLD_SOLID_BREP ( 'Fillet1', #154 ) ;
#94 = DIRECTION ( 'NONE',  ( -0.0000000000000000000, -0.0000000000000000000, -1.000000000000000000 ) ) ;
#95 = CARTESIAN_POINT ( 'NONE',  ( -0.04750000000000064587, 0.0000000000000000000, 1.500000000000000222 ) ) ;
#96 = EDGE_LOOP ( 'NONE', ( #288, #162, #63, #293 ) ) ;
#97 = ADVANCED_FACE ( 'NONE', ( #303 ), #322, .T. ) ;
#98 = FACE_OUTER_BOUND ( 'NONE', #121, .T. ) ;
#99 = SURFACE_SIDE_STYLE ('',( #323 ) ) ;
#100 = AXIS2_PLACEMENT_3D ( 'NONE', #253, #179, #197 ) ;
#101 = FACE_OUTER_BOUND ( 'NONE', #258, .T. ) ;
#102 =( NAMED_UNIT ( * ) SI_UNIT ( $, .STERADIAN. ) SOLID_ANGLE_UNIT ( ) );
#103 = ADVANCED_FACE ( 'NONE', ( #42 ), #89, .T. ) ;
#104 = PRODUCT ( 'Micro_BEM-078-04X', 'Micro_BEM-078-04X', '', ( #244 ) ) ;
#105 = VECTOR ( 'NONE', #146, 39.37007874015748143 ) ;
#106 = STYLED_ITEM ( 'NONE', ( #9 ), #6 ) ;
#107 =( LENGTH_UNIT ( ) NAMED_UNIT ( * ) SI_UNIT ( $, .METRE. ) );
#108 = ORIENTED_EDGE ( 'NONE', *, *, #1, .F. ) ;
#109 = APPLICATION_CONTEXT ( 'automotive_design' ) ;
#110 = AXIS2_PLACEMENT_3D ( 'NONE', #130, #82, #274 ) ;
#111 = ADVANCED_FACE ( 'NONE', ( #98 ), #40, .T. ) ;
#112 = AXIS2_PLACEMENT_3D ( 'NONE', #122, #313, #77 ) ;
#113 = AXIS2_PLACEMENT_3D ( 'NONE', #72, #175, #142 ) ;
#114 = CARTESIAN_POINT ( 'NONE',  ( -0.06250000000000002776, 0.0000000000000000000, 1.485000000000000764 ) ) ;
#115 = EDGE_CURVE ( 'NONE', #212, #143, #127, .T. ) ;
#116 = CARTESIAN_POINT ( 'NONE',  ( 3.933724995124051744E-17, 0.0000000000000000000, 0.3212130222250907940 ) ) ;
#117 = APPLICATION_PROTOCOL_DEFINITION ( 'draft international standard', 'automotive_design', 1998, #14 ) ;
#118 = DIRECTION ( 'NONE',  ( -1.224646799147353700E-16, -0.0000000000000000000, -1.000000000000000000 ) ) ;
#119 = EDGE_CURVE ( 'NONE', #240, #85, #276, .T. ) ;
#120 = AXIS2_PLACEMENT_3D ( 'NONE', #257, #229, #226 ) ;
#121 = EDGE_LOOP ( 'NONE', ( #108, #165, #234, #13 ) ) ;
#122 = CARTESIAN_POINT ( 'NONE',  ( 4.777463504919746737E-18, 0.0000000000000000000, 0.03901095000000000257 ) ) ;
#123 = DIRECTION ( 'NONE',  ( -1.000000000000000000, 0.0000000000000000000, 0.0000000000000000000 ) ) ;
#124 = DIRECTION ( 'NONE',  ( 0.0000000000000000000, 0.0000000000000000000, -1.000000000000000000 ) ) ;
#125 = ORIENTED_EDGE ( 'NONE', *, *, #208, .T. ) ;
#126 = CARTESIAN_POINT ( 'NONE',  ( 0.03901095000000003032, 0.0000000000000000000, 0.1880000000000000282 ) ) ;
#127 = LINE ( 'NONE', #192, #176 ) ;
#128 =( NAMED_UNIT ( * ) PLANE_ANGLE_UNIT ( ) SI_UNIT ( $, .RADIAN. ) );
#129 = AXIS2_PLACEMENT_3D ( 'NONE', #217, #49, #8 ) ;
#130 = CARTESIAN_POINT ( 'NONE',  ( 0.0000000000000000000, 0.0000000000000000000, 0.0000000000000000000 ) ) ;
#131 = SURFACE_SIDE_STYLE ('',( #79 ) ) ;
#132 = SURFACE_STYLE_USAGE ( .BOTH. , #131 ) ;
#133 = EDGE_LOOP ( 'NONE', ( #315, #214, #225, #177 ) ) ;
#134 = VECTOR ( 'NONE', #153, 39.37007874015748854 ) ;
#135 = ADVANCED_FACE ( 'NONE', ( #101 ), #285, .T. ) ;
#136 = EDGE_LOOP ( 'NONE', ( #187, #20, #32, #283 ) ) ;
#137 = CONICAL_SURFACE ( 'NONE', #186, 0.04750000000000064587, 0.7853981633974466137 ) ;
#138 = DIRECTION ( 'NONE',  ( 1.000000000000000000, 0.0000000000000000000, 0.0000000000000000000 ) ) ;
#139 = SPHERICAL_SURFACE ( 'NONE', #11, 0.03901095000000000257 ) ;
#140 = EDGE_LOOP ( 'NONE', ( #163, #261 ) ) ;
#141 = EDGE_CURVE ( 'NONE', #58, #60, #268, .T. ) ;
#142 = DIRECTION ( 'NONE',  ( 1.000000000000000000, 0.0000000000000000000, -0.0000000000000000000 ) ) ;
#143 = VERTEX_POINT ( 'NONE', #299 ) ;
#144 = AXIS2_PLACEMENT_3D ( 'NONE', #116, #312, #69 ) ;
#145 = DIRECTION ( 'NONE',  ( 0.0000000000000000000, 1.000000000000000000, 0.0000000000000000000 ) ) ;
#146 = DIRECTION ( 'NONE',  ( -1.224646799147353700E-16, -0.0000000000000000000, -1.000000000000000000 ) ) ;
#147 = EDGE_CURVE ( 'NONE', #85, #58, #19, .T. ) ;
#148 = EDGE_CURVE ( 'NONE', #240, #60, #75, .T. ) ;
#149 = ORIENTED_EDGE ( 'NONE', *, *, #174, .T. ) ;
#150 = CARTESIAN_POINT ( 'NONE',  ( 0.06250000000000006939, 7.654042494670963708E-18, 0.3212130222250907940 ) ) ;
#151 =( CONVERSION_BASED_UNIT ( 'INCH', #180 ) LENGTH_UNIT ( ) NAMED_UNIT ( #51 ) );
#152 = SHAPE_DEFINITION_REPRESENTATION ( #24, #6 ) ;
#153 = DIRECTION ( 'NONE',  ( 0.7071067811865462405, 8.659560562354916834E-17, -0.7071067811865486830 ) ) ;
#154 = CLOSED_SHELL ( 'NONE', ( #31, #284, #232, #135, #7, #111, #103, #267, #155, #164, #97 ) ) ;
#155 = ADVANCED_FACE ( 'NONE', ( #23 ), #189, .T. ) ;
#156 = COLOUR_RGB ( '',0.7921568627450980005, 0.8196078431372548767, 0.9333333333333333481 ) ;
#157 = DIRECTION ( 'NONE',  ( 0.0000000000000000000, 0.0000000000000000000, -1.000000000000000000 ) ) ;
#158 = FILL_AREA_STYLE ('',( #54 ) ) ;
#159 = DIRECTION ( 'NONE',  ( 1.000000000000000000, 0.0000000000000000000, 0.0000000000000000000 ) ) ;
#160 = UNCERTAINTY_MEASURE_WITH_UNIT (LENGTH_MEASURE( 1.000000000000000082E-05 ), #151, 'distance_accuracy_value', 'NONE');
#161 = EDGE_CURVE ( 'NONE', #220, #143, #306, .T. ) ;
#162 = ORIENTED_EDGE ( 'NONE', *, *, #256, .F. ) ;
#163 = ORIENTED_EDGE ( 'NONE', *, *, #256, .T. ) ;
#164 = ADVANCED_FACE ( 'NONE', ( #170 ), #270, .T. ) ;
#165 = ORIENTED_EDGE ( 'NONE', *, *, #216, .T. ) ;
#166 = CARTESIAN_POINT ( 'NONE',  ( 7.166195257379618950E-18, 0.0000000000000000000, 0.0000000000000000000 ) ) ;
#167 = EDGE_LOOP ( 'NONE', ( #196, #269, #22 ) ) ;
#168 = LINE ( 'NONE', #296, #52 ) ;
#169 = VERTEX_POINT ( 'NONE', #262 ) ;
#170 = FACE_OUTER_BOUND ( 'NONE', #278, .T. ) ;
#171 = DIRECTION ( 'NONE',  ( -1.000000000000000000, 0.0000000000000000000, 0.0000000000000000000 ) ) ;
#172 = DIRECTION ( 'NONE',  ( 1.224646799147353207E-16, 1.000000000000000000, -0.0000000000000000000 ) ) ;
#173 = VERTEX_POINT ( 'NONE', #150 ) ;
#174 = EDGE_CURVE ( 'NONE', #298, #143, #30, .T. ) ;
#175 = DIRECTION ( 'NONE',  ( 0.0000000000000000000, 0.0000000000000000000, 1.000000000000000000 ) ) ;
#176 = VECTOR ( 'NONE', #201, 39.37007874015748143 ) ;
#177 = ORIENTED_EDGE ( 'NONE', *, *, #27, .F. ) ;
#178 = DIRECTION ( 'NONE',  ( -1.000000000000000000, 1.224646799147353207E-16, 0.0000000000000000000 ) ) ;
#179 = DIRECTION ( 'NONE',  ( 0.0000000000000000000, 0.0000000000000000000, 1.000000000000000000 ) ) ;
#180 = LENGTH_MEASURE_WITH_UNIT ( LENGTH_MEASURE( 0.02539999999999999897 ), #76 );
#181 = CARTESIAN_POINT ( 'NONE',  ( 0.0000000000000000000, 0.0000000000000000000, 1.500000000000000222 ) ) ;
#182 = EDGE_CURVE ( 'NONE', #212, #83, #218, .T. ) ;
#183 = LINE ( 'NONE', #126, #246 ) ;
#184 =( NAMED_UNIT ( * ) SI_UNIT ( $, .STERADIAN. ) SOLID_ANGLE_UNIT ( ) );
#185 = FACE_OUTER_BOUND ( 'NONE', #251, .T. ) ;
#186 = AXIS2_PLACEMENT_3D ( 'NONE', #5, #157, #260 ) ;
#187 = ORIENTED_EDGE ( 'NONE', *, *, #182, .F. ) ;
#188 = FACE_OUTER_BOUND ( 'NONE', #136, .T. ) ;
#189 = CONICAL_SURFACE ( 'NONE', #80, 0.03901095000000000257, 0.1745329251994338915 ) ;
#190 = CARTESIAN_POINT ( 'NONE',  ( 2.302335982397025094E-17, 0.0000000000000000000, 0.1880000000000000282 ) ) ;
#191 = FILL_AREA_STYLE_COLOUR ( '', #156 ) ;
#192 = CARTESIAN_POINT ( 'NONE',  ( -0.03901095000000000257, 0.0000000000000000000, 4.777463504919746737E-18 ) ) ;
#193 = VECTOR ( 'NONE', #231, 39.37007874015747433 ) ;
#194 = PRODUCT_DEFINITION_FORMATION_WITH_SPECIFIED_SOURCE ( 'ANY', '', #104, .NOT_KNOWN. ) ;
#195 = CARTESIAN_POINT ( 'NONE',  ( -0.03901094999999998175, 4.777463504919744426E-18, 0.1880000000000000282 ) ) ;
#196 = ORIENTED_EDGE ( 'NONE', *, *, #250, .F. ) ;
#197 = DIRECTION ( 'NONE',  ( 1.000000000000000000, 0.0000000000000000000, 0.0000000000000000000 ) ) ;
#198 = ORIENTED_EDGE ( 'NONE', *, *, #280, .F. ) ;
#199 = DIRECTION ( 'NONE',  ( 1.000000000000000000, 0.0000000000000000000, 0.0000000000000000000 ) ) ;
#200 = CIRCLE ( 'NONE', #252, 0.03901095000000000257 ) ;
#201 = DIRECTION ( 'NONE',  ( -1.224646799147353700E-16, -0.0000000000000000000, -1.000000000000000000 ) ) ;
#202 = LENGTH_MEASURE_WITH_UNIT ( LENGTH_MEASURE( 0.02539999999999999897 ), #107 );
#203 =( LENGTH_UNIT ( ) NAMED_UNIT ( * ) SI_UNIT ( $, .METRE. ) );
#204 = EDGE_LOOP ( 'NONE', ( #47, #87, #198 ) ) ;
#205 = COLOUR_RGB ( '',0.7921568627450980005, 0.8196078431372548767, 0.9333333333333333481 ) ;
#206 = EDGE_CURVE ( 'NONE', #83, #298, #26, .T. ) ;
#207 = ORIENTED_EDGE ( 'NONE', *, *, #280, .T. ) ;
#208 = EDGE_CURVE ( 'NONE', #83, #173, #183, .T. ) ;
#209 = CIRCLE ( 'NONE', #4, 0.06250000000000002776 ) ;
#210 = UNCERTAINTY_MEASURE_WITH_UNIT (LENGTH_MEASURE( 1.000000000000000082E-05 ), #245, 'distance_accuracy_value', 'NONE');
#211 = CARTESIAN_POINT ( 'NONE',  ( 4.777463504919746737E-18, 0.0000000000000000000, 0.03901095000000000257 ) ) ;
#212 = VERTEX_POINT ( 'NONE', #289 ) ;
#213 =( NAMED_UNIT ( * ) SI_UNIT ( $, .STERADIAN. ) SOLID_ANGLE_UNIT ( ) );
#214 = ORIENTED_EDGE ( 'NONE', *, *, #1, .T. ) ;
#215 = DIRECTION ( 'NONE',  ( -1.000000000000000000, 0.0000000000000000000, 1.224646799147353947E-16 ) ) ;
#216 = EDGE_CURVE ( 'NONE', #60, #58, #209, .T. ) ;
#217 = CARTESIAN_POINT ( 'NONE',  ( 4.777463504919746737E-18, 0.0000000000000000000, 0.03901095000000000257 ) ) ;
#218 = CIRCLE ( 'NONE', #44, 0.03901095000000000257 ) ;
#219 =( GEOMETRIC_REPRESENTATION_CONTEXT ( 3 ) GLOBAL_UNCERTAINTY_ASSIGNED_CONTEXT ( ( #210 ) ) GLOBAL_UNIT_ASSIGNED_CONTEXT ( ( #245, #305, #102 ) ) REPRESENTATION_CONTEXT ( 'NONE', 'WORKASPACE' ) );
#220 = VERTEX_POINT ( 'NONE', #166 ) ;
#221 = DIRECTION ( 'NONE',  ( -1.000000000000000000, 0.0000000000000000000, 0.0000000000000000000 ) ) ;
#222 = SURFACE_STYLE_USAGE ( .BOTH. , #99 ) ;
#223 = DIRECTION ( 'NONE',  ( 0.0000000000000000000, 0.0000000000000000000, -1.000000000000000000 ) ) ;
#224 = CIRCLE ( 'NONE', #144, 0.06250000000000002776 ) ;
#225 = ORIENTED_EDGE ( 'NONE', *, *, #255, .F. ) ;
#226 = DIRECTION ( 'NONE',  ( 1.000000000000000000, 0.0000000000000000000, 0.0000000000000000000 ) ) ;
#227 = CARTESIAN_POINT ( 'NONE',  ( 0.04750000000000064587, 6.735557395310483192E-18, 1.500000000000000222 ) ) ;
#228 = AXIS2_PLACEMENT_3D ( 'NONE', #292, #297, #199 ) ;
#229 = DIRECTION ( 'NONE',  ( 1.224646799147353700E-16, 0.0000000000000000000, 1.000000000000000000 ) ) ;
#230 = CARTESIAN_POINT ( 'NONE',  ( 4.777463504919746737E-18, 0.0000000000000000000, 0.03901095000000000257 ) ) ;
#231 = DIRECTION ( 'NONE',  ( -0.1736481776669311916, 2.126576849575783316E-17, 0.9848077530122080203 ) ) ;
#232 = ADVANCED_FACE ( 'NONE', ( #188 ), #16, .T. ) ;
#233 = DIRECTION ( 'NONE',  ( -0.7071067811865462405, 0.0000000000000000000, -0.7071067811865486830 ) ) ;
#234 = ORIENTED_EDGE ( 'NONE', *, *, #27, .T. ) ;
#235 = DIMENSIONAL_EXPONENTS ( 1.000000000000000000, 0.0000000000000000000, 0.0000000000000000000, 0.0000000000000000000, 0.0000000000000000000, 0.0000000000000000000, 0.0000000000000000000 ) ;
#236 = CARTESIAN_POINT ( 'NONE',  ( 2.302335982397025094E-17, 0.0000000000000000000, 0.1880000000000000282 ) ) ;
#237 = AXIS2_PLACEMENT_3D ( 'NONE', #34, #282, #249 ) ;
#238 = AXIS2_PLACEMENT_3D ( 'NONE', #2, #279, #159 ) ;
#239 = CARTESIAN_POINT ( 'NONE',  ( 0.06250000000000002776, 7.654042494670959086E-18, 1.500000000000000222 ) ) ;
#240 = VERTEX_POINT ( 'NONE', #227 ) ;
#241 = CARTESIAN_POINT ( 'NONE',  ( 4.777463504919746737E-18, 0.0000000000000000000, 0.03901095000000000257 ) ) ;
#242 = CARTESIAN_POINT ( 'NONE',  ( 0.0000000000000000000, 0.0000000000000000000, 1.500000000000000222 ) ) ;
#243 = AXIS2_PLACEMENT_3D ( 'NONE', #70, #118, #215 ) ;
#244 = PRODUCT_CONTEXT ( 'NONE', #109, 'mechanical' ) ;
#245 =( CONVERSION_BASED_UNIT ( 'INCH', #202 ) LENGTH_UNIT ( ) NAMED_UNIT ( #235 ) );
#246 = VECTOR ( 'NONE', #308, 39.37007874015748143 ) ;
#247 = PRESENTATION_LAYER_ASSIGNMENT (  '', '', ( #106 ) ) ;
#248 = ORIENTED_EDGE ( 'NONE', *, *, #15, .F. ) ;
#249 = DIRECTION ( 'NONE',  ( 1.000000000000000000, 0.0000000000000000000, 0.0000000000000000000 ) ) ;
#250 = EDGE_CURVE ( 'NONE', #220, #298, #200, .T. ) ;
#251 = EDGE_LOOP ( 'NONE', ( #37, #62, #149, #307 ) ) ;
#252 = AXIS2_PLACEMENT_3D ( 'NONE', #211, #57, #287 ) ;
#253 = CARTESIAN_POINT ( 'NONE',  ( 0.0000000000000000000, 0.0000000000000000000, 1.500000000000000222 ) ) ;
#254 = ORIENTED_EDGE ( 'NONE', *, *, #141, .F. ) ;
#255 = EDGE_CURVE ( 'NONE', #169, #173, #304, .T. ) ;
#256 = EDGE_CURVE ( 'NONE', #85, #240, #55, .T. ) ;
#257 = CARTESIAN_POINT ( 'NONE',  ( 2.302335982397025094E-17, 0.0000000000000000000, 0.1880000000000000282 ) ) ;
#258 = EDGE_LOOP ( 'NONE', ( #25, #43, #254, #73 ) ) ;
#259 = DIRECTION ( 'NONE',  ( -0.0000000000000000000, -0.0000000000000000000, -1.000000000000000000 ) ) ;
#260 = DIRECTION ( 'NONE',  ( -1.000000000000000000, 0.0000000000000000000, 0.0000000000000000000 ) ) ;
#261 = ORIENTED_EDGE ( 'NONE', *, *, #119, .T. ) ;
#262 = CARTESIAN_POINT ( 'NONE',  ( -0.06249999999999997918, 0.0000000000000000000, 0.3212130222250907940 ) ) ;
#263 = CARTESIAN_POINT ( 'NONE',  ( 0.03901095000000003032, 0.0000000000000000000, 0.1880000000000000282 ) ) ;
#264 = DIRECTION ( 'NONE',  ( -1.000000000000000000, 0.0000000000000000000, 2.188366338220633428E-16 ) ) ;
#265 = CARTESIAN_POINT ( 'NONE',  ( -0.04750000000000064587, 0.0000000000000000000, 1.500000000000000222 ) ) ;
#266 = DIRECTION ( 'NONE',  ( -1.000000000000000000, 0.0000000000000000000, 0.0000000000000000000 ) ) ;
#267 = ADVANCED_FACE ( 'NONE', ( #38 ), #137, .T. ) ;
#268 = CIRCLE ( 'NONE', #86, 0.06250000000000002776 ) ;
#269 = ORIENTED_EDGE ( 'NONE', *, *, #161, .T. ) ;
#270 = CYLINDRICAL_SURFACE ( 'NONE', #243, 0.03901095000000000257 ) ;
#271 = CARTESIAN_POINT ( 'NONE',  ( 0.0000000000000000000, 0.0000000000000000000, 1.485000000000000764 ) ) ;
#272 =( CONVERSION_BASED_UNIT ( 'INCH', #81 ) LENGTH_UNIT ( ) NAMED_UNIT ( #78 ) );
#273 = AXIS2_PLACEMENT_3D ( 'NONE', #181, #223, #221 ) ;
#274 = DIRECTION ( 'NONE',  ( -1.000000000000000000, 0.0000000000000000000, 1.224646799147353947E-16 ) ) ;
#275 = APPLICATION_PROTOCOL_DEFINITION ( 'draft international standard', 'automotive_design', 1998, #109 ) ;
#276 = CIRCLE ( 'NONE', #228, 0.04750000000000064587 ) ;
#277 = CARTESIAN_POINT ( 'NONE',  ( 0.03901095000000000951, 4.777463504919744426E-18, 0.03901094999999999563 ) ) ;
#278 = EDGE_LOOP ( 'NONE', ( #281, #39, #35, #207 ) ) ;
#279 = DIRECTION ( 'NONE',  ( 0.0000000000000000000, 0.0000000000000000000, 1.000000000000000000 ) ) ;
#280 = EDGE_CURVE ( 'NONE', #143, #298, #325, .T. ) ;
#281 = ORIENTED_EDGE ( 'NONE', *, *, #206, .F. ) ;
#282 = DIRECTION ( 'NONE',  ( -1.224646799147353700E-16, -0.0000000000000000000, -1.000000000000000000 ) ) ;
#283 = ORIENTED_EDGE ( 'NONE', *, *, #208, .F. ) ;
#284 = ADVANCED_FACE ( 'NONE', ( #185 ), #10, .T. ) ;
#285 = CONICAL_SURFACE ( 'NONE', #273, 0.04750000000000064587, 0.7853981633974466137 ) ;
#286 =( GEOMETRIC_REPRESENTATION_CONTEXT ( 3 ) GLOBAL_UNCERTAINTY_ASSIGNED_CONTEXT ( ( #295 ) ) GLOBAL_UNIT_ASSIGNED_CONTEXT ( ( #272, #3, #184 ) ) REPRESENTATION_CONTEXT ( 'NONE', 'WORKASPACE' ) );
#287 = DIRECTION ( 'NONE',  ( 0.0000000000000000000, 0.0000000000000000000, -1.000000000000000000 ) ) ;
#288 = ORIENTED_EDGE ( 'NONE', *, *, #148, .F. ) ;
#289 = CARTESIAN_POINT ( 'NONE',  ( -0.03901094999999998175, 6.215752999795353296E-18, 0.1880000000000000282 ) ) ;
#290 = DIRECTION ( 'NONE',  ( -1.224646799147353700E-16, -0.0000000000000000000, -1.000000000000000000 ) ) ;
#291 = FILL_AREA_STYLE ('',( #191 ) ) ;
#292 = CARTESIAN_POINT ( 'NONE',  ( 0.0000000000000000000, 0.0000000000000000000, 1.500000000000000222 ) ) ;
#293 = ORIENTED_EDGE ( 'NONE', *, *, #216, .F. ) ;
#294 = CARTESIAN_POINT ( 'NONE',  ( 0.04750000000000064587, 5.817072295950006528E-18, 1.500000000000000222 ) ) ;
#295 = UNCERTAINTY_MEASURE_WITH_UNIT (LENGTH_MEASURE( 1.000000000000000082E-05 ), #272, 'distance_accuracy_value', 'NONE');
#296 = CARTESIAN_POINT ( 'NONE',  ( -0.06250000000000002776, 0.0000000000000000000, 1.500000000000000222 ) ) ;
#297 = DIRECTION ( 'NONE',  ( 0.0000000000000000000, 0.0000000000000000000, 1.000000000000000000 ) ) ;
#298 = VERTEX_POINT ( 'NONE', #277 ) ;
#299 = CARTESIAN_POINT ( 'NONE',  ( -0.03901094999999999563, 0.0000000000000000000, 0.03901095000000000951 ) ) ;
#300 = AXIS2_PLACEMENT_3D ( 'NONE', #88, #94, #123 ) ;
#301 = CIRCLE ( 'NONE', #309, 0.03901095000000000257 ) ;
#302 = PRESENTATION_STYLE_ASSIGNMENT (( #222 ) ) ;
#303 = FACE_OUTER_BOUND ( 'NONE', #204, .T. ) ;
#304 = CIRCLE ( 'NONE', #237, 0.06250000000000002776 ) ;
#305 =( NAMED_UNIT ( * ) PLANE_ANGLE_UNIT ( ) SI_UNIT ( $, .RADIAN. ) );
#306 = CIRCLE ( 'NONE', #61, 0.03901095000000000257 ) ;
#307 = ORIENTED_EDGE ( 'NONE', *, *, #115, .F. ) ;
#308 = DIRECTION ( 'NONE',  ( 0.1736481776669313859, 0.0000000000000000000, 0.9848077530122077983 ) ) ;
#309 = AXIS2_PLACEMENT_3D ( 'NONE', #190, #290, #171 ) ;
#310 = DIRECTION ( 'NONE',  ( -0.0000000000000000000, -0.0000000000000000000, -1.000000000000000000 ) ) ;
#311 = PRODUCT_RELATED_PRODUCT_CATEGORY ( 'part', '', ( #104 ) ) ;
#312 = DIRECTION ( 'NONE',  ( -1.224646799147353700E-16, -0.0000000000000000000, -1.000000000000000000 ) ) ;
#313 = DIRECTION ( 'NONE',  ( 0.0000000000000000000, 1.000000000000000000, 0.0000000000000000000 ) ) ;
#314 = PRODUCT_DEFINITION_CONTEXT ( 'detailed design', #14, 'design' ) ;
#315 = ORIENTED_EDGE ( 'NONE', *, *, #141, .T. ) ;
#316 = MECHANICAL_DESIGN_GEOMETRIC_PRESENTATION_REPRESENTATION (  '', ( #90 ), #84 ) ;
#317 = DIRECTION ( 'NONE',  ( 1.000000000000000000, 0.0000000000000000000, 0.0000000000000000000 ) ) ;
#318 = CYLINDRICAL_SURFACE ( 'NONE', #300, 0.06250000000000002776 ) ;
#319 = DIRECTION ( 'NONE',  ( -1.224646799147353700E-16, -0.0000000000000000000, -1.000000000000000000 ) ) ;
#320 = PRODUCT_DEFINITION ( 'UNKNOWN', '', #194, #314 ) ;
#321 = LINE ( 'NONE', #239, #74 ) ;
#322 = SPHERICAL_SURFACE ( 'NONE', #112, 0.03901095000000000257 ) ;
#323 = SURFACE_STYLE_FILL_AREA ( #291 ) ;
#324 = DIRECTION ( 'NONE',  ( -0.0000000000000000000, -0.0000000000000000000, -1.000000000000000000 ) ) ;
#325 = CIRCLE ( 'NONE', #129, 0.03901095000000000257 ) ;
ENDSEC;
END-ISO-10303-21;
