ISO-10303-21;
HEADER;
FILE_DESCRIPTION (( 'STEP AP214' ),
    '1' );
FILE_NAME ('82258.STEP',
    '2023-06-23T04:24:17',
    ( '' ),
    ( '' ),
    'SwSTEP 2.0',
    'SolidWorks 2023',
    '' );
FILE_SCHEMA (( 'AUTOMOTIVE_DESIGN' ));
ENDSEC;

DATA;
#1 = LENGTH_MEASURE_WITH_UNIT ( LENGTH_MEASURE( 0.02539999999999999897 ), #55 );
#2 = VECTOR ( 'NONE', #117, 39.37007874015748143 ) ;
#3 = LINE ( 'NONE', #270, #152 ) ;
#4 = VECTOR ( 'NONE', #213, 39.37007874015748143 ) ;
#5 = ORIENTED_EDGE ( 'NONE', *, *, #141, .F. ) ;
#6 = ADVANCED_BREP_SHAPE_REPRESENTATION ( '82258', ( #242, #139, #44 ), #256 ) ;
#7 = ORIENTED_EDGE ( 'NONE', *, *, #113, .F. ) ;
#8 = CARTESIAN_POINT ( 'NONE',  ( 3.515061990613726630E-34, 2.000000000000000000, 0.000000000000000000 ) ) ;
#9 = ORIENTED_EDGE ( 'NONE', *, *, #185, .F. ) ;
#10 = SURFACE_STYLE_USAGE ( .BOTH. , #32 ) ;
#11 = COLOUR_RGB ( '',0.7921568627450980005, 0.8196078431372548767, 0.9333333333333333481 ) ;
#12 =( LENGTH_UNIT ( ) NAMED_UNIT ( * ) SI_UNIT ( $, .METRE. ) );
#13 = DIRECTION ( 'NONE',  ( 6.123233995736763571E-17, -1.000000000000000000, 0.000000000000000000 ) ) ;
#14 = FILL_AREA_STYLE_COLOUR ( '', #268 ) ;
#15 = FILL_AREA_STYLE ('',( #184 ) ) ;
#16 = DIRECTION ( 'NONE',  ( 0.000000000000000000, 0.000000000000000000, -1.000000000000000000 ) ) ;
#17 = CIRCLE ( 'NONE', #178, 0.1875000000000000278 ) ;
#18 = SURFACE_SIDE_STYLE ('',( #137 ) ) ;
#19 = CARTESIAN_POINT ( 'NONE',  ( 0.000000000000000000, 0.000000000000000000, 0.000000000000000000 ) ) ;
#20 = FILL_AREA_STYLE ('',( #14 ) ) ;
#21 = ADVANCED_FACE ( 'NONE', ( #104 ), #84, .T. ) ;
#22 = PRESENTATION_LAYER_ASSIGNMENT (  '', '', ( #288 ) ) ;
#23 = APPLICATION_PROTOCOL_DEFINITION ( 'draft international standard', 'automotive_design', 1998, #49 ) ;
#24 = DIRECTION ( 'NONE',  ( 0.000000000000000000, -1.000000000000000000, -0.000000000000000000 ) ) ;
#25 = DIRECTION ( 'NONE',  ( 1.000000000000000000, 0.000000000000000000, 0.000000000000000000 ) ) ;
#26 = LINE ( 'NONE', #160, #2 ) ;
#27 = PLANE ( 'NONE',  #68 ) ;
#28 = AXIS2_PLACEMENT_3D ( 'NONE', #66, #157, #16 ) ;
#29 = PRODUCT_CONTEXT ( 'NONE', #155, 'mechanical' ) ;
#30 = FILL_AREA_STYLE ('',( #239 ) ) ;
#31 = UNCERTAINTY_MEASURE_WITH_UNIT (LENGTH_MEASURE( 1.000000000000000082E-05 ), #234, 'distance_accuracy_value', 'NONE');
#32 = SURFACE_SIDE_STYLE ('',( #194 ) ) ;
#33 = EDGE_LOOP ( 'NONE', ( #78, #147 ) ) ;
#34 = DIRECTION ( 'NONE',  ( -6.123233995736763571E-17, 1.000000000000000000, -0.000000000000000000 ) ) ;
#35 = ORIENTED_EDGE ( 'NONE', *, *, #161, .T. ) ;
#36 = ORIENTED_EDGE ( 'NONE', *, *, #54, .T. ) ;
#37 = LENGTH_MEASURE_WITH_UNIT ( LENGTH_MEASURE( 0.02539999999999999897 ), #12 );
#38 = AXIS2_PLACEMENT_3D ( 'NONE', #243, #34, #102 ) ;
#39 = VERTEX_POINT ( 'NONE', #291 ) ;
#40 = ADVANCED_FACE ( 'NONE', ( #131 ), #174, .F. ) ;
#41 =( NAMED_UNIT ( * ) SI_UNIT ( $, .STERADIAN. ) SOLID_ANGLE_UNIT ( ) );
#42 = DIRECTION ( 'NONE',  ( 0.000000000000000000, 0.000000000000000000, -1.000000000000000000 ) ) ;
#43 = CIRCLE ( 'NONE', #28, 0.1875000000000000278 ) ;
#44 = AXIS2_PLACEMENT_3D ( 'NONE', #163, #119, #25 ) ;
#45 = FILL_AREA_STYLE_COLOUR ( '', #217 ) ;
#46 = DIRECTION ( 'NONE',  ( -1.000000000000000000, 0.000000000000000000, 0.000000000000000000 ) ) ;
#47 = LENGTH_MEASURE_WITH_UNIT ( LENGTH_MEASURE( 0.02539999999999999897 ), #237 );
#48 = MECHANICAL_DESIGN_GEOMETRIC_PRESENTATION_REPRESENTATION (  '', ( #228 ), #112 ) ;
#49 = APPLICATION_CONTEXT ( 'automotive_design' ) ;
#50 = PRODUCT ( '82258', '82258', '', ( #29 ) ) ;
#51 = CARTESIAN_POINT ( 'NONE',  ( -1.224646799147352714E-16, 4.000000000000000000, 0.000000000000000000 ) ) ;
#52 = DIMENSIONAL_EXPONENTS ( 1.000000000000000000, 0.000000000000000000, 0.000000000000000000, 0.000000000000000000, 0.000000000000000000, 0.000000000000000000, 0.000000000000000000 ) ;
#53 = PRESENTATION_LAYER_ASSIGNMENT (  '', '', ( #262 ) ) ;
#54 = EDGE_CURVE ( 'NONE', #39, #100, #244, .T. ) ;
#55 =( LENGTH_UNIT ( ) NAMED_UNIT ( * ) SI_UNIT ( $, .METRE. ) );
#56 = ORIENTED_EDGE ( 'NONE', *, *, #113, .T. ) ;
#57 =( NAMED_UNIT ( * ) SI_UNIT ( $, .STERADIAN. ) SOLID_ANGLE_UNIT ( ) );
#58 = EDGE_LOOP ( 'NONE', ( #56, #249 ) ) ;
#59 = PRODUCT_DEFINITION_CONTEXT ( 'detailed design', #49, 'design' ) ;
#60 = MECHANICAL_DESIGN_GEOMETRIC_PRESENTATION_REPRESENTATION (  '', ( #235 ), #87 ) ;
#61 = DIRECTION ( 'NONE',  ( -6.123233995736763571E-17, 1.000000000000000000, -0.000000000000000000 ) ) ;
#62 = EDGE_LOOP ( 'NONE', ( #150, #167, #7, #275 ) ) ;
#63 = ORIENTED_EDGE ( 'NONE', *, *, #54, .F. ) ;
#64 = MECHANICAL_DESIGN_GEOMETRIC_PRESENTATION_REPRESENTATION (  '', ( #288 ), #143 ) ;
#65 = CARTESIAN_POINT ( 'NONE',  ( 2.296212748401287726E-17, 0.000000000000000000, 0.1875000000000000278 ) ) ;
#66 = CARTESIAN_POINT ( 'NONE',  ( 0.000000000000000000, 0.000000000000000000, 0.000000000000000000 ) ) ;
#67 = EDGE_CURVE ( 'NONE', #276, #100, #17, .T. ) ;
#68 = AXIS2_PLACEMENT_3D ( 'NONE', #309, #97, #287 ) ;
#69 = PRESENTATION_STYLE_ASSIGNMENT (( #181 ) ) ;
#70 = CARTESIAN_POINT ( 'NONE',  ( 0.000000000000000000, 2.000000000000000000, 0.000000000000000000 ) ) ;
#71 = SURFACE_STYLE_USAGE ( .BOTH. , #269 ) ;
#72 = EDGE_CURVE ( 'NONE', #39, #272, #222, .T. ) ;
#73 = FACE_OUTER_BOUND ( 'NONE', #106, .T. ) ;
#74 = DIRECTION ( 'NONE',  ( -6.123233995736763571E-17, 1.000000000000000000, -0.000000000000000000 ) ) ;
#75 = EDGE_CURVE ( 'NONE', #272, #39, #307, .T. ) ;
#76 = CLOSED_SHELL ( 'NONE', ( #266, #196, #290, #189 ) ) ;
#77 = DIMENSIONAL_EXPONENTS ( 1.000000000000000000, 0.000000000000000000, 0.000000000000000000, 0.000000000000000000, 0.000000000000000000, 0.000000000000000000, 0.000000000000000000 ) ;
#78 = ORIENTED_EDGE ( 'NONE', *, *, #122, .F. ) ;
#79 = CARTESIAN_POINT ( 'NONE',  ( -0.1875000000000002776, 4.000000000000000000, 0.000000000000000000 ) ) ;
#80 = ORIENTED_EDGE ( 'NONE', *, *, #255, .T. ) ;
#81 = COLOUR_RGB ( '',1.000000000000000000, 0.000000000000000000, 0.000000000000000000 ) ;
#82 = STYLED_ITEM ( 'NONE', ( #253 ), #290 ) ;
#83 = DIMENSIONAL_EXPONENTS ( 1.000000000000000000, 0.000000000000000000, 0.000000000000000000, 0.000000000000000000, 0.000000000000000000, 0.000000000000000000, 0.000000000000000000 ) ;
#84 = CYLINDRICAL_SURFACE ( 'NONE', #251, 0.1875000000000000833 ) ;
#85 = SURFACE_SIDE_STYLE ('',( #293 ) ) ;
#86 = SURFACE_STYLE_USAGE ( .BOTH. , #110 ) ;
#87 =( GEOMETRIC_REPRESENTATION_CONTEXT ( 3 ) GLOBAL_UNCERTAINTY_ASSIGNED_CONTEXT ( ( #99 ) ) GLOBAL_UNIT_ASSIGNED_CONTEXT ( ( #164, #140, #263 ) ) REPRESENTATION_CONTEXT ( 'NONE', 'WORKASPACE' ) );
#88 = UNCERTAINTY_MEASURE_WITH_UNIT (LENGTH_MEASURE( 1.000000000000000082E-05 ), #206, 'distance_accuracy_value', 'NONE');
#89 = CARTESIAN_POINT ( 'NONE',  ( 0.000000000000000000, 0.000000000000000000, 0.000000000000000000 ) ) ;
#90 = DIRECTION ( 'NONE',  ( 0.000000000000000000, 0.000000000000000000, -1.000000000000000000 ) ) ;
#91 = CARTESIAN_POINT ( 'NONE',  ( 0.000000000000000000, 0.000000000000000000, 0.000000000000000000 ) ) ;
#92 = DIRECTION ( 'NONE',  ( -0.000000000000000000, -1.000000000000000000, -0.000000000000000000 ) ) ;
#93 = AXIS2_PLACEMENT_3D ( 'NONE', #295, #252, #231 ) ;
#94 = SURFACE_STYLE_USAGE ( .BOTH. , #285 ) ;
#95 = PRESENTATION_STYLE_ASSIGNMENT (( #94 ) ) ;
#96 = MECHANICAL_DESIGN_GEOMETRIC_PRESENTATION_REPRESENTATION (  '', ( #279 ), #208 ) ;
#97 = DIRECTION ( 'NONE',  ( 0.000000000000000000, 1.000000000000000000, 0.000000000000000000 ) ) ;
#98 = DIMENSIONAL_EXPONENTS ( 1.000000000000000000, 0.000000000000000000, 0.000000000000000000, 0.000000000000000000, 0.000000000000000000, 0.000000000000000000, 0.000000000000000000 ) ;
#99 = UNCERTAINTY_MEASURE_WITH_UNIT (LENGTH_MEASURE( 1.000000000000000082E-05 ), #164, 'distance_accuracy_value', 'NONE');
#100 = VERTEX_POINT ( 'NONE', #227 ) ;
#101 = PRODUCT_RELATED_PRODUCT_CATEGORY ( 'part', '', ( #50 ) ) ;
#102 = DIRECTION ( 'NONE',  ( -1.000000000000000000, 0.000000000000000000, 0.000000000000000000 ) ) ;
#103 = VERTEX_POINT ( 'NONE', #284 ) ;
#104 = FACE_OUTER_BOUND ( 'NONE', #62, .T. ) ;
#105 = UNCERTAINTY_MEASURE_WITH_UNIT (LENGTH_MEASURE( 1.000000000000000082E-05 ), #107, 'distance_accuracy_value', 'NONE');
#106 = EDGE_LOOP ( 'NONE', ( #247, #80, #292, #5 ) ) ;
#107 =( CONVERSION_BASED_UNIT ( 'INCH', #37 ) LENGTH_UNIT ( ) NAMED_UNIT ( #115 ) );
#108 = EDGE_LOOP ( 'NONE', ( #9, #123, #36, #151 ) ) ;
#109 =( NAMED_UNIT ( * ) SI_UNIT ( $, .STERADIAN. ) SOLID_ANGLE_UNIT ( ) );
#110 = SURFACE_SIDE_STYLE ('',( #225 ) ) ;
#111 = LENGTH_MEASURE_WITH_UNIT ( LENGTH_MEASURE( 0.02539999999999999897 ), #154 );
#112 =( GEOMETRIC_REPRESENTATION_CONTEXT ( 3 ) GLOBAL_UNCERTAINTY_ASSIGNED_CONTEXT ( ( #294 ) ) GLOBAL_UNIT_ASSIGNED_CONTEXT ( ( #191, #162, #236 ) ) REPRESENTATION_CONTEXT ( 'NONE', 'WORKASPACE' ) );
#113 = EDGE_CURVE ( 'NONE', #220, #103, #204, .T. ) ;
#114 = CARTESIAN_POINT ( 'NONE',  ( -1.224646799147352714E-16, 4.000000000000000000, 0.000000000000000000 ) ) ;
#115 = DIMENSIONAL_EXPONENTS ( 1.000000000000000000, 0.000000000000000000, 0.000000000000000000, 0.000000000000000000, 0.000000000000000000, 0.000000000000000000, 0.000000000000000000 ) ;
#116 = CARTESIAN_POINT ( 'NONE',  ( -1.224646799147352714E-16, 4.000000000000000000, 0.000000000000000000 ) ) ;
#117 = DIRECTION ( 'NONE',  ( -0.000000000000000000, -1.000000000000000000, -0.000000000000000000 ) ) ;
#118 = SURFACE_STYLE_FILL_AREA ( #142 ) ;
#119 = DIRECTION ( 'NONE',  ( 0.000000000000000000, 0.000000000000000000, 1.000000000000000000 ) ) ;
#120 = PRESENTATION_LAYER_ASSIGNMENT (  '', '', ( #228 ) ) ;
#121 = FACE_OUTER_BOUND ( 'NONE', #126, .T. ) ;
#122 = EDGE_CURVE ( 'NONE', #149, #250, #229, .T. ) ;
#123 = ORIENTED_EDGE ( 'NONE', *, *, #75, .T. ) ;
#124 = MECHANICAL_DESIGN_GEOMETRIC_PRESENTATION_REPRESENTATION (  '', ( #262 ), #282 ) ;
#125 = CARTESIAN_POINT ( 'NONE',  ( 0.000000000000000000, 0.000000000000000000, -0.1875000000000000278 ) ) ;
#126 = EDGE_LOOP ( 'NONE', ( #35, #271 ) ) ;
#127 = CARTESIAN_POINT ( 'NONE',  ( -1.224646799147352714E-16, 4.000000000000000000, 0.000000000000000000 ) ) ;
#128 = UNCERTAINTY_MEASURE_WITH_UNIT (LENGTH_MEASURE( 1.000000000000000082E-05 ), #200, 'distance_accuracy_value', 'NONE');
#129 = PRESENTATION_LAYER_ASSIGNMENT (  '', '', ( #235 ) ) ;
#130 = FILL_AREA_STYLE ('',( #45 ) ) ;
#131 = FACE_OUTER_BOUND ( 'NONE', #58, .T. ) ;
#132 = DIRECTION ( 'NONE',  ( -0.000000000000000000, -1.000000000000000000, -0.000000000000000000 ) ) ;
#133 = DIMENSIONAL_EXPONENTS ( 1.000000000000000000, 0.000000000000000000, 0.000000000000000000, 0.000000000000000000, 0.000000000000000000, 0.000000000000000000, 0.000000000000000000 ) ;
#134 =( NAMED_UNIT ( * ) PLANE_ANGLE_UNIT ( ) SI_UNIT ( $, .RADIAN. ) );
#135 = PRESENTATION_LAYER_ASSIGNMENT (  '', '', ( #82 ) ) ;
#136 = DIRECTION ( 'NONE',  ( 0.000000000000000000, 0.000000000000000000, -1.000000000000000000 ) ) ;
#137 = SURFACE_STYLE_FILL_AREA ( #130 ) ;
#138 = DIRECTION ( 'NONE',  ( -6.123233995736763571E-17, 1.000000000000000000, -0.000000000000000000 ) ) ;
#139 = MANIFOLD_SOLID_BREP ( 'Revolve - Tool Body (Straight Shanked)', #177 ) ;
#140 =( NAMED_UNIT ( * ) PLANE_ANGLE_UNIT ( ) SI_UNIT ( $, .RADIAN. ) );
#141 = EDGE_CURVE ( 'NONE', #103, #220, #171, .T. ) ;
#142 = FILL_AREA_STYLE ('',( #165 ) ) ;
#143 =( GEOMETRIC_REPRESENTATION_CONTEXT ( 3 ) GLOBAL_UNCERTAINTY_ASSIGNED_CONTEXT ( ( #128 ) ) GLOBAL_UNIT_ASSIGNED_CONTEXT ( ( #200, #173, #57 ) ) REPRESENTATION_CONTEXT ( 'NONE', 'WORKASPACE' ) );
#144 = SURFACE_STYLE_FILL_AREA ( #30 ) ;
#145 = DIRECTION ( 'NONE',  ( 1.000000000000000000, 6.123233995736763571E-17, 0.000000000000000000 ) ) ;
#146 = CARTESIAN_POINT ( 'NONE',  ( 0.1875000000000000278, 2.000000000000000000, 2.296212748401288650E-17 ) ) ;
#147 = ORIENTED_EDGE ( 'NONE', *, *, #255, .F. ) ;
#148 = CIRCLE ( 'NONE', #38, 0.1875000000000000278 ) ;
#149 = VERTEX_POINT ( 'NONE', #280 ) ;
#150 = ORIENTED_EDGE ( 'NONE', *, *, #122, .T. ) ;
#151 = ORIENTED_EDGE ( 'NONE', *, *, #67, .F. ) ;
#152 = VECTOR ( 'NONE', #61, 39.37007874015748143 ) ;
#153 = AXIS2_PLACEMENT_3D ( 'NONE', #89, #180, #224 ) ;
#154 =( LENGTH_UNIT ( ) NAMED_UNIT ( * ) SI_UNIT ( $, .METRE. ) );
#155 = APPLICATION_CONTEXT ( 'automotive_design' ) ;
#156 = DIRECTION ( 'NONE',  ( -1.000000000000000000, -6.123233995736763571E-17, 0.000000000000000000 ) ) ;
#157 = DIRECTION ( 'NONE',  ( -0.000000000000000000, -1.000000000000000000, -0.000000000000000000 ) ) ;
#158 = SHAPE_DEFINITION_REPRESENTATION ( #267, #6 ) ;
#159 = PRESENTATION_STYLE_ASSIGNMENT (( #86 ) ) ;
#160 = CARTESIAN_POINT ( 'NONE',  ( 2.296212748401287726E-17, 0.000000000000000000, 0.1875000000000000278 ) ) ;
#161 = EDGE_CURVE ( 'NONE', #100, #276, #43, .T. ) ;
#162 =( NAMED_UNIT ( * ) PLANE_ANGLE_UNIT ( ) SI_UNIT ( $, .RADIAN. ) );
#163 = CARTESIAN_POINT ( 'NONE',  ( 0.000000000000000000, 0.000000000000000000, 0.000000000000000000 ) ) ;
#164 =( CONVERSION_BASED_UNIT ( 'INCH', #187 ) LENGTH_UNIT ( ) NAMED_UNIT ( #98 ) );
#165 = FILL_AREA_STYLE_COLOUR ( '', #166 ) ;
#166 = COLOUR_RGB ( '',1.000000000000000000, 0.000000000000000000, 0.000000000000000000 ) ;
#167 = ORIENTED_EDGE ( 'NONE', *, *, #240, .T. ) ;
#168 = DIMENSIONAL_EXPONENTS ( 1.000000000000000000, 0.000000000000000000, 0.000000000000000000, 0.000000000000000000, 0.000000000000000000, 0.000000000000000000, 0.000000000000000000 ) ;
#169 = UNCERTAINTY_MEASURE_WITH_UNIT (LENGTH_MEASURE( 1.000000000000000082E-05 ), #186, 'distance_accuracy_value', 'NONE');
#170 = EDGE_LOOP ( 'NONE', ( #172, #197, #195, #63 ) ) ;
#171 = CIRCLE ( 'NONE', #198, 0.1875000000000001388 ) ;
#172 = ORIENTED_EDGE ( 'NONE', *, *, #72, .T. ) ;
#173 =( NAMED_UNIT ( * ) PLANE_ANGLE_UNIT ( ) SI_UNIT ( $, .RADIAN. ) );
#174 = PLANE ( 'NONE',  #286 ) ;
#175 =( NAMED_UNIT ( * ) PLANE_ANGLE_UNIT ( ) SI_UNIT ( $, .RADIAN. ) );
#176 = PRODUCT_DEFINITION ( 'UNKNOWN', '', #199, #59 ) ;
#177 = CLOSED_SHELL ( 'NONE', ( #21, #259, #202, #40 ) ) ;
#178 = AXIS2_PLACEMENT_3D ( 'NONE', #19, #92, #136 ) ;
#179 = DIRECTION ( 'NONE',  ( -6.123233995736763571E-17, 1.000000000000000000, -0.000000000000000000 ) ) ;
#180 = DIRECTION ( 'NONE',  ( -0.000000000000000000, -1.000000000000000000, -0.000000000000000000 ) ) ;
#181 = SURFACE_STYLE_USAGE ( .BOTH. , #18 ) ;
#182 =( LENGTH_UNIT ( ) NAMED_UNIT ( * ) SI_UNIT ( $, .METRE. ) );
#183 = AXIS2_PLACEMENT_3D ( 'NONE', #8, #298, #156 ) ;
#184 = FILL_AREA_STYLE_COLOUR ( '', #209 ) ;
#185 = EDGE_CURVE ( 'NONE', #272, #276, #26, .T. ) ;
#186 =( CONVERSION_BASED_UNIT ( 'INCH', #203 ) LENGTH_UNIT ( ) NAMED_UNIT ( #52 ) );
#187 = LENGTH_MEASURE_WITH_UNIT ( LENGTH_MEASURE( 0.02539999999999999897 ), #302 );
#188 = LENGTH_MEASURE_WITH_UNIT ( LENGTH_MEASURE( 0.02539999999999999897 ), #303 );
#189 = ADVANCED_FACE ( 'NONE', ( #121 ), #214, .T. ) ;
#190 = PRESENTATION_LAYER_ASSIGNMENT (  '', '', ( #279 ) ) ;
#191 =( CONVERSION_BASED_UNIT ( 'INCH', #188 ) LENGTH_UNIT ( ) NAMED_UNIT ( #77 ) );
#192 = FILL_AREA_STYLE_COLOUR ( '', #11 ) ;
#193 = EDGE_LOOP ( 'NONE', ( #216, #201 ) ) ;
#194 = SURFACE_STYLE_FILL_AREA ( #215 ) ;
#195 = ORIENTED_EDGE ( 'NONE', *, *, #161, .F. ) ;
#196 = ADVANCED_FACE ( 'NONE', ( #305 ), #27, .T. ) ;
#197 = ORIENTED_EDGE ( 'NONE', *, *, #185, .T. ) ;
#198 = AXIS2_PLACEMENT_3D ( 'NONE', #114, #179, #254 ) ;
#199 = PRODUCT_DEFINITION_FORMATION_WITH_SPECIFIED_SOURCE ( 'ANY', '', #50, .NOT_KNOWN. ) ;
#200 =( CONVERSION_BASED_UNIT ( 'INCH', #1 ) LENGTH_UNIT ( ) NAMED_UNIT ( #168 ) );
#201 = ORIENTED_EDGE ( 'NONE', *, *, #75, .F. ) ;
#202 = ADVANCED_FACE ( 'NONE', ( #73 ), #265, .T. ) ;
#203 = LENGTH_MEASURE_WITH_UNIT ( LENGTH_MEASURE( 0.02539999999999999897 ), #182 );
#204 = CIRCLE ( 'NONE', #274, 0.1875000000000001388 ) ;
#205 =( NAMED_UNIT ( * ) SI_UNIT ( $, .STERADIAN. ) SOLID_ANGLE_UNIT ( ) );
#206 =( CONVERSION_BASED_UNIT ( 'INCH', #111 ) LENGTH_UNIT ( ) NAMED_UNIT ( #83 ) );
#207 = CYLINDRICAL_SURFACE ( 'NONE', #153, 0.1875000000000000278 ) ;
#208 =( GEOMETRIC_REPRESENTATION_CONTEXT ( 3 ) GLOBAL_UNCERTAINTY_ASSIGNED_CONTEXT ( ( #169 ) ) GLOBAL_UNIT_ASSIGNED_CONTEXT ( ( #186, #175, #41 ) ) REPRESENTATION_CONTEXT ( 'NONE', 'WORKASPACE' ) );
#209 = COLOUR_RGB ( '',1.000000000000000000, 0.000000000000000000, 0.000000000000000000 ) ;
#210 =( NAMED_UNIT ( * ) SI_UNIT ( $, .STERADIAN. ) SOLID_ANGLE_UNIT ( ) );
#211 = VECTOR ( 'NONE', #218, 39.37007874015748143 ) ;
#212 = DIRECTION ( 'NONE',  ( 0.000000000000000000, 0.000000000000000000, -1.000000000000000000 ) ) ;
#213 = DIRECTION ( 'NONE',  ( -6.123233995736763571E-17, 1.000000000000000000, -0.000000000000000000 ) ) ;
#214 = PLANE ( 'NONE',  #296 ) ;
#215 = FILL_AREA_STYLE ('',( #192 ) ) ;
#216 = ORIENTED_EDGE ( 'NONE', *, *, #72, .F. ) ;
#217 = COLOUR_RGB ( '',1.000000000000000000, 0.000000000000000000, 0.000000000000000000 ) ;
#218 = DIRECTION ( 'NONE',  ( -0.000000000000000000, -1.000000000000000000, -0.000000000000000000 ) ) ;
#219 = PLANE ( 'NONE',  #183 ) ;
#220 = VERTEX_POINT ( 'NONE', #79 ) ;
#221 = DIRECTION ( 'NONE',  ( -1.000000000000000000, 0.000000000000000000, 0.000000000000000000 ) ) ;
#222 = CIRCLE ( 'NONE', #245, 0.1875000000000000278 ) ;
#223 = CARTESIAN_POINT ( 'NONE',  ( 0.1875000000000000278, 4.000000000000000000, 0.000000000000000000 ) ) ;
#224 = DIRECTION ( 'NONE',  ( 0.000000000000000000, 0.000000000000000000, -1.000000000000000000 ) ) ;
#225 = SURFACE_STYLE_FILL_AREA ( #20 ) ;
#226 = CYLINDRICAL_SURFACE ( 'NONE', #289, 0.1875000000000000278 ) ;
#227 = CARTESIAN_POINT ( 'NONE',  ( 0.000000000000000000, 0.000000000000000000, -0.1875000000000000278 ) ) ;
#228 = STYLED_ITEM ( 'NONE', ( #95 ), #196 ) ;
#229 = CIRCLE ( 'NONE', #93, 0.1875000000000000278 ) ;
#230 = LINE ( 'NONE', #260, #4 ) ;
#231 = DIRECTION ( 'NONE',  ( -1.000000000000000000, 0.000000000000000000, 0.000000000000000000 ) ) ;
#232 =( NAMED_UNIT ( * ) PLANE_ANGLE_UNIT ( ) SI_UNIT ( $, .RADIAN. ) );
#233 = DIRECTION ( 'NONE',  ( 0.000000000000000000, 0.000000000000000000, -1.000000000000000000 ) ) ;
#234 =( CONVERSION_BASED_UNIT ( 'INCH', #47 ) LENGTH_UNIT ( ) NAMED_UNIT ( #133 ) );
#235 = STYLED_ITEM ( 'NONE', ( #261 ), #189 ) ;
#236 =( NAMED_UNIT ( * ) SI_UNIT ( $, .STERADIAN. ) SOLID_ANGLE_UNIT ( ) );
#237 =( LENGTH_UNIT ( ) NAMED_UNIT ( * ) SI_UNIT ( $, .METRE. ) );
#238 = AXIS2_PLACEMENT_3D ( 'NONE', #51, #74, #273 ) ;
#239 = FILL_AREA_STYLE_COLOUR ( '', #81 ) ;
#240 = EDGE_CURVE ( 'NONE', #250, #103, #3, .T. ) ;
#241 = CARTESIAN_POINT ( 'NONE',  ( 0.000000000000000000, 0.000000000000000000, 0.000000000000000000 ) ) ;
#242 = MANIFOLD_SOLID_BREP ( 'Revolve - Cutting Edge', #76 ) ;
#243 = CARTESIAN_POINT ( 'NONE',  ( 1.516480271171051896E-32, 2.000000000000000000, 0.000000000000000000 ) ) ;
#244 = LINE ( 'NONE', #125, #211 ) ;
#245 = AXIS2_PLACEMENT_3D ( 'NONE', #70, #297, #233 ) ;
#246 = FACE_OUTER_BOUND ( 'NONE', #33, .T. ) ;
#247 = ORIENTED_EDGE ( 'NONE', *, *, #240, .F. ) ;
#248 = PRESENTATION_STYLE_ASSIGNMENT (( #10 ) ) ;
#249 = ORIENTED_EDGE ( 'NONE', *, *, #141, .T. ) ;
#250 = VERTEX_POINT ( 'NONE', #146 ) ;
#251 = AXIS2_PLACEMENT_3D ( 'NONE', #127, #277, #221 ) ;
#252 = DIRECTION ( 'NONE',  ( -6.123233995736763571E-17, 1.000000000000000000, -0.000000000000000000 ) ) ;
#253 = PRESENTATION_STYLE_ASSIGNMENT (( #283 ) ) ;
#254 = DIRECTION ( 'NONE',  ( -1.000000000000000000, 0.000000000000000000, 0.000000000000000000 ) ) ;
#255 = EDGE_CURVE ( 'NONE', #250, #149, #148, .T. ) ;
#256 =( GEOMETRIC_REPRESENTATION_CONTEXT ( 3 ) GLOBAL_UNCERTAINTY_ASSIGNED_CONTEXT ( ( #31 ) ) GLOBAL_UNIT_ASSIGNED_CONTEXT ( ( #234, #264, #210 ) ) REPRESENTATION_CONTEXT ( 'NONE', 'WORKASPACE' ) );
#257 = FACE_OUTER_BOUND ( 'NONE', #170, .T. ) ;
#258 = DIRECTION ( 'NONE',  ( -0.000000000000000000, -1.000000000000000000, -0.000000000000000000 ) ) ;
#259 = ADVANCED_FACE ( 'NONE', ( #246 ), #219, .F. ) ;
#260 = CARTESIAN_POINT ( 'NONE',  ( -0.1875000000000002220, 4.000000000000000000, 0.000000000000000000 ) ) ;
#261 = PRESENTATION_STYLE_ASSIGNMENT (( #71 ) ) ;
#262 = STYLED_ITEM ( 'NONE', ( #69 ), #266 ) ;
#263 =( NAMED_UNIT ( * ) SI_UNIT ( $, .STERADIAN. ) SOLID_ANGLE_UNIT ( ) );
#264 =( NAMED_UNIT ( * ) PLANE_ANGLE_UNIT ( ) SI_UNIT ( $, .RADIAN. ) );
#265 = CYLINDRICAL_SURFACE ( 'NONE', #238, 0.1875000000000000833 ) ;
#266 = ADVANCED_FACE ( 'NONE', ( #257 ), #207, .T. ) ;
#267 = PRODUCT_DEFINITION_SHAPE ( 'NONE', 'NONE',  #176 ) ;
#268 = COLOUR_RGB ( '',0.7921568627450980005, 0.8196078431372548767, 0.9333333333333333481 ) ;
#269 = SURFACE_SIDE_STYLE ('',( #144 ) ) ;
#270 = CARTESIAN_POINT ( 'NONE',  ( 0.1874999999999999445, 4.000000000000000000, 2.296212748401288342E-17 ) ) ;
#271 = ORIENTED_EDGE ( 'NONE', *, *, #67, .T. ) ;
#272 = VERTEX_POINT ( 'NONE', #281 ) ;
#273 = DIRECTION ( 'NONE',  ( -1.000000000000000000, 0.000000000000000000, 0.000000000000000000 ) ) ;
#274 = AXIS2_PLACEMENT_3D ( 'NONE', #116, #138, #46 ) ;
#275 = ORIENTED_EDGE ( 'NONE', *, *, #306, .F. ) ;
#276 = VERTEX_POINT ( 'NONE', #65 ) ;
#277 = DIRECTION ( 'NONE',  ( -6.123233995736763571E-17, 1.000000000000000000, -0.000000000000000000 ) ) ;
#278 = CARTESIAN_POINT ( 'NONE',  ( 0.000000000000000000, 2.000000000000000000, 0.000000000000000000 ) ) ;
#279 = STYLED_ITEM ( 'NONE', ( #159 ), #139 ) ;
#280 = CARTESIAN_POINT ( 'NONE',  ( -0.1875000000000000278, 2.000000000000000000, 0.000000000000000000 ) ) ;
#281 = CARTESIAN_POINT ( 'NONE',  ( 2.296212748401287726E-17, 2.000000000000000000, 0.1875000000000000278 ) ) ;
#282 =( GEOMETRIC_REPRESENTATION_CONTEXT ( 3 ) GLOBAL_UNCERTAINTY_ASSIGNED_CONTEXT ( ( #88 ) ) GLOBAL_UNIT_ASSIGNED_CONTEXT ( ( #206, #232, #205 ) ) REPRESENTATION_CONTEXT ( 'NONE', 'WORKASPACE' ) );
#283 = SURFACE_STYLE_USAGE ( .BOTH. , #85 ) ;
#284 = CARTESIAN_POINT ( 'NONE',  ( 0.1875000000000000278, 4.000000000000000000, 2.296212748401288650E-17 ) ) ;
#285 = SURFACE_SIDE_STYLE ('',( #118 ) ) ;
#286 = AXIS2_PLACEMENT_3D ( 'NONE', #223, #13, #145 ) ;
#287 = DIRECTION ( 'NONE',  ( 0.000000000000000000, -0.000000000000000000, 1.000000000000000000 ) ) ;
#288 = STYLED_ITEM ( 'NONE', ( #248 ), #242 ) ;
#289 = AXIS2_PLACEMENT_3D ( 'NONE', #91, #132, #42 ) ;
#290 = ADVANCED_FACE ( 'NONE', ( #299 ), #226, .T. ) ;
#291 = CARTESIAN_POINT ( 'NONE',  ( 0.000000000000000000, 2.000000000000000000, -0.1875000000000000278 ) ) ;
#292 = ORIENTED_EDGE ( 'NONE', *, *, #306, .T. ) ;
#293 = SURFACE_STYLE_FILL_AREA ( #15 ) ;
#294 = UNCERTAINTY_MEASURE_WITH_UNIT (LENGTH_MEASURE( 1.000000000000000082E-05 ), #191, 'distance_accuracy_value', 'NONE');
#295 = CARTESIAN_POINT ( 'NONE',  ( 1.516480271171051896E-32, 2.000000000000000000, 0.000000000000000000 ) ) ;
#296 = AXIS2_PLACEMENT_3D ( 'NONE', #241, #24, #212 ) ;
#297 = DIRECTION ( 'NONE',  ( -0.000000000000000000, -1.000000000000000000, -0.000000000000000000 ) ) ;
#298 = DIRECTION ( 'NONE',  ( -6.123233995736763571E-17, 1.000000000000000000, 0.000000000000000000 ) ) ;
#299 = FACE_OUTER_BOUND ( 'NONE', #108, .T. ) ;
#300 = AXIS2_PLACEMENT_3D ( 'NONE', #278, #258, #90 ) ;
#301 = MECHANICAL_DESIGN_GEOMETRIC_PRESENTATION_REPRESENTATION (  '', ( #82 ), #308 ) ;
#302 =( LENGTH_UNIT ( ) NAMED_UNIT ( * ) SI_UNIT ( $, .METRE. ) );
#303 =( LENGTH_UNIT ( ) NAMED_UNIT ( * ) SI_UNIT ( $, .METRE. ) );
#304 = APPLICATION_PROTOCOL_DEFINITION ( 'draft international standard', 'automotive_design', 1998, #155 ) ;
#305 = FACE_OUTER_BOUND ( 'NONE', #193, .T. ) ;
#306 = EDGE_CURVE ( 'NONE', #149, #220, #230, .T. ) ;
#307 = CIRCLE ( 'NONE', #300, 0.1875000000000000278 ) ;
#308 =( GEOMETRIC_REPRESENTATION_CONTEXT ( 3 ) GLOBAL_UNCERTAINTY_ASSIGNED_CONTEXT ( ( #105 ) ) GLOBAL_UNIT_ASSIGNED_CONTEXT ( ( #107, #134, #109 ) ) REPRESENTATION_CONTEXT ( 'NONE', 'WORKASPACE' ) );
#309 = CARTESIAN_POINT ( 'NONE',  ( 0.000000000000000000, 2.000000000000000000, 0.000000000000000000 ) ) ;
ENDSEC;
END-ISO-10303-21;
