ISO-10303-21;
HEADER;
FILE_DESCRIPTION (( 'STEP AP214' ),
    '1' );
FILE_NAME ('Micro_BEM-250-03.STEP',
    '2021-09-03T13:08:37',
    ( '' ),
    ( '' ),
    'SwSTEP 2.0',
    'SolidWorks 2020',
    '' );
FILE_SCHEMA (( 'AUTOMOTIVE_DESIGN' ));
ENDSEC;

DATA;
#1 = AXIS2_PLACEMENT_3D ( 'NONE', #146, #280, #304 ) ;
#2 = CARTESIAN_POINT ( 'NONE',  ( 0.1248749999999999999, 1.529277690435257475E-17, -1.529277690435257475E-17 ) ) ;
#3 = DIRECTION ( 'NONE',  ( -1.000000000000000000, 0.0000000000000000000, 0.0000000000000000000 ) ) ;
#4 = FACE_OUTER_BOUND ( 'NONE', #309, .T. ) ;
#5 = COLOUR_RGB ( '',0.7921568627450980005, 0.8196078431372548767, 0.9333333333333333481 ) ;
#6 = CIRCLE ( 'NONE', #122, 0.1100000000000001948 ) ;
#7 =( LENGTH_UNIT ( ) NAMED_UNIT ( * ) SI_UNIT ( $, .METRE. ) );
#8 = ORIENTED_EDGE ( 'NONE', *, *, #215, .T. ) ;
#9 = EDGE_CURVE ( 'NONE', #290, #130, #11, .T. ) ;
#10 = ORIENTED_EDGE ( 'NONE', *, *, #308, .T. ) ;
#11 = CIRCLE ( 'NONE', #147, 0.1250000000000000000 ) ;
#12 = EDGE_LOOP ( 'NONE', ( #234, #34 ) ) ;
#13 = LENGTH_MEASURE_WITH_UNIT ( LENGTH_MEASURE( 0.02539999999999999897 ), #210 );
#14 = VECTOR ( 'NONE', #30, 39.37007874015748143 ) ;
#15 = ORIENTED_EDGE ( 'NONE', *, *, #51, .F. ) ;
#16 = CARTESIAN_POINT ( 'NONE',  ( 0.1100000000000001948, 1.438959988998141146E-17, 2.500000000000000000 ) ) ;
#17 = DIRECTION ( 'NONE',  ( 1.000000000000000000, 0.0000000000000000000, 0.0000000000000000000 ) ) ;
#18 = CARTESIAN_POINT ( 'NONE',  ( 0.0000000000000000000, 0.0000000000000000000, 2.500000000000000000 ) ) ;
#19 = CIRCLE ( 'NONE', #232, 0.1248749999999999999 ) ;
#20 = CARTESIAN_POINT ( 'NONE',  ( 0.0000000000000000000, 0.0000000000000000000, 2.500000000000000000 ) ) ;
#21 = PRODUCT_CONTEXT ( 'NONE', #191, 'mechanical' ) ;
#22 = DIRECTION ( 'NONE',  ( -1.000000000000000000, 0.0000000000000000000, 0.0000000000000000000 ) ) ;
#23 = CIRCLE ( 'NONE', #33, 0.1248749999999999999 ) ;
#24 = MANIFOLD_SOLID_BREP ( 'Fillet1', #140 ) ;
#25 = CARTESIAN_POINT ( 'NONE',  ( 9.184850993605150903E-17, 0.0000000000000000000, 0.7500000000000001110 ) ) ;
#26 = DIRECTION ( 'NONE',  ( 1.000000000000000000, 0.0000000000000000000, 0.0000000000000000000 ) ) ;
#27 = CARTESIAN_POINT ( 'NONE',  ( 0.0000000000000000000, 0.0000000000000000000, 0.0000000000000000000 ) ) ;
#28 = AXIS2_PLACEMENT_3D ( 'NONE', #101, #301, #26 ) ;
#29 = EDGE_CURVE ( 'NONE', #289, #233, #310, .T. ) ;
#30 = DIRECTION ( 'NONE',  ( -0.7071067811865499042, 0.0000000000000000000, -0.7071067811865451302 ) ) ;
#31 = DIRECTION ( 'NONE',  ( -0.0000000000000000000, -0.0000000000000000000, -1.000000000000000000 ) ) ;
#32 = PRESENTATION_STYLE_ASSIGNMENT (( #151 ) ) ;
#33 = AXIS2_PLACEMENT_3D ( 'NONE', #88, #263, #206 ) ;
#34 = ORIENTED_EDGE ( 'NONE', *, *, #161, .T. ) ;
#35 = FILL_AREA_STYLE_COLOUR ( '', #75 ) ;
#36 = EDGE_LOOP ( 'NONE', ( #87, #60, #8, #213 ) ) ;
#37 = CARTESIAN_POINT ( 'NONE',  ( 2.293916535652885904E-17, 0.0000000000000000000, 0.0000000000000000000 ) ) ;
#38 = ORIENTED_EDGE ( 'NONE', *, *, #29, .T. ) ;
#39 = CARTESIAN_POINT ( 'NONE',  ( 0.0000000000000000000, 0.0000000000000000000, 2.485000000000000320 ) ) ;
#40 = AXIS2_PLACEMENT_3D ( 'NONE', #241, #48, #92 ) ;
#41 = ORIENTED_EDGE ( 'NONE', *, *, #215, .F. ) ;
#42 = VERTEX_POINT ( 'NONE', #274 ) ;
#43 = CARTESIAN_POINT ( 'NONE',  ( 0.0000000000000000000, 0.0000000000000000000, 2.500000000000000000 ) ) ;
#44 = PRESENTATION_LAYER_ASSIGNMENT (  '', '', ( #226 ) ) ;
#45 = LINE ( 'NONE', #219, #203 ) ;
#46 = STYLED_ITEM ( 'NONE', ( #32 ), #137 ) ;
#47 = PRODUCT_DEFINITION ( 'UNKNOWN', '', #291, #168 ) ;
#48 = DIRECTION ( 'NONE',  ( -1.224646799147353207E-16, -0.0000000000000000000, -1.000000000000000000 ) ) ;
#49 = DIRECTION ( 'NONE',  ( -1.000000000000000000, 1.224646799147353454E-16, 0.0000000000000000000 ) ) ;
#50 = CARTESIAN_POINT ( 'NONE',  ( 0.0000000000000000000, 0.0000000000000000000, 2.500000000000000000 ) ) ;
#51 = EDGE_CURVE ( 'NONE', #286, #42, #61, .T. ) ;
#52 = CIRCLE ( 'NONE', #231, 0.1248749999999999999 ) ;
#53 = AXIS2_PLACEMENT_3D ( 'NONE', #251, #97, #3 ) ;
#54 = DIRECTION ( 'NONE',  ( -0.0000000000000000000, -0.0000000000000000000, -1.000000000000000000 ) ) ;
#55 = DIRECTION ( 'NONE',  ( -1.224646799147353207E-16, -0.0000000000000000000, -1.000000000000000000 ) ) ;
#56 = ADVANCED_FACE ( 'NONE', ( #222 ), #272, .T. ) ;
#57 = FACE_OUTER_BOUND ( 'NONE', #104, .T. ) ;
#58 = DIRECTION ( 'NONE',  ( -1.000000000000000000, 0.0000000000000000000, 1.224646799147353454E-16 ) ) ;
#59 = SURFACE_STYLE_FILL_AREA ( #157 ) ;
#60 = ORIENTED_EDGE ( 'NONE', *, *, #281, .T. ) ;
#61 = CIRCLE ( 'NONE', #158, 0.1248749999999999999 ) ;
#62 = AXIS2_PLACEMENT_3D ( 'NONE', #25, #176, #279 ) ;
#63 = ORIENTED_EDGE ( 'NONE', *, *, #100, .T. ) ;
#64 = DIRECTION ( 'NONE',  ( 0.0000000000000000000, 0.0000000000000000000, -1.000000000000000000 ) ) ;
#65 = ORIENTED_EDGE ( 'NONE', *, *, #256, .F. ) ;
#66 = CONICAL_SURFACE ( 'NONE', #198, 0.1100000000000001948, 0.7853981633974517207 ) ;
#67 = VERTEX_POINT ( 'NONE', #268 ) ;
#68 = FACE_OUTER_BOUND ( 'NONE', #12, .T. ) ;
#69 = EDGE_CURVE ( 'NONE', #284, #130, #193, .T. ) ;
#70 = DIRECTION ( 'NONE',  ( 1.000000000000000000, 0.0000000000000000000, -0.0000000000000000000 ) ) ;
#71 = DIRECTION ( 'NONE',  ( -0.0000000000000000000, -0.0000000000000000000, -1.000000000000000000 ) ) ;
#72 = AXIS2_PLACEMENT_3D ( 'NONE', #212, #204, #86 ) ;
#73 = DIRECTION ( 'NONE',  ( 1.224646799147353207E-16, 0.0000000000000000000, 1.000000000000000000 ) ) ;
#74 = DIRECTION ( 'NONE',  ( 1.224646799147353207E-16, 0.0000000000000000000, 1.000000000000000000 ) ) ;
#75 = COLOUR_RGB ( '',0.7921568627450980005, 0.8196078431372548767, 0.9333333333333333481 ) ;
#76 = CARTESIAN_POINT ( 'NONE',  ( -0.1248749999999999860, 0.0000000000000000000, 0.1248750000000000276 ) ) ;
#77 = CARTESIAN_POINT ( 'NONE',  ( -0.1100000000000001948, 0.0000000000000000000, 2.500000000000000000 ) ) ;
#78 = FACE_OUTER_BOUND ( 'NONE', #36, .T. ) ;
#79 = AXIS2_PLACEMENT_3D ( 'NONE', #298, #74, #172 ) ;
#80 = CARTESIAN_POINT ( 'NONE',  ( 0.0000000000000000000, 0.0000000000000000000, 2.500000000000000000 ) ) ;
#81 = ORIENTED_EDGE ( 'NONE', *, *, #155, .T. ) ;
#82 = ORIENTED_EDGE ( 'NONE', *, *, #223, .F. ) ;
#83 = CIRCLE ( 'NONE', #40, 0.1250000000000000000 ) ;
#84 = ORIENTED_EDGE ( 'NONE', *, *, #155, .F. ) ;
#85 = ADVANCED_FACE ( 'NONE', ( #68 ), #292, .T. ) ;
#86 = DIRECTION ( 'NONE',  ( 1.000000000000000000, 0.0000000000000000000, 0.0000000000000000000 ) ) ;
#87 = ORIENTED_EDGE ( 'NONE', *, *, #218, .T. ) ;
#88 = CARTESIAN_POINT ( 'NONE',  ( 1.529277690435257475E-17, 0.0000000000000000000, 0.1248749999999999999 ) ) ;
#89 = EDGE_LOOP ( 'NONE', ( #288, #136, #264, #84 ) ) ;
#90 = AXIS2_PLACEMENT_3D ( 'NONE', #208, #180, #287 ) ;
#91 = CARTESIAN_POINT ( 'NONE',  ( 1.529277690435257475E-17, 0.0000000000000000000, 0.1248749999999999999 ) ) ;
#92 = DIRECTION ( 'NONE',  ( 1.000000000000000000, 0.0000000000000000000, 0.0000000000000000000 ) ) ;
#93 = FACE_OUTER_BOUND ( 'NONE', #314, .T. ) ;
#94 =( CONVERSION_BASED_UNIT ( 'INCH', #139 ) LENGTH_UNIT ( ) NAMED_UNIT ( #278 ) );
#95 =( NAMED_UNIT ( * ) PLANE_ANGLE_UNIT ( ) SI_UNIT ( $, .RADIAN. ) );
#96 = LINE ( 'NONE', #197, #133 ) ;
#97 = DIRECTION ( 'NONE',  ( -1.224646799147353207E-16, -0.0000000000000000000, -1.000000000000000000 ) ) ;
#98 = AXIS2_PLACEMENT_3D ( 'NONE', #120, #55, #58 ) ;
#99 = CARTESIAN_POINT ( 'NONE',  ( -0.1249999999999999167, 0.0000000000000000000, 0.7507089102274522308 ) ) ;
#100 = EDGE_CURVE ( 'NONE', #233, #239, #52, .T. ) ;
#101 = CARTESIAN_POINT ( 'NONE',  ( 1.529277690435257475E-17, 0.0000000000000000000, 0.1248749999999999999 ) ) ;
#102 = DIRECTION ( 'NONE',  ( -0.0000000000000000000, -0.0000000000000000000, -1.000000000000000000 ) ) ;
#103 = EDGE_CURVE ( 'NONE', #42, #233, #45, .T. ) ;
#104 = EDGE_LOOP ( 'NONE', ( #262, #106, #306, #153 ) ) ;
#105 =( NAMED_UNIT ( * ) SI_UNIT ( $, .STERADIAN. ) SOLID_ANGLE_UNIT ( ) );
#106 = ORIENTED_EDGE ( 'NONE', *, *, #223, .T. ) ;
#107 = EDGE_CURVE ( 'NONE', #162, #284, #6, .T. ) ;
#108 = EDGE_LOOP ( 'NONE', ( #205, #156, #184, #63 ) ) ;
#109 = AXIS2_PLACEMENT_3D ( 'NONE', #91, #167, #49 ) ;
#110 = CARTESIAN_POINT ( 'NONE',  ( -0.1250000000000000000, 0.0000000000000000000, 2.485000000000000320 ) ) ;
#111 = ORIENTED_EDGE ( 'NONE', *, *, #302, .T. ) ;
#112 = ORIENTED_EDGE ( 'NONE', *, *, #69, .F. ) ;
#113 = DIRECTION ( 'NONE',  ( 1.000000000000000000, 0.0000000000000000000, 0.0000000000000000000 ) ) ;
#114 = SURFACE_STYLE_USAGE ( .BOTH. , #319 ) ;
#115 = PRESENTATION_STYLE_ASSIGNMENT (( #114 ) ) ;
#116 = EDGE_CURVE ( 'NONE', #186, #67, #83, .T. ) ;
#117 = PRODUCT_DEFINITION_SHAPE ( 'NONE', 'NONE',  #47 ) ;
#118 = DIRECTION ( 'NONE',  ( 1.000000000000000000, 0.0000000000000000000, 0.0000000000000000000 ) ) ;
#119 = UNCERTAINTY_MEASURE_WITH_UNIT (LENGTH_MEASURE( 1.000000000000000082E-05 ), #178, 'distance_accuracy_value', 'NONE');
#120 = CARTESIAN_POINT ( 'NONE',  ( 0.0000000000000000000, 0.0000000000000000000, 0.0000000000000000000 ) ) ;
#121 = DIMENSIONAL_EXPONENTS ( 1.000000000000000000, 0.0000000000000000000, 0.0000000000000000000, 0.0000000000000000000, 0.0000000000000000000, 0.0000000000000000000, 0.0000000000000000000 ) ;
#122 = AXIS2_PLACEMENT_3D ( 'NONE', #43, #320, #138 ) ;
#123 = CARTESIAN_POINT ( 'NONE',  ( 0.1248750000000000970, 0.0000000000000000000, 0.7500000000000001110 ) ) ;
#124 = LINE ( 'NONE', #229, #322 ) ;
#125 = APPLICATION_CONTEXT ( 'automotive_design' ) ;
#126 = ADVANCED_FACE ( 'NONE', ( #93 ), #66, .T. ) ;
#127 = CIRCLE ( 'NONE', #243, 0.1100000000000001948 ) ;
#128 = ORIENTED_EDGE ( 'NONE', *, *, #116, .F. ) ;
#129 =( NAMED_UNIT ( * ) PLANE_ANGLE_UNIT ( ) SI_UNIT ( $, .RADIAN. ) );
#130 = VERTEX_POINT ( 'NONE', #190 ) ;
#131 =( NAMED_UNIT ( * ) PLANE_ANGLE_UNIT ( ) SI_UNIT ( $, .RADIAN. ) );
#132 = ORIENTED_EDGE ( 'NONE', *, *, #29, .F. ) ;
#133 = VECTOR ( 'NONE', #299, 39.37007874015748143 ) ;
#134 =( CONVERSION_BASED_UNIT ( 'INCH', #13 ) LENGTH_UNIT ( ) NAMED_UNIT ( #142 ) );
#135 = EDGE_LOOP ( 'NONE', ( #82, #15, #258, #220 ) ) ;
#136 = ORIENTED_EDGE ( 'NONE', *, *, #69, .T. ) ;
#137 = ADVANCED_BREP_SHAPE_REPRESENTATION ( 'Micro_BEM-250-03', ( #24, #159 ), #214 ) ;
#138 = DIRECTION ( 'NONE',  ( 1.000000000000000000, 0.0000000000000000000, 0.0000000000000000000 ) ) ;
#139 = LENGTH_MEASURE_WITH_UNIT ( LENGTH_MEASURE( 0.02539999999999999897 ), #141 );
#140 = CLOSED_SHELL ( 'NONE', ( #316, #235, #149, #152, #56, #261, #85, #126, #267, #276, #230 ) ) ;
#141 =( LENGTH_UNIT ( ) NAMED_UNIT ( * ) SI_UNIT ( $, .METRE. ) );
#142 = DIMENSIONAL_EXPONENTS ( 1.000000000000000000, 0.0000000000000000000, 0.0000000000000000000, 0.0000000000000000000, 0.0000000000000000000, 0.0000000000000000000, 0.0000000000000000000 ) ;
#143 = FACE_OUTER_BOUND ( 'NONE', #188, .T. ) ;
#144 = CYLINDRICAL_SURFACE ( 'NONE', #173, 0.1248749999999999999 ) ;
#145 = FACE_OUTER_BOUND ( 'NONE', #108, .T. ) ;
#146 = CARTESIAN_POINT ( 'NONE',  ( 0.0000000000000000000, 0.0000000000000000000, 2.500000000000000000 ) ) ;
#147 = AXIS2_PLACEMENT_3D ( 'NONE', #273, #192, #17 ) ;
#148 = CONICAL_SURFACE ( 'NONE', #62, 0.1248749999999999999, 0.1745329251994340025 ) ;
#149 = ADVANCED_FACE ( 'NONE', ( #57 ), #148, .T. ) ;
#150 = CARTESIAN_POINT ( 'NONE',  ( 0.1248750000000000276, 1.529277690435257475E-17, 0.1248749999999999860 ) ) ;
#151 = SURFACE_STYLE_USAGE ( .BOTH. , #238 ) ;
#152 = ADVANCED_FACE ( 'NONE', ( #200 ), #311, .T. ) ;
#153 = ORIENTED_EDGE ( 'NONE', *, *, #194, .F. ) ;
#154 = ORIENTED_EDGE ( 'NONE', *, *, #9, .T. ) ;
#155 = EDGE_CURVE ( 'NONE', #162, #290, #254, .T. ) ;
#156 = ORIENTED_EDGE ( 'NONE', *, *, #51, .T. ) ;
#157 = FILL_AREA_STYLE ('',( #35 ) ) ;
#158 = AXIS2_PLACEMENT_3D ( 'NONE', #189, #245, #22 ) ;
#159 = AXIS2_PLACEMENT_3D ( 'NONE', #160, #317, #113 ) ;
#160 = CARTESIAN_POINT ( 'NONE',  ( 0.0000000000000000000, 0.0000000000000000000, 0.0000000000000000000 ) ) ;
#161 = EDGE_CURVE ( 'NONE', #284, #162, #127, .T. ) ;
#162 = VERTEX_POINT ( 'NONE', #77 ) ;
#163 = APPLICATION_PROTOCOL_DEFINITION ( 'draft international standard', 'automotive_design', 1998, #125 ) ;
#164 = DIRECTION ( 'NONE',  ( -1.000000000000000000, 0.0000000000000000000, 1.367291288120251888E-16 ) ) ;
#165 = CARTESIAN_POINT ( 'NONE',  ( 1.529277690435257475E-17, 0.0000000000000000000, 0.1248749999999999999 ) ) ;
#166 = VECTOR ( 'NONE', #224, 39.37007874015748143 ) ;
#167 = DIRECTION ( 'NONE',  ( 1.224646799147353207E-16, 1.000000000000000000, -0.0000000000000000000 ) ) ;
#168 = PRODUCT_DEFINITION_CONTEXT ( 'detailed design', #125, 'design' ) ;
#169 = SURFACE_STYLE_FILL_AREA ( #240 ) ;
#170 = DIRECTION ( 'NONE',  ( -1.224646799147353207E-16, -0.0000000000000000000, -1.000000000000000000 ) ) ;
#171 = PRODUCT ( 'Micro_BEM-250-03', 'Micro_BEM-250-03', '', ( #21 ) ) ;
#172 = DIRECTION ( 'NONE',  ( 1.000000000000000000, 0.0000000000000000000, 0.0000000000000000000 ) ) ;
#173 = AXIS2_PLACEMENT_3D ( 'NONE', #27, #300, #325 ) ;
#174 = CARTESIAN_POINT ( 'NONE',  ( 0.1250000000000000000, 1.530808498934191509E-17, 2.500000000000000000 ) ) ;
#175 = DIRECTION ( 'NONE',  ( 0.0000000000000000000, 0.0000000000000000000, 1.000000000000000000 ) ) ;
#176 = DIRECTION ( 'NONE',  ( 1.224646799147353207E-16, 0.0000000000000000000, 1.000000000000000000 ) ) ;
#177 = DIRECTION ( 'NONE',  ( -1.000000000000000000, 0.0000000000000000000, 1.367291288120251888E-16 ) ) ;
#178 =( CONVERSION_BASED_UNIT ( 'INCH', #305 ) LENGTH_UNIT ( ) NAMED_UNIT ( #121 ) );
#179 = EDGE_LOOP ( 'NONE', ( #154, #209, #128, #65 ) ) ;
#180 = DIRECTION ( 'NONE',  ( -1.224646799147353207E-16, -0.0000000000000000000, -1.000000000000000000 ) ) ;
#181 = ORIENTED_EDGE ( 'NONE', *, *, #295, .F. ) ;
#182 = VECTOR ( 'NONE', #31, 39.37007874015748143 ) ;
#183 = CARTESIAN_POINT ( 'NONE',  ( 0.1248750000000000970, 0.0000000000000000000, 0.7500000000000001110 ) ) ;
#184 = ORIENTED_EDGE ( 'NONE', *, *, #103, .T. ) ;
#185 = SPHERICAL_SURFACE ( 'NONE', #72, 0.1248749999999999999 ) ;
#186 = VERTEX_POINT ( 'NONE', #99 ) ;
#187 = FACE_OUTER_BOUND ( 'NONE', #207, .T. ) ;
#188 = EDGE_LOOP ( 'NONE', ( #132, #111, #236 ) ) ;
#189 = CARTESIAN_POINT ( 'NONE',  ( 9.184850993605150903E-17, 0.0000000000000000000, 0.7500000000000001110 ) ) ;
#190 = CARTESIAN_POINT ( 'NONE',  ( 0.1250000000000000000, 1.530808498934191509E-17, 2.485000000000000320 ) ) ;
#191 = APPLICATION_CONTEXT ( 'automotive_design' ) ;
#192 = DIRECTION ( 'NONE',  ( 0.0000000000000000000, 0.0000000000000000000, -1.000000000000000000 ) ) ;
#193 = LINE ( 'NONE', #297, #242 ) ;
#194 = EDGE_CURVE ( 'NONE', #286, #67, #252, .T. ) ;
#195 = CYLINDRICAL_SURFACE ( 'NONE', #98, 0.1248749999999999999 ) ;
#196 = MECHANICAL_DESIGN_GEOMETRIC_PRESENTATION_REPRESENTATION (  '', ( #226 ), #237 ) ;
#197 = CARTESIAN_POINT ( 'NONE',  ( -0.1248749999999999166, 1.529277690435257475E-17, 0.7500000000000001110 ) ) ;
#198 = AXIS2_PLACEMENT_3D ( 'NONE', #18, #216, #294 ) ;
#199 = DIRECTION ( 'NONE',  ( -1.224646799147353207E-16, -0.0000000000000000000, -1.000000000000000000 ) ) ;
#200 = FACE_OUTER_BOUND ( 'NONE', #89, .T. ) ;
#201 = DIRECTION ( 'NONE',  ( -1.000000000000000000, 0.0000000000000000000, 0.0000000000000000000 ) ) ;
#202 = AXIS2_PLACEMENT_3D ( 'NONE', #20, #244, #70 ) ;
#203 = VECTOR ( 'NONE', #170, 39.37007874015748143 ) ;
#204 = DIRECTION ( 'NONE',  ( 0.0000000000000000000, 1.000000000000000000, 0.0000000000000000000 ) ) ;
#205 = ORIENTED_EDGE ( 'NONE', *, *, #281, .F. ) ;
#206 = DIRECTION ( 'NONE',  ( 0.0000000000000000000, 0.0000000000000000000, -1.000000000000000000 ) ) ;
#207 = EDGE_LOOP ( 'NONE', ( #313, #38, #41 ) ) ;
#208 = CARTESIAN_POINT ( 'NONE',  ( 9.193532640014472135E-17, 0.0000000000000000000, 0.7507089102274522308 ) ) ;
#209 = ORIENTED_EDGE ( 'NONE', *, *, #246, .T. ) ;
#210 =( LENGTH_UNIT ( ) NAMED_UNIT ( * ) SI_UNIT ( $, .METRE. ) );
#211 = ORIENTED_EDGE ( 'NONE', *, *, #107, .F. ) ;
#212 = CARTESIAN_POINT ( 'NONE',  ( 1.529277690435257475E-17, 0.0000000000000000000, 0.1248749999999999999 ) ) ;
#213 = ORIENTED_EDGE ( 'NONE', *, *, #103, .F. ) ;
#214 =( GEOMETRIC_REPRESENTATION_CONTEXT ( 3 ) GLOBAL_UNCERTAINTY_ASSIGNED_CONTEXT ( ( #315 ) ) GLOBAL_UNIT_ASSIGNED_CONTEXT ( ( #134, #131, #283 ) ) REPRESENTATION_CONTEXT ( 'NONE', 'WORKASPACE' ) );
#215 = EDGE_CURVE ( 'NONE', #239, #233, #19, .T. ) ;
#216 = DIRECTION ( 'NONE',  ( 0.0000000000000000000, 0.0000000000000000000, -1.000000000000000000 ) ) ;
#217 = SHAPE_DEFINITION_REPRESENTATION ( #117, #137 ) ;
#218 = EDGE_CURVE ( 'NONE', #42, #286, #265, .T. ) ;
#219 = CARTESIAN_POINT ( 'NONE',  ( -0.1248749999999999999, 0.0000000000000000000, 1.529277690435257475E-17 ) ) ;
#220 = ORIENTED_EDGE ( 'NONE', *, *, #295, .T. ) ;
#221 = CIRCLE ( 'NONE', #270, 0.1250000000000000000 ) ;
#222 = FACE_OUTER_BOUND ( 'NONE', #179, .T. ) ;
#223 = EDGE_CURVE ( 'NONE', #42, #186, #96, .T. ) ;
#224 = DIRECTION ( 'NONE',  ( 0.1736481776669314969, 0.0000000000000000000, 0.9848077530122077983 ) ) ;
#225 = CYLINDRICAL_SURFACE ( 'NONE', #318, 0.1250000000000000000 ) ;
#226 = STYLED_ITEM ( 'NONE', ( #115 ), #24 ) ;
#227 = LINE ( 'NONE', #2, #253 ) ;
#228 = CARTESIAN_POINT ( 'NONE',  ( -0.1100000000000001948, 0.0000000000000000000, 2.500000000000000000 ) ) ;
#229 = CARTESIAN_POINT ( 'NONE',  ( -0.1250000000000000000, 0.0000000000000000000, 2.500000000000000000 ) ) ;
#230 = ADVANCED_FACE ( 'NONE', ( #143 ), #282, .T. ) ;
#231 = AXIS2_PLACEMENT_3D ( 'NONE', #165, #73, #164 ) ;
#232 = AXIS2_PLACEMENT_3D ( 'NONE', #324, #275, #177 ) ;
#233 = VERTEX_POINT ( 'NONE', #76 ) ;
#234 = ORIENTED_EDGE ( 'NONE', *, *, #107, .T. ) ;
#235 = ADVANCED_FACE ( 'NONE', ( #78 ), #195, .T. ) ;
#236 = ORIENTED_EDGE ( 'NONE', *, *, #100, .F. ) ;
#237 =( GEOMETRIC_REPRESENTATION_CONTEXT ( 3 ) GLOBAL_UNCERTAINTY_ASSIGNED_CONTEXT ( ( #250 ) ) GLOBAL_UNIT_ASSIGNED_CONTEXT ( ( #94, #95, #293 ) ) REPRESENTATION_CONTEXT ( 'NONE', 'WORKASPACE' ) );
#238 = SURFACE_SIDE_STYLE ('',( #59 ) ) ;
#239 = VERTEX_POINT ( 'NONE', #150 ) ;
#240 = FILL_AREA_STYLE ('',( #296 ) ) ;
#241 = CARTESIAN_POINT ( 'NONE',  ( 9.193532640014472135E-17, 0.0000000000000000000, 0.7507089102274522308 ) ) ;
#242 = VECTOR ( 'NONE', #269, 39.37007874015748143 ) ;
#243 = AXIS2_PLACEMENT_3D ( 'NONE', #80, #175, #118 ) ;
#244 = DIRECTION ( 'NONE',  ( 0.0000000000000000000, 0.0000000000000000000, 1.000000000000000000 ) ) ;
#245 = DIRECTION ( 'NONE',  ( -1.224646799147353207E-16, -0.0000000000000000000, -1.000000000000000000 ) ) ;
#246 = EDGE_CURVE ( 'NONE', #130, #67, #255, .T. ) ;
#247 = AXIS2_PLACEMENT_3D ( 'NONE', #50, #71, #323 ) ;
#248 = CIRCLE ( 'NONE', #90, 0.1250000000000000000 ) ;
#249 = FACE_OUTER_BOUND ( 'NONE', #135, .T. ) ;
#250 = UNCERTAINTY_MEASURE_WITH_UNIT (LENGTH_MEASURE( 1.000000000000000082E-05 ), #94, 'distance_accuracy_value', 'NONE');
#251 = CARTESIAN_POINT ( 'NONE',  ( 9.184850993605150903E-17, 0.0000000000000000000, 0.7500000000000001110 ) ) ;
#252 = LINE ( 'NONE', #123, #166 ) ;
#253 = VECTOR ( 'NONE', #199, 39.37007874015748143 ) ;
#254 = LINE ( 'NONE', #228, #14 ) ;
#255 = LINE ( 'NONE', #174, #182 ) ;
#256 = EDGE_CURVE ( 'NONE', #290, #186, #124, .T. ) ;
#257 = MECHANICAL_DESIGN_GEOMETRIC_PRESENTATION_REPRESENTATION (  '', ( #46 ), #303 ) ;
#258 = ORIENTED_EDGE ( 'NONE', *, *, #194, .T. ) ;
#259 = APPLICATION_PROTOCOL_DEFINITION ( 'draft international standard', 'automotive_design', 1998, #191 ) ;
#260 = ORIENTED_EDGE ( 'NONE', *, *, #256, .T. ) ;
#261 = ADVANCED_FACE ( 'NONE', ( #4 ), #225, .T. ) ;
#262 = ORIENTED_EDGE ( 'NONE', *, *, #218, .F. ) ;
#263 = DIRECTION ( 'NONE',  ( 0.0000000000000000000, -1.000000000000000000, 0.0000000000000000000 ) ) ;
#264 = ORIENTED_EDGE ( 'NONE', *, *, #9, .F. ) ;
#265 = CIRCLE ( 'NONE', #53, 0.1248749999999999999 ) ;
#266 = ORIENTED_EDGE ( 'NONE', *, *, #308, .F. ) ;
#267 = ADVANCED_FACE ( 'NONE', ( #249 ), #285, .T. ) ;
#268 = CARTESIAN_POINT ( 'NONE',  ( 0.1250000000000000833, 1.530808498934192433E-17, 0.7507089102274522308 ) ) ;
#269 = DIRECTION ( 'NONE',  ( 0.7071067811865499042, 8.659560562354961208E-17, -0.7071067811865451302 ) ) ;
#270 = AXIS2_PLACEMENT_3D ( 'NONE', #39, #64, #307 ) ;
#271 = PRESENTATION_LAYER_ASSIGNMENT (  '', '', ( #46 ) ) ;
#272 = CYLINDRICAL_SURFACE ( 'NONE', #247, 0.1250000000000000000 ) ;
#273 = CARTESIAN_POINT ( 'NONE',  ( 0.0000000000000000000, 0.0000000000000000000, 2.485000000000000320 ) ) ;
#274 = CARTESIAN_POINT ( 'NONE',  ( -0.1248749999999999166, 1.530043094684724646E-17, 0.7500000000000001110 ) ) ;
#275 = DIRECTION ( 'NONE',  ( 1.224646799147353207E-16, 0.0000000000000000000, 1.000000000000000000 ) ) ;
#276 = ADVANCED_FACE ( 'NONE', ( #145 ), #144, .T. ) ;
#277 = CARTESIAN_POINT ( 'NONE',  ( 0.0000000000000000000, 0.0000000000000000000, 2.500000000000000000 ) ) ;
#278 = DIMENSIONAL_EXPONENTS ( 1.000000000000000000, 0.0000000000000000000, 0.0000000000000000000, 0.0000000000000000000, 0.0000000000000000000, 0.0000000000000000000, 0.0000000000000000000 ) ;
#279 = DIRECTION ( 'NONE',  ( 1.000000000000000000, 0.0000000000000000000, 0.0000000000000000000 ) ) ;
#280 = DIRECTION ( 'NONE',  ( 0.0000000000000000000, 0.0000000000000000000, -1.000000000000000000 ) ) ;
#281 = EDGE_CURVE ( 'NONE', #286, #239, #227, .T. ) ;
#282 = SPHERICAL_SURFACE ( 'NONE', #28, 0.1248749999999999999 ) ;
#283 =( NAMED_UNIT ( * ) SI_UNIT ( $, .STERADIAN. ) SOLID_ANGLE_UNIT ( ) );
#284 = VERTEX_POINT ( 'NONE', #16 ) ;
#285 = CONICAL_SURFACE ( 'NONE', #79, 0.1248749999999999999, 0.1745329251994340025 ) ;
#286 = VERTEX_POINT ( 'NONE', #183 ) ;
#287 = DIRECTION ( 'NONE',  ( 1.000000000000000000, 0.0000000000000000000, 0.0000000000000000000 ) ) ;
#288 = ORIENTED_EDGE ( 'NONE', *, *, #161, .F. ) ;
#289 = VERTEX_POINT ( 'NONE', #37 ) ;
#290 = VERTEX_POINT ( 'NONE', #110 ) ;
#291 = PRODUCT_DEFINITION_FORMATION_WITH_SPECIFIED_SOURCE ( 'ANY', '', #171, .NOT_KNOWN. ) ;
#292 = PLANE ( 'NONE',  #202 ) ;
#293 =( NAMED_UNIT ( * ) SI_UNIT ( $, .STERADIAN. ) SOLID_ANGLE_UNIT ( ) );
#294 = DIRECTION ( 'NONE',  ( -1.000000000000000000, 0.0000000000000000000, 0.0000000000000000000 ) ) ;
#295 = EDGE_CURVE ( 'NONE', #67, #186, #248, .T. ) ;
#296 = FILL_AREA_STYLE_COLOUR ( '', #5 ) ;
#297 = CARTESIAN_POINT ( 'NONE',  ( 0.1100000000000001948, 1.347111479062090784E-17, 2.500000000000000000 ) ) ;
#298 = CARTESIAN_POINT ( 'NONE',  ( 9.184850993605150903E-17, 0.0000000000000000000, 0.7500000000000001110 ) ) ;
#299 = DIRECTION ( 'NONE',  ( -0.1736481776669312749, 2.126576849575784241E-17, 0.9848077530122077983 ) ) ;
#300 = DIRECTION ( 'NONE',  ( -1.224646799147353207E-16, -0.0000000000000000000, -1.000000000000000000 ) ) ;
#301 = DIRECTION ( 'NONE',  ( 0.0000000000000000000, 1.000000000000000000, 0.0000000000000000000 ) ) ;
#302 = EDGE_CURVE ( 'NONE', #289, #239, #23, .T. ) ;
#303 =( GEOMETRIC_REPRESENTATION_CONTEXT ( 3 ) GLOBAL_UNCERTAINTY_ASSIGNED_CONTEXT ( ( #119 ) ) GLOBAL_UNIT_ASSIGNED_CONTEXT ( ( #178, #129, #105 ) ) REPRESENTATION_CONTEXT ( 'NONE', 'WORKASPACE' ) );
#304 = DIRECTION ( 'NONE',  ( -1.000000000000000000, 0.0000000000000000000, 0.0000000000000000000 ) ) ;
#305 = LENGTH_MEASURE_WITH_UNIT ( LENGTH_MEASURE( 0.02539999999999999897 ), #7 );
#306 = ORIENTED_EDGE ( 'NONE', *, *, #116, .T. ) ;
#307 = DIRECTION ( 'NONE',  ( 1.000000000000000000, 0.0000000000000000000, 0.0000000000000000000 ) ) ;
#308 = EDGE_CURVE ( 'NONE', #130, #290, #221, .T. ) ;
#309 = EDGE_LOOP ( 'NONE', ( #312, #10, #260, #181 ) ) ;
#310 = CIRCLE ( 'NONE', #109, 0.1248749999999999999 ) ;
#311 = CONICAL_SURFACE ( 'NONE', #1, 0.1100000000000001948, 0.7853981633974517207 ) ;
#312 = ORIENTED_EDGE ( 'NONE', *, *, #246, .F. ) ;
#313 = ORIENTED_EDGE ( 'NONE', *, *, #302, .F. ) ;
#314 = EDGE_LOOP ( 'NONE', ( #112, #211, #81, #266 ) ) ;
#315 = UNCERTAINTY_MEASURE_WITH_UNIT (LENGTH_MEASURE( 1.000000000000000082E-05 ), #134, 'distance_accuracy_value', 'NONE');
#316 = ADVANCED_FACE ( 'NONE', ( #187 ), #185, .T. ) ;
#317 = DIRECTION ( 'NONE',  ( 0.0000000000000000000, 0.0000000000000000000, 1.000000000000000000 ) ) ;
#318 = AXIS2_PLACEMENT_3D ( 'NONE', #277, #102, #201 ) ;
#319 = SURFACE_SIDE_STYLE ('',( #169 ) ) ;
#320 = DIRECTION ( 'NONE',  ( 0.0000000000000000000, 0.0000000000000000000, 1.000000000000000000 ) ) ;
#321 = PRODUCT_RELATED_PRODUCT_CATEGORY ( 'part', '', ( #171 ) ) ;
#322 = VECTOR ( 'NONE', #54, 39.37007874015748143 ) ;
#323 = DIRECTION ( 'NONE',  ( -1.000000000000000000, 0.0000000000000000000, 0.0000000000000000000 ) ) ;
#324 = CARTESIAN_POINT ( 'NONE',  ( 1.529277690435257475E-17, 0.0000000000000000000, 0.1248749999999999999 ) ) ;
#325 = DIRECTION ( 'NONE',  ( -1.000000000000000000, 0.0000000000000000000, 1.224646799147353454E-16 ) ) ;
ENDSEC;
END-ISO-10303-21;
