ISO-10303-21;
HEADER;
FILE_DESCRIPTION (( 'STEP AP214' ),
    '1' );
FILE_NAME ('59677.STEP',
    '2023-07-24T15:22:47',
    ( '' ),
    ( '' ),
    'SwSTEP 2.0',
    'SolidWorks 2023',
    '' );
FILE_SCHEMA (( 'AUTOMOTIVE_DESIGN' ));
ENDSEC;

DATA;
#1 = VERTEX_POINT ( 'NONE', #132 ) ;
#2 = DIRECTION ( 'NONE',  ( -0.000000000000000000, -1.000000000000000000, -0.000000000000000000 ) ) ;
#3 = DIRECTION ( 'NONE',  ( -1.279215233315390572E-16, 1.000000000000000000, -0.000000000000000000 ) ) ;
#4 =( NAMED_UNIT ( * ) PLANE_ANGLE_UNIT ( ) SI_UNIT ( $, .RADIAN. ) );
#5 = ORIENTED_EDGE ( 'NONE', *, *, #286, .T. ) ;
#6 = DIRECTION ( 'NONE',  ( -1.279215233315390572E-16, 1.000000000000000000, -0.000000000000000000 ) ) ;
#7 = PRESENTATION_LAYER_ASSIGNMENT (  '', '', ( #114 ) ) ;
#8 = TOROIDAL_SURFACE ( 'NONE', #64, 7.500000000000000000, 0.5000000000000002220 ) ;
#9 = CARTESIAN_POINT ( 'NONE',  ( 9.184850993605147944E-16, 0.5000000000000000000, 7.500000000000000000 ) ) ;
#10 = CARTESIAN_POINT ( 'NONE',  ( 9.491012693391985815E-16, 0.000000000000000000, 7.500000000000000000 ) ) ;
#11 = FILL_AREA_STYLE_COLOUR ( '', #61 ) ;
#12 = DIRECTION ( 'NONE',  ( -1.000000000000000000, 0.000000000000000000, 0.000000000000000000 ) ) ;
#13 = EDGE_LOOP ( 'NONE', ( #275, #70 ) ) ;
#14 = SURFACE_STYLE_USAGE ( .BOTH. , #106 ) ;
#15 = AXIS2_PLACEMENT_3D ( 'NONE', #74, #262, #289 ) ;
#16 = CIRCLE ( 'NONE', #370, 7.999999999999994671 ) ;
#17 = FILL_AREA_STYLE ('',( #282 ) ) ;
#18 = PLANE ( 'NONE',  #170 ) ;
#19 = CLOSED_SHELL ( 'NONE', ( #136, #110, #139, #354, #179, #337 ) ) ;
#20 =( GEOMETRIC_REPRESENTATION_CONTEXT ( 3 ) GLOBAL_UNCERTAINTY_ASSIGNED_CONTEXT ( ( #47 ) ) GLOBAL_UNIT_ASSIGNED_CONTEXT ( ( #267, #295, #54 ) ) REPRESENTATION_CONTEXT ( 'NONE', 'WORKASPACE' ) );
#21 = SHAPE_DEFINITION_REPRESENTATION ( #152, #33 ) ;
#22 =( GEOMETRIC_REPRESENTATION_CONTEXT ( 3 ) GLOBAL_UNCERTAINTY_ASSIGNED_CONTEXT ( ( #358 ) ) GLOBAL_UNIT_ASSIGNED_CONTEXT ( ( #202, #115, #85 ) ) REPRESENTATION_CONTEXT ( 'NONE', 'WORKASPACE' ) );
#23 = FILL_AREA_STYLE ('',( #198 ) ) ;
#24 = DIRECTION ( 'NONE',  ( -0.000000000000000000, -1.000000000000000000, -0.000000000000000000 ) ) ;
#25 = MANIFOLD_SOLID_BREP ( 'Revolve - Cutting Edge', #19 ) ;
#26 = PRESENTATION_STYLE_ASSIGNMENT (( #291 ) ) ;
#27 = SURFACE_SIDE_STYLE ('',( #236 ) ) ;
#28 = STYLED_ITEM ( 'NONE', ( #57 ), #136 ) ;
#29 = LINE ( 'NONE', #233, #306 ) ;
#30 = FILL_AREA_STYLE ('',( #369 ) ) ;
#31 = MECHANICAL_DESIGN_GEOMETRIC_PRESENTATION_REPRESENTATION (  '', ( #201 ), #83 ) ;
#32 = FILL_AREA_STYLE ('',( #63 ) ) ;
#33 = ADVANCED_BREP_SHAPE_REPRESENTATION ( '59677', ( #25, #155, #56 ), #281 ) ;
#34 = LINE ( 'NONE', #241, #362 ) ;
#35 = VERTEX_POINT ( 'NONE', #206 ) ;
#36 = CARTESIAN_POINT ( 'NONE',  ( -1.714505518806293652E-15, 89.00000000000000000, 0.000000000000000000 ) ) ;
#37 = SURFACE_STYLE_FILL_AREA ( #17 ) ;
#38 = MECHANICAL_DESIGN_GEOMETRIC_PRESENTATION_REPRESENTATION (  '', ( #215 ), #228 ) ;
#39 = EDGE_CURVE ( 'NONE', #1, #244, #95, .T. ) ;
#40 = FILL_AREA_STYLE ('',( #11 ) ) ;
#41 = DIRECTION ( 'NONE',  ( -0.000000000000000000, -1.000000000000000000, -0.000000000000000000 ) ) ;
#42 = ORIENTED_EDGE ( 'NONE', *, *, #341, .F. ) ;
#43 = CARTESIAN_POINT ( 'NONE',  ( 9.797174393178825657E-16, 40.00000000000000000, 8.000000000000000000 ) ) ;
#44 = CIRCLE ( 'NONE', #164, 8.000000000000001776 ) ;
#45 = FACE_OUTER_BOUND ( 'NONE', #246, .T. ) ;
#46 = DIRECTION ( 'NONE',  ( -0.000000000000000000, -1.000000000000000000, -0.000000000000000000 ) ) ;
#47 = UNCERTAINTY_MEASURE_WITH_UNIT (LENGTH_MEASURE( 1.000000000000000082E-05 ), #267, 'distance_accuracy_value', 'NONE');
#48 =( NAMED_UNIT ( * ) PLANE_ANGLE_UNIT ( ) SI_UNIT ( $, .RADIAN. ) );
#49 = CLOSED_SHELL ( 'NONE', ( #71, #146, #365, #79 ) ) ;
#50 =( GEOMETRIC_REPRESENTATION_CONTEXT ( 3 ) GLOBAL_UNCERTAINTY_ASSIGNED_CONTEXT ( ( #259 ) ) GLOBAL_UNIT_ASSIGNED_CONTEXT ( ( #240, #4, #94 ) ) REPRESENTATION_CONTEXT ( 'NONE', 'WORKASPACE' ) );
#51 = CIRCLE ( 'NONE', #172, 8.000000000000000000 ) ;
#52 =( NAMED_UNIT ( * ) SI_UNIT ( $, .STERADIAN. ) SOLID_ANGLE_UNIT ( ) );
#53 = ORIENTED_EDGE ( 'NONE', *, *, #292, .T. ) ;
#54 =( NAMED_UNIT ( * ) SI_UNIT ( $, .STERADIAN. ) SOLID_ANGLE_UNIT ( ) );
#55 = COLOUR_RGB ( '',1.000000000000000000, 0.000000000000000000, 0.000000000000000000 ) ;
#56 = AXIS2_PLACEMENT_3D ( 'NONE', #255, #226, #166 ) ;
#57 = PRESENTATION_STYLE_ASSIGNMENT (( #316 ) ) ;
#58 = DIRECTION ( 'NONE',  ( -0.000000000000000000, -1.000000000000000000, -0.000000000000000000 ) ) ;
#59 = CYLINDRICAL_SURFACE ( 'NONE', #109, 8.000000000000000000 ) ;
#60 = LINE ( 'NONE', #340, #184 ) ;
#61 = COLOUR_RGB ( '',0.7921568627450980005, 0.8196078431372548767, 0.9333333333333333481 ) ;
#62 = ORIENTED_EDGE ( 'NONE', *, *, #92, .T. ) ;
#63 = FILL_AREA_STYLE_COLOUR ( '', #284 ) ;
#64 = AXIS2_PLACEMENT_3D ( 'NONE', #192, #46, #230 ) ;
#65 = ORIENTED_EDGE ( 'NONE', *, *, #112, .T. ) ;
#66 = DIRECTION ( 'NONE',  ( -1.279215233315390572E-16, 1.000000000000000000, -0.000000000000000000 ) ) ;
#67 = ORIENTED_EDGE ( 'NONE', *, *, #346, .F. ) ;
#68 = CIRCLE ( 'NONE', #163, 8.000000000000000000 ) ;
#69 = COLOUR_RGB ( '',1.000000000000000000, 0.000000000000000000, 0.000000000000000000 ) ;
#70 = ORIENTED_EDGE ( 'NONE', *, *, #309, .T. ) ;
#71 = ADVANCED_FACE ( 'NONE', ( #45 ), #160, .T. ) ;
#72 = EDGE_LOOP ( 'NONE', ( #303, #232, #42, #116 ) ) ;
#73 = DIRECTION ( 'NONE',  ( 0.000000000000000000, 1.000000000000000000, 0.000000000000000000 ) ) ;
#74 = CARTESIAN_POINT ( 'NONE',  ( 0.000000000000000000, 0.5000000000000000000, -7.500000000000000000 ) ) ;
#75 = CARTESIAN_POINT ( 'NONE',  ( 8.000000000000000000, 89.00000000000000000, 9.797174393178825657E-16 ) ) ;
#76 = MECHANICAL_DESIGN_GEOMETRIC_PRESENTATION_REPRESENTATION (  '', ( #193 ), #261 ) ;
#77 = AXIS2_PLACEMENT_3D ( 'NONE', #93, #168, #117 ) ;
#78 = PRODUCT_DEFINITION ( 'UNKNOWN', '', #180, #253 ) ;
#79 = ADVANCED_FACE ( 'NONE', ( #360 ), #18, .F. ) ;
#80 = UNCERTAINTY_MEASURE_WITH_UNIT (LENGTH_MEASURE( 1.000000000000000082E-05 ), #352, 'distance_accuracy_value', 'NONE');
#81 = PRESENTATION_LAYER_ASSIGNMENT (  '', '', ( #193 ) ) ;
#82 = COLOUR_RGB ( '',1.000000000000000000, 0.000000000000000000, 0.000000000000000000 ) ;
#83 =( GEOMETRIC_REPRESENTATION_CONTEXT ( 3 ) GLOBAL_UNCERTAINTY_ASSIGNED_CONTEXT ( ( #80 ) ) GLOBAL_UNIT_ASSIGNED_CONTEXT ( ( #352, #313, #190 ) ) REPRESENTATION_CONTEXT ( 'NONE', 'WORKASPACE' ) );
#84 = PRESENTATION_STYLE_ASSIGNMENT (( #235 ) ) ;
#85 =( NAMED_UNIT ( * ) SI_UNIT ( $, .STERADIAN. ) SOLID_ANGLE_UNIT ( ) );
#86 = FILL_AREA_STYLE_COLOUR ( '', #55 ) ;
#87 = DIRECTION ( 'NONE',  ( -0.000000000000000000, -1.000000000000000000, -0.000000000000000000 ) ) ;
#88 = CARTESIAN_POINT ( 'NONE',  ( -8.000000000000003553, 89.00000000000000000, 0.000000000000000000 ) ) ;
#89 = CARTESIAN_POINT ( 'NONE',  ( 0.000000000000000000, 40.00000000000000000, -8.000000000000000000 ) ) ;
#90 = SURFACE_SIDE_STYLE ('',( #144 ) ) ;
#91 = DIRECTION ( 'NONE',  ( -1.279215233315390572E-16, 1.000000000000000000, 0.000000000000000000 ) ) ;
#92 = EDGE_CURVE ( 'NONE', #35, #185, #200, .T. ) ;
#93 = CARTESIAN_POINT ( 'NONE',  ( 0.000000000000000000, 0.000000000000000000, 0.000000000000000000 ) ) ;
#94 =( NAMED_UNIT ( * ) SI_UNIT ( $, .STERADIAN. ) SOLID_ANGLE_UNIT ( ) );
#95 = CIRCLE ( 'NONE', #222, 0.5000000000000004441 ) ;
#96 = SURFACE_STYLE_USAGE ( .BOTH. , #186 ) ;
#97 = SURFACE_STYLE_USAGE ( .BOTH. , #27 ) ;
#98 =( NAMED_UNIT ( * ) PLANE_ANGLE_UNIT ( ) SI_UNIT ( $, .RADIAN. ) );
#99 = FILL_AREA_STYLE_COLOUR ( '', #69 ) ;
#100 = EDGE_LOOP ( 'NONE', ( #304, #65, #209, #242 ) ) ;
#101 = LINE ( 'NONE', #299, #250 ) ;
#102 = ORIENTED_EDGE ( 'NONE', *, *, #156, .F. ) ;
#103 =( LENGTH_UNIT ( ) NAMED_UNIT ( * ) SI_UNIT ( .MILLI., .METRE. ) );
#104 = COLOUR_RGB ( '',1.000000000000000000, 0.000000000000000000, 0.000000000000000000 ) ;
#105 = SURFACE_STYLE_FILL_AREA ( #40 ) ;
#106 = SURFACE_SIDE_STYLE ('',( #37 ) ) ;
#107 = DIRECTION ( 'NONE',  ( 1.000000000000000000, 1.279215233315390572E-16, 0.000000000000000000 ) ) ;
#108 = PRODUCT_CONTEXT ( 'NONE', #229, 'mechanical' ) ;
#109 = AXIS2_PLACEMENT_3D ( 'NONE', #238, #24, #296 ) ;
#110 = ADVANCED_FACE ( 'NONE', ( #120 ), #205, .T. ) ;
#111 = UNCERTAINTY_MEASURE_WITH_UNIT (LENGTH_MEASURE( 1.000000000000000082E-05 ), #199, 'distance_accuracy_value', 'NONE');
#112 = EDGE_CURVE ( 'NONE', #297, #1, #29, .T. ) ;
#113 = COLOUR_RGB ( '',1.000000000000000000, 0.000000000000000000, 0.000000000000000000 ) ;
#114 = STYLED_ITEM ( 'NONE', ( #268 ), #155 ) ;
#115 =( NAMED_UNIT ( * ) PLANE_ANGLE_UNIT ( ) SI_UNIT ( $, .RADIAN. ) );
#116 = ORIENTED_EDGE ( 'NONE', *, *, #92, .F. ) ;
#117 = DIRECTION ( 'NONE',  ( 0.000000000000000000, 0.000000000000000000, -1.000000000000000000 ) ) ;
#118 = CARTESIAN_POINT ( 'NONE',  ( -7.999999999999989342, 40.00000000000000000, 0.000000000000000000 ) ) ;
#119 = PRODUCT_RELATED_PRODUCT_CATEGORY ( 'part', '', ( #161 ) ) ;
#120 = FACE_OUTER_BOUND ( 'NONE', #72, .T. ) ;
#121 = MECHANICAL_DESIGN_GEOMETRIC_PRESENTATION_REPRESENTATION (  '', ( #294 ), #50 ) ;
#122 = SURFACE_STYLE_FILL_AREA ( #30 ) ;
#123 = ORIENTED_EDGE ( 'NONE', *, *, #156, .T. ) ;
#124 = SURFACE_SIDE_STYLE ('',( #122 ) ) ;
#125 = DIRECTION ( 'NONE',  ( -1.279215233315390572E-16, 1.000000000000000000, -0.000000000000000000 ) ) ;
#126 = ORIENTED_EDGE ( 'NONE', *, *, #112, .F. ) ;
#127 = FILL_AREA_STYLE ('',( #99 ) ) ;
#128 = ORIENTED_EDGE ( 'NONE', *, *, #245, .F. ) ;
#129 = SURFACE_SIDE_STYLE ('',( #210 ) ) ;
#130 = VERTEX_POINT ( 'NONE', #88 ) ;
#131 = DIRECTION ( 'NONE',  ( -0.000000000000000000, -1.000000000000000000, -0.000000000000000000 ) ) ;
#132 = CARTESIAN_POINT ( 'NONE',  ( 9.797174393178825657E-16, 0.5000000000000000000, 8.000000000000000000 ) ) ;
#133 = CARTESIAN_POINT ( 'NONE',  ( 4.553649124439119412E-15, 40.00000000000000000, 0.000000000000000000 ) ) ;
#134 = COLOUR_RGB ( '',0.7921568627450980005, 0.8196078431372548767, 0.9333333333333333481 ) ;
#135 = ORIENTED_EDGE ( 'NONE', *, *, #312, .F. ) ;
#136 = ADVANCED_FACE ( 'NONE', ( #239 ), #343, .T. ) ;
#137 = APPLICATION_PROTOCOL_DEFINITION ( 'draft international standard', 'automotive_design', 1998, #229 ) ;
#138 = AXIS2_PLACEMENT_3D ( 'NONE', #218, #41, #276 ) ;
#139 = ADVANCED_FACE ( 'NONE', ( #366 ), #175, .T. ) ;
#140 = ORIENTED_EDGE ( 'NONE', *, *, #219, .F. ) ;
#141 = DIRECTION ( 'NONE',  ( -1.000000000000000000, -1.279215233315390572E-16, 0.000000000000000000 ) ) ;
#142 = DIRECTION ( 'NONE',  ( 0.000000000000000000, 0.000000000000000000, -1.000000000000000000 ) ) ;
#143 = PRESENTATION_LAYER_ASSIGNMENT (  '', '', ( #215 ) ) ;
#144 = SURFACE_STYLE_FILL_AREA ( #23 ) ;
#145 = FACE_OUTER_BOUND ( 'NONE', #349, .T. ) ;
#146 = ADVANCED_FACE ( 'NONE', ( #367 ), #348, .F. ) ;
#147 = CARTESIAN_POINT ( 'NONE',  ( 4.553649124439118623E-15, 40.00000000000000000, 0.000000000000000000 ) ) ;
#148 = ORIENTED_EDGE ( 'NONE', *, *, #292, .F. ) ;
#149 = CARTESIAN_POINT ( 'NONE',  ( 0.000000000000000000, 40.00000000000000000, 0.000000000000000000 ) ) ;
#150 = AXIS2_PLACEMENT_3D ( 'NONE', #308, #334, #283 ) ;
#151 = VERTEX_POINT ( 'NONE', #118 ) ;
#152 = PRODUCT_DEFINITION_SHAPE ( 'NONE', 'NONE',  #78 ) ;
#153 = PLANE ( 'NONE',  #307 ) ;
#154 = DIRECTION ( 'NONE',  ( -0.000000000000000000, -1.000000000000000000, -0.000000000000000000 ) ) ;
#155 = MANIFOLD_SOLID_BREP ( 'Revolve - Tool Body (Straight Shanked)', #49 ) ;
#156 = EDGE_CURVE ( 'NONE', #351, #277, #60, .T. ) ;
#157 = EDGE_LOOP ( 'NONE', ( #102, #182, #325, #347 ) ) ;
#158 = DIRECTION ( 'NONE',  ( -1.000000000000000000, 0.000000000000000000, 0.000000000000000000 ) ) ;
#159 = AXIS2_PLACEMENT_3D ( 'NONE', #133, #6, #158 ) ;
#160 = CYLINDRICAL_SURFACE ( 'NONE', #150, 7.999999999999998224 ) ;
#161 = PRODUCT ( '59677', '59677', '', ( #108 ) ) ;
#162 =( LENGTH_UNIT ( ) NAMED_UNIT ( * ) SI_UNIT ( .MILLI., .METRE. ) );
#163 = AXIS2_PLACEMENT_3D ( 'NONE', #204, #318, #142 ) ;
#164 = AXIS2_PLACEMENT_3D ( 'NONE', #317, #125, #324 ) ;
#165 = UNCERTAINTY_MEASURE_WITH_UNIT (LENGTH_MEASURE( 1.000000000000000082E-05 ), #345, 'distance_accuracy_value', 'NONE');
#166 = DIRECTION ( 'NONE',  ( 1.000000000000000000, 0.000000000000000000, 0.000000000000000000 ) ) ;
#167 = ORIENTED_EDGE ( 'NONE', *, *, #197, .F. ) ;
#168 = DIRECTION ( 'NONE',  ( -0.000000000000000000, -1.000000000000000000, -0.000000000000000000 ) ) ;
#169 = DIRECTION ( 'NONE',  ( 0.000000000000000000, -1.000000000000000000, -0.000000000000000000 ) ) ;
#170 = AXIS2_PLACEMENT_3D ( 'NONE', #220, #252, #107 ) ;
#171 = AXIS2_PLACEMENT_3D ( 'NONE', #196, #169, #256 ) ;
#172 = AXIS2_PLACEMENT_3D ( 'NONE', #302, #154, #271 ) ;
#173 = FILL_AREA_STYLE ('',( #86 ) ) ;
#174 = EDGE_CURVE ( 'NONE', #35, #1, #68, .T. ) ;
#175 = PLANE ( 'NONE',  #171 ) ;
#176 = PRESENTATION_STYLE_ASSIGNMENT (( #319 ) ) ;
#177 = SURFACE_STYLE_FILL_AREA ( #173 ) ;
#178 = FILL_AREA_STYLE ('',( #234 ) ) ;
#179 = ADVANCED_FACE ( 'NONE', ( #145 ), #59, .T. ) ;
#180 = PRODUCT_DEFINITION_FORMATION_WITH_SPECIFIED_SOURCE ( 'ANY', '', #161, .NOT_KNOWN. ) ;
#181 = ORIENTED_EDGE ( 'NONE', *, *, #341, .T. ) ;
#182 = ORIENTED_EDGE ( 'NONE', *, *, #346, .T. ) ;
#183 = PRESENTATION_STYLE_ASSIGNMENT (( #326 ) ) ;
#184 = VECTOR ( 'NONE', #3, 1000.000000000000000 ) ;
#185 = VERTEX_POINT ( 'NONE', #263 ) ;
#186 = SURFACE_SIDE_STYLE ('',( #105 ) ) ;
#187 = FACE_OUTER_BOUND ( 'NONE', #249, .T. ) ;
#188 = DIRECTION ( 'NONE',  ( -1.279215233315390572E-16, 1.000000000000000000, -0.000000000000000000 ) ) ;
#189 = DIRECTION ( 'NONE',  ( -1.224646799147353454E-16, 0.000000000000000000, -1.000000000000000000 ) ) ;
#190 =( NAMED_UNIT ( * ) SI_UNIT ( $, .STERADIAN. ) SOLID_ANGLE_UNIT ( ) );
#191 = CIRCLE ( 'NONE', #322, 8.000000000000000000 ) ;
#192 = CARTESIAN_POINT ( 'NONE',  ( 0.000000000000000000, 0.5000000000000000000, 0.000000000000000000 ) ) ;
#193 = STYLED_ITEM ( 'NONE', ( #353 ), #25 ) ;
#194 = AXIS2_PLACEMENT_3D ( 'NONE', #293, #203, #339 ) ;
#195 = DIRECTION ( 'NONE',  ( -1.000000000000000000, 0.000000000000000000, 0.000000000000000000 ) ) ;
#196 = CARTESIAN_POINT ( 'NONE',  ( 0.000000000000000000, 0.000000000000000000, 0.000000000000000000 ) ) ;
#197 = EDGE_CURVE ( 'NONE', #211, #297, #265, .T. ) ;
#198 = FILL_AREA_STYLE_COLOUR ( '', #113 ) ;
#199 =( LENGTH_UNIT ( ) NAMED_UNIT ( * ) SI_UNIT ( .MILLI., .METRE. ) );
#200 = CIRCLE ( 'NONE', #15, 0.5000000000000004441 ) ;
#201 = STYLED_ITEM ( 'NONE', ( #183 ), #354 ) ;
#202 =( LENGTH_UNIT ( ) NAMED_UNIT ( * ) SI_UNIT ( .MILLI., .METRE. ) );
#203 = DIRECTION ( 'NONE',  ( -0.000000000000000000, -1.000000000000000000, -0.000000000000000000 ) ) ;
#204 = CARTESIAN_POINT ( 'NONE',  ( 0.000000000000000000, 0.5000000000000000000, 0.000000000000000000 ) ) ;
#205 = TOROIDAL_SURFACE ( 'NONE', #194, 7.500000000000000000, 0.5000000000000002220 ) ;
#206 = CARTESIAN_POINT ( 'NONE',  ( 0.000000000000000000, 0.5000000000000000000, -8.000000000000000000 ) ) ;
#207 =( NAMED_UNIT ( * ) PLANE_ANGLE_UNIT ( ) SI_UNIT ( $, .RADIAN. ) );
#208 = APPLICATION_CONTEXT ( 'automotive_design' ) ;
#209 = ORIENTED_EDGE ( 'NONE', *, *, #174, .F. ) ;
#210 = SURFACE_STYLE_FILL_AREA ( #127 ) ;
#211 = VERTEX_POINT ( 'NONE', #89 ) ;
#212 = CARTESIAN_POINT ( 'NONE',  ( 4.553649124439119412E-15, 40.00000000000000000, 0.000000000000000000 ) ) ;
#213 = PRESENTATION_LAYER_ASSIGNMENT (  '', '', ( #294 ) ) ;
#214 = ORIENTED_EDGE ( 'NONE', *, *, #245, .T. ) ;
#215 = STYLED_ITEM ( 'NONE', ( #247 ), #337 ) ;
#216 = DIRECTION ( 'NONE',  ( -1.000000000000000000, 0.000000000000000000, 0.000000000000000000 ) ) ;
#217 = UNCERTAINTY_MEASURE_WITH_UNIT (LENGTH_MEASURE( 1.000000000000000082E-05 ), #103, 'distance_accuracy_value', 'NONE');
#218 = CARTESIAN_POINT ( 'NONE',  ( 0.000000000000000000, 0.000000000000000000, 0.000000000000000000 ) ) ;
#219 = EDGE_CURVE ( 'NONE', #130, #277, #44, .T. ) ;
#220 = CARTESIAN_POINT ( 'NONE',  ( 8.000000000000000000, 89.00000000000000000, 0.000000000000000000 ) ) ;
#221 = DIRECTION ( 'NONE',  ( -0.000000000000000000, -1.000000000000000000, -0.000000000000000000 ) ) ;
#222 = AXIS2_PLACEMENT_3D ( 'NONE', #9, #301, #189 ) ;
#223 =( GEOMETRIC_REPRESENTATION_CONTEXT ( 3 ) GLOBAL_UNCERTAINTY_ASSIGNED_CONTEXT ( ( #111 ) ) GLOBAL_UNIT_ASSIGNED_CONTEXT ( ( #199, #207, #264 ) ) REPRESENTATION_CONTEXT ( 'NONE', 'WORKASPACE' ) );
#224 = CYLINDRICAL_SURFACE ( 'NONE', #225, 7.999999999999998224 ) ;
#225 = AXIS2_PLACEMENT_3D ( 'NONE', #260, #361, #195 ) ;
#226 = DIRECTION ( 'NONE',  ( 0.000000000000000000, 0.000000000000000000, 1.000000000000000000 ) ) ;
#227 = AXIS2_PLACEMENT_3D ( 'NONE', #147, #91, #141 ) ;
#228 =( GEOMETRIC_REPRESENTATION_CONTEXT ( 3 ) GLOBAL_UNCERTAINTY_ASSIGNED_CONTEXT ( ( #217 ) ) GLOBAL_UNIT_ASSIGNED_CONTEXT ( ( #103, #254, #333 ) ) REPRESENTATION_CONTEXT ( 'NONE', 'WORKASPACE' ) );
#229 = APPLICATION_CONTEXT ( 'automotive_design' ) ;
#230 = DIRECTION ( 'NONE',  ( 0.000000000000000000, 0.000000000000000000, -1.000000000000000000 ) ) ;
#231 = SURFACE_STYLE_FILL_AREA ( #32 ) ;
#232 = ORIENTED_EDGE ( 'NONE', *, *, #39, .T. ) ;
#233 = CARTESIAN_POINT ( 'NONE',  ( 9.797174393178825657E-16, 0.000000000000000000, 8.000000000000000000 ) ) ;
#234 = FILL_AREA_STYLE_COLOUR ( '', #134 ) ;
#235 = SURFACE_STYLE_USAGE ( .BOTH. , #90 ) ;
#236 = SURFACE_STYLE_FILL_AREA ( #178 ) ;
#237 = MECHANICAL_DESIGN_GEOMETRIC_PRESENTATION_REPRESENTATION (  '', ( #114 ), #223 ) ;
#238 = CARTESIAN_POINT ( 'NONE',  ( 0.000000000000000000, 0.000000000000000000, 0.000000000000000000 ) ) ;
#239 = FACE_OUTER_BOUND ( 'NONE', #100, .T. ) ;
#240 =( LENGTH_UNIT ( ) NAMED_UNIT ( * ) SI_UNIT ( .MILLI., .METRE. ) );
#241 = CARTESIAN_POINT ( 'NONE',  ( 0.000000000000000000, 0.000000000000000000, -8.000000000000000000 ) ) ;
#242 = ORIENTED_EDGE ( 'NONE', *, *, #243, .F. ) ;
#243 = EDGE_CURVE ( 'NONE', #211, #35, #34, .T. ) ;
#244 = VERTEX_POINT ( 'NONE', #10 ) ;
#245 = EDGE_CURVE ( 'NONE', #1, #35, #51, .T. ) ;
#246 = EDGE_LOOP ( 'NONE', ( #357, #123, #140, #323 ) ) ;
#247 = PRESENTATION_STYLE_ASSIGNMENT (( #14 ) ) ;
#248 = MECHANICAL_DESIGN_GEOMETRIC_PRESENTATION_REPRESENTATION (  '', ( #355 ), #22 ) ;
#249 = EDGE_LOOP ( 'NONE', ( #270, #214, #62, #314 ) ) ;
#250 = VECTOR ( 'NONE', #66, 1000.000000000000000 ) ;
#251 = FACE_OUTER_BOUND ( 'NONE', #157, .T. ) ;
#252 = DIRECTION ( 'NONE',  ( 1.279215233315390572E-16, -1.000000000000000000, 0.000000000000000000 ) ) ;
#253 = PRODUCT_DEFINITION_CONTEXT ( 'detailed design', #208, 'design' ) ;
#254 =( NAMED_UNIT ( * ) PLANE_ANGLE_UNIT ( ) SI_UNIT ( $, .RADIAN. ) );
#255 = CARTESIAN_POINT ( 'NONE',  ( 0.000000000000000000, 0.000000000000000000, 0.000000000000000000 ) ) ;
#256 = DIRECTION ( 'NONE',  ( 0.000000000000000000, 0.000000000000000000, -1.000000000000000000 ) ) ;
#257 = STYLED_ITEM ( 'NONE', ( #84 ), #110 ) ;
#258 = AXIS2_PLACEMENT_3D ( 'NONE', #305, #221, #274 ) ;
#259 = UNCERTAINTY_MEASURE_WITH_UNIT (LENGTH_MEASURE( 1.000000000000000082E-05 ), #240, 'distance_accuracy_value', 'NONE');
#260 = CARTESIAN_POINT ( 'NONE',  ( -1.714505518806293849E-15, 89.00000000000000000, 0.000000000000000000 ) ) ;
#261 =( GEOMETRIC_REPRESENTATION_CONTEXT ( 3 ) GLOBAL_UNCERTAINTY_ASSIGNED_CONTEXT ( ( #285 ) ) GLOBAL_UNIT_ASSIGNED_CONTEXT ( ( #332, #98, #280 ) ) REPRESENTATION_CONTEXT ( 'NONE', 'WORKASPACE' ) );
#262 = DIRECTION ( 'NONE',  ( -1.000000000000000000, 0.000000000000000000, 0.000000000000000000 ) ) ;
#263 = CARTESIAN_POINT ( 'NONE',  ( 0.000000000000000000, 0.000000000000000000, -7.500000000000000000 ) ) ;
#264 =( NAMED_UNIT ( * ) SI_UNIT ( $, .STERADIAN. ) SOLID_ANGLE_UNIT ( ) );
#265 = CIRCLE ( 'NONE', #363, 8.000000000000000000 ) ;
#266 = CIRCLE ( 'NONE', #258, 7.500000000000000000 ) ;
#267 =( LENGTH_UNIT ( ) NAMED_UNIT ( * ) SI_UNIT ( .MILLI., .METRE. ) );
#268 = PRESENTATION_STYLE_ASSIGNMENT (( #97 ) ) ;
#269 = EDGE_LOOP ( 'NONE', ( #181, #5 ) ) ;
#270 = ORIENTED_EDGE ( 'NONE', *, *, #39, .F. ) ;
#271 = DIRECTION ( 'NONE',  ( 0.000000000000000000, 0.000000000000000000, -1.000000000000000000 ) ) ;
#272 = AXIS2_PLACEMENT_3D ( 'NONE', #36, #188, #216 ) ;
#273 = EDGE_LOOP ( 'NONE', ( #135, #67 ) ) ;
#274 = DIRECTION ( 'NONE',  ( 0.000000000000000000, 0.000000000000000000, -1.000000000000000000 ) ) ;
#275 = ORIENTED_EDGE ( 'NONE', *, *, #219, .T. ) ;
#276 = DIRECTION ( 'NONE',  ( 0.000000000000000000, 0.000000000000000000, -1.000000000000000000 ) ) ;
#277 = VERTEX_POINT ( 'NONE', #75 ) ;
#278 = CARTESIAN_POINT ( 'NONE',  ( 8.000000000000000000, 40.00000000000000000, 9.797174393178825657E-16 ) ) ;
#279 = PRESENTATION_LAYER_ASSIGNMENT (  '', '', ( #28 ) ) ;
#280 =( NAMED_UNIT ( * ) SI_UNIT ( $, .STERADIAN. ) SOLID_ANGLE_UNIT ( ) );
#281 =( GEOMETRIC_REPRESENTATION_CONTEXT ( 3 ) GLOBAL_UNCERTAINTY_ASSIGNED_CONTEXT ( ( #338 ) ) GLOBAL_UNIT_ASSIGNED_CONTEXT ( ( #162, #48, #52 ) ) REPRESENTATION_CONTEXT ( 'NONE', 'WORKASPACE' ) );
#282 = FILL_AREA_STYLE_COLOUR ( '', #104 ) ;
#283 = DIRECTION ( 'NONE',  ( -1.000000000000000000, 0.000000000000000000, 0.000000000000000000 ) ) ;
#284 = COLOUR_RGB ( '',1.000000000000000000, 0.000000000000000000, 0.000000000000000000 ) ;
#285 = UNCERTAINTY_MEASURE_WITH_UNIT (LENGTH_MEASURE( 1.000000000000000082E-05 ), #332, 'distance_accuracy_value', 'NONE');
#286 = EDGE_CURVE ( 'NONE', #244, #185, #336, .T. ) ;
#287 = APPLICATION_PROTOCOL_DEFINITION ( 'draft international standard', 'automotive_design', 1998, #208 ) ;
#288 = PRESENTATION_LAYER_ASSIGNMENT (  '', '', ( #355 ) ) ;
#289 = DIRECTION ( 'NONE',  ( 0.000000000000000000, 0.000000000000000000, 1.000000000000000000 ) ) ;
#290 = CIRCLE ( 'NONE', #272, 8.000000000000001776 ) ;
#291 = SURFACE_STYLE_USAGE ( .BOTH. , #315 ) ;
#292 = EDGE_CURVE ( 'NONE', #297, #211, #191, .T. ) ;
#293 = CARTESIAN_POINT ( 'NONE',  ( 0.000000000000000000, 0.5000000000000000000, 0.000000000000000000 ) ) ;
#294 = STYLED_ITEM ( 'NONE', ( #176 ), #179 ) ;
#295 =( NAMED_UNIT ( * ) PLANE_ANGLE_UNIT ( ) SI_UNIT ( $, .RADIAN. ) );
#296 = DIRECTION ( 'NONE',  ( 0.000000000000000000, 0.000000000000000000, -1.000000000000000000 ) ) ;
#297 = VERTEX_POINT ( 'NONE', #43 ) ;
#298 = EDGE_CURVE ( 'NONE', #151, #130, #101, .T. ) ;
#299 = CARTESIAN_POINT ( 'NONE',  ( -8.000000000000000000, 89.00000000000000000, 0.000000000000000000 ) ) ;
#300 = MECHANICAL_DESIGN_GEOMETRIC_PRESENTATION_REPRESENTATION (  '', ( #28 ), #20 ) ;
#301 = DIRECTION ( 'NONE',  ( 1.000000000000000000, 0.000000000000000000, -1.224646799147353207E-16 ) ) ;
#302 = CARTESIAN_POINT ( 'NONE',  ( 0.000000000000000000, 0.5000000000000000000, 0.000000000000000000 ) ) ;
#303 = ORIENTED_EDGE ( 'NONE', *, *, #174, .T. ) ;
#304 = ORIENTED_EDGE ( 'NONE', *, *, #197, .T. ) ;
#305 = CARTESIAN_POINT ( 'NONE',  ( 0.000000000000000000, 0.000000000000000000, 0.000000000000000000 ) ) ;
#306 = VECTOR ( 'NONE', #2, 1000.000000000000000 ) ;
#307 = AXIS2_PLACEMENT_3D ( 'NONE', #149, #73, #350 ) ;
#308 = CARTESIAN_POINT ( 'NONE',  ( -1.714505518806293849E-15, 89.00000000000000000, 0.000000000000000000 ) ) ;
#309 = EDGE_CURVE ( 'NONE', #277, #130, #290, .T. ) ;
#310 = PRESENTATION_LAYER_ASSIGNMENT (  '', '', ( #257 ) ) ;
#311 = CIRCLE ( 'NONE', #159, 7.999999999999994671 ) ;
#312 = EDGE_CURVE ( 'NONE', #151, #351, #16, .T. ) ;
#313 =( NAMED_UNIT ( * ) PLANE_ANGLE_UNIT ( ) SI_UNIT ( $, .RADIAN. ) );
#314 = ORIENTED_EDGE ( 'NONE', *, *, #286, .F. ) ;
#315 = SURFACE_SIDE_STYLE ('',( #231 ) ) ;
#316 = SURFACE_STYLE_USAGE ( .BOTH. , #342 ) ;
#317 = CARTESIAN_POINT ( 'NONE',  ( -1.714505518806293652E-15, 89.00000000000000000, 0.000000000000000000 ) ) ;
#318 = DIRECTION ( 'NONE',  ( -0.000000000000000000, -1.000000000000000000, -0.000000000000000000 ) ) ;
#319 = SURFACE_STYLE_USAGE ( .BOTH. , #124 ) ;
#320 =( NAMED_UNIT ( * ) SI_UNIT ( $, .STERADIAN. ) SOLID_ANGLE_UNIT ( ) );
#321 =( GEOMETRIC_REPRESENTATION_CONTEXT ( 3 ) GLOBAL_UNCERTAINTY_ASSIGNED_CONTEXT ( ( #165 ) ) GLOBAL_UNIT_ASSIGNED_CONTEXT ( ( #345, #368, #320 ) ) REPRESENTATION_CONTEXT ( 'NONE', 'WORKASPACE' ) );
#322 = AXIS2_PLACEMENT_3D ( 'NONE', #335, #131, #359 ) ;
#323 = ORIENTED_EDGE ( 'NONE', *, *, #298, .F. ) ;
#324 = DIRECTION ( 'NONE',  ( -1.000000000000000000, 0.000000000000000000, 0.000000000000000000 ) ) ;
#325 = ORIENTED_EDGE ( 'NONE', *, *, #298, .T. ) ;
#326 = SURFACE_STYLE_USAGE ( .BOTH. , #129 ) ;
#327 = EDGE_LOOP ( 'NONE', ( #167, #148 ) ) ;
#328 = DIRECTION ( 'NONE',  ( -1.279215233315390572E-16, 1.000000000000000000, -0.000000000000000000 ) ) ;
#329 = MECHANICAL_DESIGN_GEOMETRIC_PRESENTATION_REPRESENTATION (  '', ( #257 ), #321 ) ;
#330 = ORIENTED_EDGE ( 'NONE', *, *, #243, .T. ) ;
#331 = FACE_OUTER_BOUND ( 'NONE', #327, .T. ) ;
#332 =( LENGTH_UNIT ( ) NAMED_UNIT ( * ) SI_UNIT ( .MILLI., .METRE. ) );
#333 =( NAMED_UNIT ( * ) SI_UNIT ( $, .STERADIAN. ) SOLID_ANGLE_UNIT ( ) );
#334 = DIRECTION ( 'NONE',  ( -1.279215233315390572E-16, 1.000000000000000000, -0.000000000000000000 ) ) ;
#335 = CARTESIAN_POINT ( 'NONE',  ( 0.000000000000000000, 40.00000000000000000, 0.000000000000000000 ) ) ;
#336 = CIRCLE ( 'NONE', #138, 7.500000000000000000 ) ;
#337 = ADVANCED_FACE ( 'NONE', ( #331 ), #153, .T. ) ;
#338 = UNCERTAINTY_MEASURE_WITH_UNIT (LENGTH_MEASURE( 1.000000000000000082E-05 ), #162, 'distance_accuracy_value', 'NONE');
#339 = DIRECTION ( 'NONE',  ( 0.000000000000000000, 0.000000000000000000, -1.000000000000000000 ) ) ;
#340 = CARTESIAN_POINT ( 'NONE',  ( 7.999999999999996447, 89.00000000000000000, 9.797174393178823685E-16 ) ) ;
#341 = EDGE_CURVE ( 'NONE', #185, #244, #266, .T. ) ;
#342 = SURFACE_SIDE_STYLE ('',( #177 ) ) ;
#343 = CYLINDRICAL_SURFACE ( 'NONE', #77, 8.000000000000000000 ) ;
#344 = DIRECTION ( 'NONE',  ( 0.000000000000000000, 0.000000000000000000, -1.000000000000000000 ) ) ;
#345 =( LENGTH_UNIT ( ) NAMED_UNIT ( * ) SI_UNIT ( .MILLI., .METRE. ) );
#346 = EDGE_CURVE ( 'NONE', #351, #151, #311, .T. ) ;
#347 = ORIENTED_EDGE ( 'NONE', *, *, #309, .F. ) ;
#348 = PLANE ( 'NONE',  #227 ) ;
#349 = EDGE_LOOP ( 'NONE', ( #126, #53, #330, #128 ) ) ;
#350 = DIRECTION ( 'NONE',  ( 0.000000000000000000, -0.000000000000000000, 1.000000000000000000 ) ) ;
#351 = VERTEX_POINT ( 'NONE', #278 ) ;
#352 =( LENGTH_UNIT ( ) NAMED_UNIT ( * ) SI_UNIT ( .MILLI., .METRE. ) );
#353 = PRESENTATION_STYLE_ASSIGNMENT (( #96 ) ) ;
#354 = ADVANCED_FACE ( 'NONE', ( #187 ), #8, .T. ) ;
#355 = STYLED_ITEM ( 'NONE', ( #26 ), #139 ) ;
#356 = PRESENTATION_LAYER_ASSIGNMENT (  '', '', ( #201 ) ) ;
#357 = ORIENTED_EDGE ( 'NONE', *, *, #312, .T. ) ;
#358 = UNCERTAINTY_MEASURE_WITH_UNIT (LENGTH_MEASURE( 1.000000000000000082E-05 ), #202, 'distance_accuracy_value', 'NONE');
#359 = DIRECTION ( 'NONE',  ( 0.000000000000000000, 0.000000000000000000, -1.000000000000000000 ) ) ;
#360 = FACE_OUTER_BOUND ( 'NONE', #13, .T. ) ;
#361 = DIRECTION ( 'NONE',  ( -1.279215233315390572E-16, 1.000000000000000000, -0.000000000000000000 ) ) ;
#362 = VECTOR ( 'NONE', #58, 1000.000000000000000 ) ;
#363 = AXIS2_PLACEMENT_3D ( 'NONE', #364, #87, #344 ) ;
#364 = CARTESIAN_POINT ( 'NONE',  ( 0.000000000000000000, 40.00000000000000000, 0.000000000000000000 ) ) ;
#365 = ADVANCED_FACE ( 'NONE', ( #251 ), #224, .T. ) ;
#366 = FACE_OUTER_BOUND ( 'NONE', #269, .T. ) ;
#367 = FACE_OUTER_BOUND ( 'NONE', #273, .T. ) ;
#368 =( NAMED_UNIT ( * ) PLANE_ANGLE_UNIT ( ) SI_UNIT ( $, .RADIAN. ) );
#369 = FILL_AREA_STYLE_COLOUR ( '', #82 ) ;
#370 = AXIS2_PLACEMENT_3D ( 'NONE', #212, #328, #12 ) ;
ENDSEC;
END-ISO-10303-21;
