ISO-10303-21;
HEADER;
FILE_DESCRIPTION (( 'STEP AP214' ),
    '1' );
FILE_NAME ('59687.STEP',
    '2023-07-24T15:53:12',
    ( '' ),
    ( '' ),
    'SwSTEP 2.0',
    'SolidWorks 2023',
    '' );
FILE_SCHEMA (( 'AUTOMOTIVE_DESIGN' ));
ENDSEC;

DATA;
#1 = FILL_AREA_STYLE ('',( #136 ) ) ;
#2 = ORIENTED_EDGE ( 'NONE', *, *, #180, .T. ) ;
#3 = MECHANICAL_DESIGN_GEOMETRIC_PRESENTATION_REPRESENTATION (  '', ( #103 ), #215 ) ;
#4 = PRODUCT ( '59687', '59687', '', ( #17 ) ) ;
#5 = DIRECTION ( 'NONE',  ( -2.881521880346713429E-17, 1.000000000000000000, -0.000000000000000000 ) ) ;
#6 = DIRECTION ( 'NONE',  ( 0.000000000000000000, 0.000000000000000000, -1.000000000000000000 ) ) ;
#7 = DIRECTION ( 'NONE',  ( -0.000000000000000000, -1.000000000000000000, -0.000000000000000000 ) ) ;
#8 = DIRECTION ( 'NONE',  ( 0.000000000000000000, 0.000000000000000000, -1.000000000000000000 ) ) ;
#9 = COLOUR_RGB ( '',0.7921568627450980005, 0.8196078431372548767, 0.9333333333333333481 ) ;
#10 = SURFACE_STYLE_FILL_AREA ( #187 ) ;
#11 = CARTESIAN_POINT ( 'NONE',  ( -1.469576158976823750E-15, 75.00000000000000000, 0.000000000000000000 ) ) ;
#12 = FILL_AREA_STYLE ('',( #126 ) ) ;
#13 = PRODUCT_DEFINITION_SHAPE ( 'NONE', 'NONE',  #16 ) ;
#14 = VECTOR ( 'NONE', #73, 1000.000000000000000 ) ;
#15 = SURFACE_SIDE_STYLE ('',( #107 ) ) ;
#16 = PRODUCT_DEFINITION ( 'UNKNOWN', '', #213, #284 ) ;
#17 = PRODUCT_CONTEXT ( 'NONE', #220, 'mechanical' ) ;
#18 =( NAMED_UNIT ( * ) PLANE_ANGLE_UNIT ( ) SI_UNIT ( $, .RADIAN. ) );
#19 = EDGE_CURVE ( 'NONE', #121, #50, #67, .T. ) ;
#20 = SHAPE_DEFINITION_REPRESENTATION ( #13, #105 ) ;
#21 = SURFACE_SIDE_STYLE ('',( #285 ) ) ;
#22 = CIRCLE ( 'NONE', #130, 4.000000000000000000 ) ;
#23 = DIRECTION ( 'NONE',  ( -0.000000000000000000, -1.000000000000000000, -0.000000000000000000 ) ) ;
#24 = ORIENTED_EDGE ( 'NONE', *, *, #190, .F. ) ;
#25 = MECHANICAL_DESIGN_GEOMETRIC_PRESENTATION_REPRESENTATION (  '', ( #199 ), #271 ) ;
#26 = VERTEX_POINT ( 'NONE', #28 ) ;
#27 = AXIS2_PLACEMENT_3D ( 'NONE', #274, #276, #238 ) ;
#28 = CARTESIAN_POINT ( 'NONE',  ( 4.898587196589412829E-16, 24.00000000000000000, 4.000000000000000000 ) ) ;
#29 = STYLED_ITEM ( 'NONE', ( #92 ), #223 ) ;
#30 = DIRECTION ( 'NONE',  ( 0.000000000000000000, -0.000000000000000000, 1.000000000000000000 ) ) ;
#31 = CARTESIAN_POINT ( 'NONE',  ( 0.000000000000000000, 0.000000000000000000, -4.000000000000000000 ) ) ;
#32 = CARTESIAN_POINT ( 'NONE',  ( 4.000000000000000000, 75.00000000000000000, 4.898587196589413815E-16 ) ) ;
#33 = PLANE ( 'NONE',  #229 ) ;
#34 = VERTEX_POINT ( 'NONE', #59 ) ;
#35 = AXIS2_PLACEMENT_3D ( 'NONE', #48, #36, #6 ) ;
#36 = DIRECTION ( 'NONE',  ( -0.000000000000000000, -1.000000000000000000, -0.000000000000000000 ) ) ;
#37 = DIRECTION ( 'NONE',  ( -1.000000000000000000, -2.881521880346713429E-17, 0.000000000000000000 ) ) ;
#38 =( NAMED_UNIT ( * ) SI_UNIT ( $, .STERADIAN. ) SOLID_ANGLE_UNIT ( ) );
#39 = AXIS2_PLACEMENT_3D ( 'NONE', #65, #198, #247 ) ;
#40 = UNCERTAINTY_MEASURE_WITH_UNIT (LENGTH_MEASURE( 1.000000000000000082E-05 ), #58, 'distance_accuracy_value', 'NONE');
#41 = FILL_AREA_STYLE ('',( #243 ) ) ;
#42 = CYLINDRICAL_SURFACE ( 'NONE', #86, 4.000000000000000000 ) ;
#43 = SURFACE_STYLE_USAGE ( .BOTH. , #88 ) ;
#44 = ORIENTED_EDGE ( 'NONE', *, *, #19, .F. ) ;
#45 = ORIENTED_EDGE ( 'NONE', *, *, #245, .T. ) ;
#46 = ORIENTED_EDGE ( 'NONE', *, *, #180, .F. ) ;
#47 = SURFACE_STYLE_USAGE ( .BOTH. , #233 ) ;
#48 = CARTESIAN_POINT ( 'NONE',  ( 0.000000000000000000, 24.00000000000000000, 0.000000000000000000 ) ) ;
#49 = AXIS2_PLACEMENT_3D ( 'NONE', #148, #256, #210 ) ;
#50 = VERTEX_POINT ( 'NONE', #209 ) ;
#51 = AXIS2_PLACEMENT_3D ( 'NONE', #80, #108, #37 ) ;
#52 = FILL_AREA_STYLE_COLOUR ( '', #64 ) ;
#53 = APPLICATION_CONTEXT ( 'automotive_design' ) ;
#54 = ORIENTED_EDGE ( 'NONE', *, *, #99, .T. ) ;
#55 = CARTESIAN_POINT ( 'NONE',  ( -1.469576158976823750E-15, 75.00000000000000000, 0.000000000000000000 ) ) ;
#56 = ORIENTED_EDGE ( 'NONE', *, *, #251, .F. ) ;
#57 = PRODUCT_RELATED_PRODUCT_CATEGORY ( 'part', '', ( #4 ) ) ;
#58 =( LENGTH_UNIT ( ) NAMED_UNIT ( * ) SI_UNIT ( .MILLI., .METRE. ) );
#59 = CARTESIAN_POINT ( 'NONE',  ( 4.000000000000000000, 24.00000000000000000, 4.898587196589413815E-16 ) ) ;
#60 = COLOUR_RGB ( '',1.000000000000000000, 0.000000000000000000, 0.000000000000000000 ) ;
#61 = PLANE ( 'NONE',  #51 ) ;
#62 = UNCERTAINTY_MEASURE_WITH_UNIT (LENGTH_MEASURE( 1.000000000000000082E-05 ), #158, 'distance_accuracy_value', 'NONE');
#63 = MECHANICAL_DESIGN_GEOMETRIC_PRESENTATION_REPRESENTATION (  '', ( #68 ), #171 ) ;
#64 = COLOUR_RGB ( '',1.000000000000000000, 0.000000000000000000, 0.000000000000000000 ) ;
#65 = CARTESIAN_POINT ( 'NONE',  ( 0.000000000000000000, 0.000000000000000000, 0.000000000000000000 ) ) ;
#66 = ORIENTED_EDGE ( 'NONE', *, *, #124, .F. ) ;
#67 = CIRCLE ( 'NONE', #134, 4.000000000000001776 ) ;
#68 = STYLED_ITEM ( 'NONE', ( #281 ), #225 ) ;
#69 = PLANE ( 'NONE',  #258 ) ;
#70 = DIRECTION ( 'NONE',  ( -0.000000000000000000, -1.000000000000000000, -0.000000000000000000 ) ) ;
#71 = FACE_OUTER_BOUND ( 'NONE', #201, .T. ) ;
#72 = CYLINDRICAL_SURFACE ( 'NONE', #49, 4.000000000000000888 ) ;
#73 = DIRECTION ( 'NONE',  ( -2.881521880346713429E-17, 1.000000000000000000, -0.000000000000000000 ) ) ;
#74 = ORIENTED_EDGE ( 'NONE', *, *, #102, .F. ) ;
#75 = DIRECTION ( 'NONE',  ( 1.000000000000000000, 2.881521880346713429E-17, 0.000000000000000000 ) ) ;
#76 = DIRECTION ( 'NONE',  ( -0.000000000000000000, -1.000000000000000000, -0.000000000000000000 ) ) ;
#77 = CARTESIAN_POINT ( 'NONE',  ( -4.000000000000002665, 75.00000000000000000, 0.000000000000000000 ) ) ;
#78 =( LENGTH_UNIT ( ) NAMED_UNIT ( * ) SI_UNIT ( .MILLI., .METRE. ) );
#79 = PRESENTATION_LAYER_ASSIGNMENT (  '', '', ( #103 ) ) ;
#80 = CARTESIAN_POINT ( 'NONE',  ( 1.660633669383371668E-33, 24.00000000000000000, 0.000000000000000000 ) ) ;
#81 = UNCERTAINTY_MEASURE_WITH_UNIT (LENGTH_MEASURE( 1.000000000000000082E-05 ), #196, 'distance_accuracy_value', 'NONE');
#82 = PRESENTATION_STYLE_ASSIGNMENT (( #173 ) ) ;
#83 = CARTESIAN_POINT ( 'NONE',  ( 0.000000000000000000, 0.000000000000000000, 0.000000000000000000 ) ) ;
#84 = FILL_AREA_STYLE ('',( #244 ) ) ;
#85 = CLOSED_SHELL ( 'NONE', ( #197, #279, #93, #269 ) ) ;
#86 = AXIS2_PLACEMENT_3D ( 'NONE', #133, #23, #91 ) ;
#87 =( NAMED_UNIT ( * ) SI_UNIT ( $, .STERADIAN. ) SOLID_ANGLE_UNIT ( ) );
#88 = SURFACE_SIDE_STYLE ('',( #226 ) ) ;
#89 = EDGE_LOOP ( 'NONE', ( #160, #2 ) ) ;
#90 = STYLED_ITEM ( 'NONE', ( #227 ), #239 ) ;
#91 = DIRECTION ( 'NONE',  ( 0.000000000000000000, 0.000000000000000000, -1.000000000000000000 ) ) ;
#92 = PRESENTATION_STYLE_ASSIGNMENT (( #43 ) ) ;
#93 = ADVANCED_FACE ( 'NONE', ( #208 ), #163, .T. ) ;
#94 =( GEOMETRIC_REPRESENTATION_CONTEXT ( 3 ) GLOBAL_UNCERTAINTY_ASSIGNED_CONTEXT ( ( #172 ) ) GLOBAL_UNIT_ASSIGNED_CONTEXT ( ( #283, #241, #127 ) ) REPRESENTATION_CONTEXT ( 'NONE', 'WORKASPACE' ) );
#95 =( NAMED_UNIT ( * ) PLANE_ANGLE_UNIT ( ) SI_UNIT ( $, .RADIAN. ) );
#96 = ORIENTED_EDGE ( 'NONE', *, *, #177, .T. ) ;
#97 = DIRECTION ( 'NONE',  ( 0.000000000000000000, 1.000000000000000000, 0.000000000000000000 ) ) ;
#98 = DIRECTION ( 'NONE',  ( -2.881521880346713429E-17, 1.000000000000000000, -0.000000000000000000 ) ) ;
#99 = EDGE_CURVE ( 'NONE', #26, #228, #222, .T. ) ;
#100 =( NAMED_UNIT ( * ) SI_UNIT ( $, .STERADIAN. ) SOLID_ANGLE_UNIT ( ) );
#101 = DIRECTION ( 'NONE',  ( -1.000000000000000000, 0.000000000000000000, 0.000000000000000000 ) ) ;
#102 = EDGE_CURVE ( 'NONE', #26, #219, #254, .T. ) ;
#103 = STYLED_ITEM ( 'NONE', ( #240 ), #200 ) ;
#104 = CARTESIAN_POINT ( 'NONE',  ( 0.000000000000000000, 0.000000000000000000, 0.000000000000000000 ) ) ;
#105 = ADVANCED_BREP_SHAPE_REPRESENTATION ( '59687', ( #205, #200, #135 ), #94 ) ;
#106 = DIRECTION ( 'NONE',  ( 0.000000000000000000, 0.000000000000000000, -1.000000000000000000 ) ) ;
#107 = SURFACE_STYLE_FILL_AREA ( #12 ) ;
#108 = DIRECTION ( 'NONE',  ( -2.881521880346713429E-17, 1.000000000000000000, 0.000000000000000000 ) ) ;
#109 =( NAMED_UNIT ( * ) PLANE_ANGLE_UNIT ( ) SI_UNIT ( $, .RADIAN. ) );
#110 = CIRCLE ( 'NONE', #27, 4.000000000000000000 ) ;
#111 = APPLICATION_PROTOCOL_DEFINITION ( 'draft international standard', 'automotive_design', 1998, #53 ) ;
#112 = EDGE_CURVE ( 'NONE', #228, #230, #189, .T. ) ;
#113 = SURFACE_SIDE_STYLE ('',( #216 ) ) ;
#114 =( GEOMETRIC_REPRESENTATION_CONTEXT ( 3 ) GLOBAL_UNCERTAINTY_ASSIGNED_CONTEXT ( ( #262 ) ) GLOBAL_UNIT_ASSIGNED_CONTEXT ( ( #207, #95, #181 ) ) REPRESENTATION_CONTEXT ( 'NONE', 'WORKASPACE' ) );
#115 = ORIENTED_EDGE ( 'NONE', *, *, #190, .T. ) ;
#116 = CARTESIAN_POINT ( 'NONE',  ( 4.898587196589412829E-16, 0.000000000000000000, 4.000000000000000000 ) ) ;
#117 = DIRECTION ( 'NONE',  ( 0.000000000000000000, 0.000000000000000000, -1.000000000000000000 ) ) ;
#118 = VERTEX_POINT ( 'NONE', #183 ) ;
#119 = AXIS2_PLACEMENT_3D ( 'NONE', #55, #5, #273 ) ;
#120 = CARTESIAN_POINT ( 'NONE',  ( 0.000000000000000000, 0.000000000000000000, 0.000000000000000000 ) ) ;
#121 = VERTEX_POINT ( 'NONE', #32 ) ;
#122 = ORIENTED_EDGE ( 'NONE', *, *, #102, .T. ) ;
#123 = DIRECTION ( 'NONE',  ( -0.000000000000000000, -1.000000000000000000, -0.000000000000000000 ) ) ;
#124 = EDGE_CURVE ( 'NONE', #118, #50, #153, .T. ) ;
#125 = FILL_AREA_STYLE_COLOUR ( '', #144 ) ;
#126 = FILL_AREA_STYLE_COLOUR ( '', #9 ) ;
#127 =( NAMED_UNIT ( * ) SI_UNIT ( $, .STERADIAN. ) SOLID_ANGLE_UNIT ( ) );
#128 = DIRECTION ( 'NONE',  ( -2.881521880346713429E-17, 1.000000000000000000, -0.000000000000000000 ) ) ;
#129 =( LENGTH_UNIT ( ) NAMED_UNIT ( * ) SI_UNIT ( .MILLI., .METRE. ) );
#130 = AXIS2_PLACEMENT_3D ( 'NONE', #211, #186, #168 ) ;
#131 = MECHANICAL_DESIGN_GEOMETRIC_PRESENTATION_REPRESENTATION (  '', ( #164 ), #192 ) ;
#132 = APPLICATION_PROTOCOL_DEFINITION ( 'draft international standard', 'automotive_design', 1998, #220 ) ;
#133 = CARTESIAN_POINT ( 'NONE',  ( 0.000000000000000000, 0.000000000000000000, 0.000000000000000000 ) ) ;
#134 = AXIS2_PLACEMENT_3D ( 'NONE', #11, #142, #101 ) ;
#135 = AXIS2_PLACEMENT_3D ( 'NONE', #83, #174, #157 ) ;
#136 = FILL_AREA_STYLE_COLOUR ( '', #60 ) ;
#137 = ORIENTED_EDGE ( 'NONE', *, *, #149, .T. ) ;
#138 = FACE_OUTER_BOUND ( 'NONE', #179, .T. ) ;
#139 = MECHANICAL_DESIGN_GEOMETRIC_PRESENTATION_REPRESENTATION (  '', ( #90 ), #114 ) ;
#140 = ORIENTED_EDGE ( 'NONE', *, *, #19, .T. ) ;
#141 =( NAMED_UNIT ( * ) PLANE_ANGLE_UNIT ( ) SI_UNIT ( $, .RADIAN. ) );
#142 = DIRECTION ( 'NONE',  ( -2.881521880346713429E-17, 1.000000000000000000, -0.000000000000000000 ) ) ;
#143 = CIRCLE ( 'NONE', #195, 4.000000000000000000 ) ;
#144 = COLOUR_RGB ( '',1.000000000000000000, 0.000000000000000000, 0.000000000000000000 ) ;
#145 = DIRECTION ( 'NONE',  ( -2.881521880346713429E-17, 1.000000000000000000, -0.000000000000000000 ) ) ;
#146 = SURFACE_STYLE_FILL_AREA ( #204 ) ;
#147 = EDGE_LOOP ( 'NONE', ( #115, #45, #56, #66 ) ) ;
#148 = CARTESIAN_POINT ( 'NONE',  ( -1.469576158976823750E-15, 75.00000000000000000, 0.000000000000000000 ) ) ;
#149 = EDGE_CURVE ( 'NONE', #34, #118, #110, .T. ) ;
#150 = CARTESIAN_POINT ( 'NONE',  ( 0.000000000000000000, 24.00000000000000000, -4.000000000000000000 ) ) ;
#151 = AXIS2_PLACEMENT_3D ( 'NONE', #166, #123, #8 ) ;
#152 = PRESENTATION_LAYER_ASSIGNMENT (  '', '', ( #29 ) ) ;
#153 = LINE ( 'NONE', #77, #257 ) ;
#154 = UNCERTAINTY_MEASURE_WITH_UNIT (LENGTH_MEASURE( 1.000000000000000082E-05 ), #129, 'distance_accuracy_value', 'NONE');
#155 =( NAMED_UNIT ( * ) PLANE_ANGLE_UNIT ( ) SI_UNIT ( $, .RADIAN. ) );
#156 = PRESENTATION_LAYER_ASSIGNMENT (  '', '', ( #199 ) ) ;
#157 = DIRECTION ( 'NONE',  ( 1.000000000000000000, 0.000000000000000000, 0.000000000000000000 ) ) ;
#158 =( LENGTH_UNIT ( ) NAMED_UNIT ( * ) SI_UNIT ( .MILLI., .METRE. ) );
#159 = VECTOR ( 'NONE', #76, 1000.000000000000000 ) ;
#160 = ORIENTED_EDGE ( 'NONE', *, *, #191, .T. ) ;
#161 = DIRECTION ( 'NONE',  ( -1.000000000000000000, 0.000000000000000000, 0.000000000000000000 ) ) ;
#162 = PLANE ( 'NONE',  #242 ) ;
#163 = CYLINDRICAL_SURFACE ( 'NONE', #270, 4.000000000000000888 ) ;
#164 = STYLED_ITEM ( 'NONE', ( #194 ), #218 ) ;
#165 = DIRECTION ( 'NONE',  ( 2.881521880346713429E-17, -1.000000000000000000, 0.000000000000000000 ) ) ;
#166 = CARTESIAN_POINT ( 'NONE',  ( 0.000000000000000000, 24.00000000000000000, 0.000000000000000000 ) ) ;
#167 = FACE_OUTER_BOUND ( 'NONE', #232, .T. ) ;
#168 = DIRECTION ( 'NONE',  ( 0.000000000000000000, 0.000000000000000000, -1.000000000000000000 ) ) ;
#169 = CARTESIAN_POINT ( 'NONE',  ( 0.000000000000000000, 24.00000000000000000, 0.000000000000000000 ) ) ;
#170 = ORIENTED_EDGE ( 'NONE', *, *, #245, .F. ) ;
#171 =( GEOMETRIC_REPRESENTATION_CONTEXT ( 3 ) GLOBAL_UNCERTAINTY_ASSIGNED_CONTEXT ( ( #40 ) ) GLOBAL_UNIT_ASSIGNED_CONTEXT ( ( #58, #141, #100 ) ) REPRESENTATION_CONTEXT ( 'NONE', 'WORKASPACE' ) );
#172 = UNCERTAINTY_MEASURE_WITH_UNIT (LENGTH_MEASURE( 1.000000000000000082E-05 ), #283, 'distance_accuracy_value', 'NONE');
#173 = SURFACE_STYLE_USAGE ( .BOTH. , #21 ) ;
#174 = DIRECTION ( 'NONE',  ( 0.000000000000000000, 0.000000000000000000, 1.000000000000000000 ) ) ;
#175 = EDGE_LOOP ( 'NONE', ( #170, #137, #188, #44 ) ) ;
#176 = PRESENTATION_LAYER_ASSIGNMENT (  '', '', ( #68 ) ) ;
#177 = EDGE_CURVE ( 'NONE', #228, #26, #235, .T. ) ;
#178 = ORIENTED_EDGE ( 'NONE', *, *, #177, .F. ) ;
#179 = EDGE_LOOP ( 'NONE', ( #178, #268 ) ) ;
#180 = EDGE_CURVE ( 'NONE', #219, #230, #265, .T. ) ;
#181 =( NAMED_UNIT ( * ) SI_UNIT ( $, .STERADIAN. ) SOLID_ANGLE_UNIT ( ) );
#182 = CARTESIAN_POINT ( 'NONE',  ( 4.898587196589412829E-16, 0.000000000000000000, 4.000000000000000000 ) ) ;
#183 = CARTESIAN_POINT ( 'NONE',  ( -4.000000000000000000, 24.00000000000000000, 0.000000000000000000 ) ) ;
#184 = CIRCLE ( 'NONE', #119, 4.000000000000001776 ) ;
#185 = DIRECTION ( 'NONE',  ( 0.000000000000000000, -1.000000000000000000, -0.000000000000000000 ) ) ;
#186 = DIRECTION ( 'NONE',  ( -0.000000000000000000, -1.000000000000000000, -0.000000000000000000 ) ) ;
#187 = FILL_AREA_STYLE ('',( #52 ) ) ;
#188 = ORIENTED_EDGE ( 'NONE', *, *, #124, .T. ) ;
#189 = LINE ( 'NONE', #31, #159 ) ;
#190 = EDGE_CURVE ( 'NONE', #118, #34, #143, .T. ) ;
#191 = EDGE_CURVE ( 'NONE', #230, #219, #22, .T. ) ;
#192 =( GEOMETRIC_REPRESENTATION_CONTEXT ( 3 ) GLOBAL_UNCERTAINTY_ASSIGNED_CONTEXT ( ( #62 ) ) GLOBAL_UNIT_ASSIGNED_CONTEXT ( ( #158, #109, #87 ) ) REPRESENTATION_CONTEXT ( 'NONE', 'WORKASPACE' ) );
#193 = UNCERTAINTY_MEASURE_WITH_UNIT (LENGTH_MEASURE( 1.000000000000000082E-05 ), #78, 'distance_accuracy_value', 'NONE');
#194 = PRESENTATION_STYLE_ASSIGNMENT (( #212 ) ) ;
#195 = AXIS2_PLACEMENT_3D ( 'NONE', #261, #128, #161 ) ;
#196 =( LENGTH_UNIT ( ) NAMED_UNIT ( * ) SI_UNIT ( .MILLI., .METRE. ) );
#197 = ADVANCED_FACE ( 'NONE', ( #259 ), #72, .T. ) ;
#198 = DIRECTION ( 'NONE',  ( -0.000000000000000000, -1.000000000000000000, -0.000000000000000000 ) ) ;
#199 = STYLED_ITEM ( 'NONE', ( #82 ), #205 ) ;
#200 = MANIFOLD_SOLID_BREP ( 'Revolve - Tool Body (Straight Shanked)', #85 ) ;
#201 = EDGE_LOOP ( 'NONE', ( #206, #140 ) ) ;
#202 = ORIENTED_EDGE ( 'NONE', *, *, #191, .F. ) ;
#203 = CLOSED_SHELL ( 'NONE', ( #218, #225, #223, #239 ) ) ;
#204 = FILL_AREA_STYLE ('',( #125 ) ) ;
#205 = MANIFOLD_SOLID_BREP ( 'Revolve - Cutting Edge', #203 ) ;
#206 = ORIENTED_EDGE ( 'NONE', *, *, #251, .T. ) ;
#207 =( LENGTH_UNIT ( ) NAMED_UNIT ( * ) SI_UNIT ( .MILLI., .METRE. ) );
#208 = FACE_OUTER_BOUND ( 'NONE', #175, .T. ) ;
#209 = CARTESIAN_POINT ( 'NONE',  ( -4.000000000000003553, 75.00000000000000000, 0.000000000000000000 ) ) ;
#210 = DIRECTION ( 'NONE',  ( -1.000000000000000000, 0.000000000000000000, 0.000000000000000000 ) ) ;
#211 = CARTESIAN_POINT ( 'NONE',  ( 0.000000000000000000, 0.000000000000000000, 0.000000000000000000 ) ) ;
#212 = SURFACE_STYLE_USAGE ( .BOTH. , #113 ) ;
#213 = PRODUCT_DEFINITION_FORMATION_WITH_SPECIFIED_SOURCE ( 'ANY', '', #4, .NOT_KNOWN. ) ;
#214 =( NAMED_UNIT ( * ) SI_UNIT ( $, .STERADIAN. ) SOLID_ANGLE_UNIT ( ) );
#215 =( GEOMETRIC_REPRESENTATION_CONTEXT ( 3 ) GLOBAL_UNCERTAINTY_ASSIGNED_CONTEXT ( ( #154 ) ) GLOBAL_UNIT_ASSIGNED_CONTEXT ( ( #129, #155, #38 ) ) REPRESENTATION_CONTEXT ( 'NONE', 'WORKASPACE' ) );
#216 = SURFACE_STYLE_FILL_AREA ( #84 ) ;
#217 = MECHANICAL_DESIGN_GEOMETRIC_PRESENTATION_REPRESENTATION (  '', ( #29 ), #266 ) ;
#218 = ADVANCED_FACE ( 'NONE', ( #234 ), #42, .T. ) ;
#219 = VERTEX_POINT ( 'NONE', #116 ) ;
#220 = APPLICATION_CONTEXT ( 'automotive_design' ) ;
#221 = EDGE_LOOP ( 'NONE', ( #96, #122, #202, #224 ) ) ;
#222 = CIRCLE ( 'NONE', #35, 4.000000000000000000 ) ;
#223 = ADVANCED_FACE ( 'NONE', ( #252 ), #246, .T. ) ;
#224 = ORIENTED_EDGE ( 'NONE', *, *, #112, .F. ) ;
#225 = ADVANCED_FACE ( 'NONE', ( #138 ), #69, .T. ) ;
#226 = SURFACE_STYLE_FILL_AREA ( #1 ) ;
#227 = PRESENTATION_STYLE_ASSIGNMENT (( #47 ) ) ;
#228 = VERTEX_POINT ( 'NONE', #150 ) ;
#229 = AXIS2_PLACEMENT_3D ( 'NONE', #120, #185, #117 ) ;
#230 = VERTEX_POINT ( 'NONE', #237 ) ;
#231 = FACE_OUTER_BOUND ( 'NONE', #89, .T. ) ;
#232 = EDGE_LOOP ( 'NONE', ( #24, #248 ) ) ;
#233 = SURFACE_SIDE_STYLE ('',( #146 ) ) ;
#234 = FACE_OUTER_BOUND ( 'NONE', #221, .T. ) ;
#235 = CIRCLE ( 'NONE', #151, 4.000000000000000000 ) ;
#236 = PRESENTATION_LAYER_ASSIGNMENT (  '', '', ( #164 ) ) ;
#237 = CARTESIAN_POINT ( 'NONE',  ( 0.000000000000000000, 0.000000000000000000, -4.000000000000000000 ) ) ;
#238 = DIRECTION ( 'NONE',  ( -1.000000000000000000, 0.000000000000000000, 0.000000000000000000 ) ) ;
#239 = ADVANCED_FACE ( 'NONE', ( #231 ), #33, .T. ) ;
#240 = PRESENTATION_STYLE_ASSIGNMENT (( #263 ) ) ;
#241 =( NAMED_UNIT ( * ) PLANE_ANGLE_UNIT ( ) SI_UNIT ( $, .RADIAN. ) );
#242 = AXIS2_PLACEMENT_3D ( 'NONE', #255, #165, #75 ) ;
#243 = FILL_AREA_STYLE_COLOUR ( '', #264 ) ;
#244 = FILL_AREA_STYLE_COLOUR ( '', #277 ) ;
#245 = EDGE_CURVE ( 'NONE', #34, #121, #275, .T. ) ;
#246 = CYLINDRICAL_SURFACE ( 'NONE', #39, 4.000000000000000000 ) ;
#247 = DIRECTION ( 'NONE',  ( 0.000000000000000000, 0.000000000000000000, -1.000000000000000000 ) ) ;
#248 = ORIENTED_EDGE ( 'NONE', *, *, #149, .F. ) ;
#249 = VECTOR ( 'NONE', #7, 1000.000000000000000 ) ;
#250 = PRESENTATION_LAYER_ASSIGNMENT (  '', '', ( #90 ) ) ;
#251 = EDGE_CURVE ( 'NONE', #50, #121, #184, .T. ) ;
#252 = FACE_OUTER_BOUND ( 'NONE', #272, .T. ) ;
#253 = SURFACE_STYLE_USAGE ( .BOTH. , #260 ) ;
#254 = LINE ( 'NONE', #182, #249 ) ;
#255 = CARTESIAN_POINT ( 'NONE',  ( 4.000000000000000000, 75.00000000000000000, 0.000000000000000000 ) ) ;
#256 = DIRECTION ( 'NONE',  ( -2.881521880346713429E-17, 1.000000000000000000, -0.000000000000000000 ) ) ;
#257 = VECTOR ( 'NONE', #145, 1000.000000000000000 ) ;
#258 = AXIS2_PLACEMENT_3D ( 'NONE', #169, #97, #30 ) ;
#259 = FACE_OUTER_BOUND ( 'NONE', #147, .T. ) ;
#260 = SURFACE_SIDE_STYLE ('',( #10 ) ) ;
#261 = CARTESIAN_POINT ( 'NONE',  ( 0.000000000000000000, 24.00000000000000000, 0.000000000000000000 ) ) ;
#262 = UNCERTAINTY_MEASURE_WITH_UNIT (LENGTH_MEASURE( 1.000000000000000082E-05 ), #207, 'distance_accuracy_value', 'NONE');
#263 = SURFACE_STYLE_USAGE ( .BOTH. , #15 ) ;
#264 = COLOUR_RGB ( '',0.7921568627450980005, 0.8196078431372548767, 0.9333333333333333481 ) ;
#265 = CIRCLE ( 'NONE', #286, 4.000000000000000000 ) ;
#266 =( GEOMETRIC_REPRESENTATION_CONTEXT ( 3 ) GLOBAL_UNCERTAINTY_ASSIGNED_CONTEXT ( ( #81 ) ) GLOBAL_UNIT_ASSIGNED_CONTEXT ( ( #196, #287, #267 ) ) REPRESENTATION_CONTEXT ( 'NONE', 'WORKASPACE' ) );
#267 =( NAMED_UNIT ( * ) SI_UNIT ( $, .STERADIAN. ) SOLID_ANGLE_UNIT ( ) );
#268 = ORIENTED_EDGE ( 'NONE', *, *, #99, .F. ) ;
#269 = ADVANCED_FACE ( 'NONE', ( #71 ), #162, .F. ) ;
#270 = AXIS2_PLACEMENT_3D ( 'NONE', #280, #98, #282 ) ;
#271 =( GEOMETRIC_REPRESENTATION_CONTEXT ( 3 ) GLOBAL_UNCERTAINTY_ASSIGNED_CONTEXT ( ( #193 ) ) GLOBAL_UNIT_ASSIGNED_CONTEXT ( ( #78, #18, #214 ) ) REPRESENTATION_CONTEXT ( 'NONE', 'WORKASPACE' ) );
#272 = EDGE_LOOP ( 'NONE', ( #74, #54, #288, #46 ) ) ;
#273 = DIRECTION ( 'NONE',  ( -1.000000000000000000, 0.000000000000000000, 0.000000000000000000 ) ) ;
#274 = CARTESIAN_POINT ( 'NONE',  ( 0.000000000000000000, 24.00000000000000000, 0.000000000000000000 ) ) ;
#275 = LINE ( 'NONE', #278, #14 ) ;
#276 = DIRECTION ( 'NONE',  ( -2.881521880346713429E-17, 1.000000000000000000, -0.000000000000000000 ) ) ;
#277 = COLOUR_RGB ( '',1.000000000000000000, 0.000000000000000000, 0.000000000000000000 ) ;
#278 = CARTESIAN_POINT ( 'NONE',  ( 3.999999999999999112, 75.00000000000000000, 4.898587196589413815E-16 ) ) ;
#279 = ADVANCED_FACE ( 'NONE', ( #167 ), #61, .F. ) ;
#280 = CARTESIAN_POINT ( 'NONE',  ( -1.469576158976823750E-15, 75.00000000000000000, 0.000000000000000000 ) ) ;
#281 = PRESENTATION_STYLE_ASSIGNMENT (( #253 ) ) ;
#282 = DIRECTION ( 'NONE',  ( -1.000000000000000000, 0.000000000000000000, 0.000000000000000000 ) ) ;
#283 =( LENGTH_UNIT ( ) NAMED_UNIT ( * ) SI_UNIT ( .MILLI., .METRE. ) );
#284 = PRODUCT_DEFINITION_CONTEXT ( 'detailed design', #53, 'design' ) ;
#285 = SURFACE_STYLE_FILL_AREA ( #41 ) ;
#286 = AXIS2_PLACEMENT_3D ( 'NONE', #104, #70, #106 ) ;
#287 =( NAMED_UNIT ( * ) PLANE_ANGLE_UNIT ( ) SI_UNIT ( $, .RADIAN. ) );
#288 = ORIENTED_EDGE ( 'NONE', *, *, #112, .T. ) ;
ENDSEC;
END-ISO-10303-21;
