ISO-10303-21;
HEADER;
FILE_DESCRIPTION (( 'STEP AP214' ),
    '1' );
FILE_NAME ('83407.STEP',
    '2023-06-23T09:47:17',
    ( '' ),
    ( '' ),
    'SwSTEP 2.0',
    'SolidWorks 2023',
    '' );
FILE_SCHEMA (( 'AUTOMOTIVE_DESIGN' ));
ENDSEC;

DATA;
#1 = EDGE_LOOP ( 'NONE', ( #54, #246 ) ) ;
#2 = LENGTH_MEASURE_WITH_UNIT ( LENGTH_MEASURE( 0.02539999999999999897 ), #102 );
#3 =( GEOMETRIC_REPRESENTATION_CONTEXT ( 3 ) GLOBAL_UNCERTAINTY_ASSIGNED_CONTEXT ( ( #39 ) ) GLOBAL_UNIT_ASSIGNED_CONTEXT ( ( #108, #84, #187 ) ) REPRESENTATION_CONTEXT ( 'NONE', 'WORKASPACE' ) );
#4 = EDGE_LOOP ( 'NONE', ( #282, #173, #58, #272 ) ) ;
#5 = AXIS2_PLACEMENT_3D ( 'NONE', #224, #192, #92 ) ;
#6 = CARTESIAN_POINT ( 'NONE',  ( 0.000000000000000000, 0.000000000000000000, 0.000000000000000000 ) ) ;
#7 = CARTESIAN_POINT ( 'NONE',  ( 0.000000000000000000, 0.8750000000000000000, 0.000000000000000000 ) ) ;
#8 = STYLED_ITEM ( 'NONE', ( #300 ), #117 ) ;
#9 = FILL_AREA_STYLE_COLOUR ( '', #97 ) ;
#10 = DIRECTION ( 'NONE',  ( -0.000000000000000000, -1.000000000000000000, -0.000000000000000000 ) ) ;
#11 = DIMENSIONAL_EXPONENTS ( 1.000000000000000000, 0.000000000000000000, 0.000000000000000000, 0.000000000000000000, 0.000000000000000000, 0.000000000000000000, 0.000000000000000000 ) ;
#12 = ORIENTED_EDGE ( 'NONE', *, *, #135, .T. ) ;
#13 = FACE_OUTER_BOUND ( 'NONE', #129, .T. ) ;
#14 = COLOUR_RGB ( '',1.000000000000000000, 0.000000000000000000, 0.000000000000000000 ) ;
#15 = ORIENTED_EDGE ( 'NONE', *, *, #280, .F. ) ;
#16 = UNCERTAINTY_MEASURE_WITH_UNIT (LENGTH_MEASURE( 1.000000000000000082E-05 ), #177, 'distance_accuracy_value', 'NONE');
#17 = FACE_OUTER_BOUND ( 'NONE', #1, .T. ) ;
#18 = DIRECTION ( 'NONE',  ( 0.000000000000000000, 0.000000000000000000, -1.000000000000000000 ) ) ;
#19 = AXIS2_PLACEMENT_3D ( 'NONE', #36, #215, #172 ) ;
#20 = DIMENSIONAL_EXPONENTS ( 1.000000000000000000, 0.000000000000000000, 0.000000000000000000, 0.000000000000000000, 0.000000000000000000, 0.000000000000000000, 0.000000000000000000 ) ;
#21 = DIMENSIONAL_EXPONENTS ( 1.000000000000000000, 0.000000000000000000, 0.000000000000000000, 0.000000000000000000, 0.000000000000000000, 0.000000000000000000, 0.000000000000000000 ) ;
#22 = CARTESIAN_POINT ( 'NONE',  ( 7.654042494670957545E-18, 0.000000000000000000, 0.06250000000000000000 ) ) ;
#23 = SURFACE_STYLE_FILL_AREA ( #220 ) ;
#24 = VERTEX_POINT ( 'NONE', #298 ) ;
#25 = CYLINDRICAL_SURFACE ( 'NONE', #19, 0.06250000000000000000 ) ;
#26 = PRESENTATION_STYLE_ASSIGNMENT (( #143 ) ) ;
#27 =( NAMED_UNIT ( * ) PLANE_ANGLE_UNIT ( ) SI_UNIT ( $, .RADIAN. ) );
#28 = CARTESIAN_POINT ( 'NONE',  ( 0.000000000000000000, 0.8750000000000000000, 0.000000000000000000 ) ) ;
#29 = ORIENTED_EDGE ( 'NONE', *, *, #52, .F. ) ;
#30 = MECHANICAL_DESIGN_GEOMETRIC_PRESENTATION_REPRESENTATION (  '', ( #82 ), #3 ) ;
#31 = EDGE_LOOP ( 'NONE', ( #113, #56 ) ) ;
#32 = AXIS2_PLACEMENT_3D ( 'NONE', #76, #74, #98 ) ;
#33 = ORIENTED_EDGE ( 'NONE', *, *, #204, .F. ) ;
#34 = CARTESIAN_POINT ( 'NONE',  ( 4.437159120301361236E-35, 0.8750000000000000000, 0.000000000000000000 ) ) ;
#35 = CARTESIAN_POINT ( 'NONE',  ( 7.654042494670957545E-18, 0.000000000000000000, 0.06250000000000000000 ) ) ;
#36 = CARTESIAN_POINT ( 'NONE',  ( 0.000000000000000000, 0.000000000000000000, 0.000000000000000000 ) ) ;
#37 = AXIS2_PLACEMENT_3D ( 'NONE', #28, #157, #123 ) ;
#38 = DIRECTION ( 'NONE',  ( 0.000000000000000000, 1.000000000000000000, 0.000000000000000000 ) ) ;
#39 = UNCERTAINTY_MEASURE_WITH_UNIT (LENGTH_MEASURE( 1.000000000000000082E-05 ), #108, 'distance_accuracy_value', 'NONE');
#40 = DIRECTION ( 'NONE',  ( 3.768143997376474441E-17, 1.000000000000000000, -0.000000000000000000 ) ) ;
#41 = DIRECTION ( 'NONE',  ( 0.000000000000000000, 0.000000000000000000, -1.000000000000000000 ) ) ;
#42 = LINE ( 'NONE', #141, #250 ) ;
#43 = PRESENTATION_LAYER_ASSIGNMENT (  '', '', ( #80 ) ) ;
#44 = PRODUCT_CONTEXT ( 'NONE', #69, 'mechanical' ) ;
#45 =( CONVERSION_BASED_UNIT ( 'INCH', #232 ) LENGTH_UNIT ( ) NAMED_UNIT ( #21 ) );
#46 = ADVANCED_FACE ( 'NONE', ( #285 ), #89, .T. ) ;
#47 = COLOUR_RGB ( '',1.000000000000000000, 0.000000000000000000, 0.000000000000000000 ) ;
#48 = FILL_AREA_STYLE ('',( #253 ) ) ;
#49 = SURFACE_STYLE_USAGE ( .BOTH. , #79 ) ;
#50 = EDGE_CURVE ( 'NONE', #24, #188, #42, .T. ) ;
#51 = AXIS2_PLACEMENT_3D ( 'NONE', #131, #216, #41 ) ;
#52 = EDGE_CURVE ( 'NONE', #81, #100, #125, .T. ) ;
#53 =( GEOMETRIC_REPRESENTATION_CONTEXT ( 3 ) GLOBAL_UNCERTAINTY_ASSIGNED_CONTEXT ( ( #308 ) ) GLOBAL_UNIT_ASSIGNED_CONTEXT ( ( #299, #182, #202 ) ) REPRESENTATION_CONTEXT ( 'NONE', 'WORKASPACE' ) );
#54 = ORIENTED_EDGE ( 'NONE', *, *, #180, .F. ) ;
#55 = ADVANCED_FACE ( 'NONE', ( #120 ), #270, .T. ) ;
#56 = ORIENTED_EDGE ( 'NONE', *, *, #52, .T. ) ;
#57 = AXIS2_PLACEMENT_3D ( 'NONE', #171, #263, #59 ) ;
#58 = ORIENTED_EDGE ( 'NONE', *, *, #50, .T. ) ;
#59 = DIRECTION ( 'NONE',  ( -1.000000000000000000, 0.000000000000000000, 0.000000000000000000 ) ) ;
#60 = DIRECTION ( 'NONE',  ( 0.000000000000000000, 0.000000000000000000, -1.000000000000000000 ) ) ;
#61 =( NAMED_UNIT ( * ) SI_UNIT ( $, .STERADIAN. ) SOLID_ANGLE_UNIT ( ) );
#62 = DIRECTION ( 'NONE',  ( -1.000000000000000000, 0.000000000000000000, 0.000000000000000000 ) ) ;
#63 = ADVANCED_FACE ( 'NONE', ( #261 ), #65, .T. ) ;
#64 = MECHANICAL_DESIGN_GEOMETRIC_PRESENTATION_REPRESENTATION (  '', ( #8 ), #93 ) ;
#65 = CYLINDRICAL_SURFACE ( 'NONE', #57, 0.06249999999999996531 ) ;
#66 = DIRECTION ( 'NONE',  ( -0.000000000000000000, -1.000000000000000000, -0.000000000000000000 ) ) ;
#67 = DIRECTION ( 'NONE',  ( -0.000000000000000000, -1.000000000000000000, -0.000000000000000000 ) ) ;
#68 = CIRCLE ( 'NONE', #51, 0.06250000000000000000 ) ;
#69 = APPLICATION_CONTEXT ( 'automotive_design' ) ;
#70 = FILL_AREA_STYLE ('',( #9 ) ) ;
#71 = CARTESIAN_POINT ( 'NONE',  ( 6.123233995736772199E-17, 2.500000000000000000, 0.000000000000000000 ) ) ;
#72 = APPLICATION_PROTOCOL_DEFINITION ( 'draft international standard', 'automotive_design', 1998, #69 ) ;
#73 = AXIS2_PLACEMENT_3D ( 'NONE', #6, #132, #18 ) ;
#74 = DIRECTION ( 'NONE',  ( -0.000000000000000000, -1.000000000000000000, -0.000000000000000000 ) ) ;
#75 =( NAMED_UNIT ( * ) SI_UNIT ( $, .STERADIAN. ) SOLID_ANGLE_UNIT ( ) );
#76 = CARTESIAN_POINT ( 'NONE',  ( 0.000000000000000000, 0.000000000000000000, 0.000000000000000000 ) ) ;
#77 = PRODUCT ( '83407', '83407', '', ( #44 ) ) ;
#78 = SURFACE_STYLE_USAGE ( .BOTH. , #183 ) ;
#79 = SURFACE_SIDE_STYLE ('',( #23 ) ) ;
#80 = STYLED_ITEM ( 'NONE', ( #236 ), #46 ) ;
#81 = VERTEX_POINT ( 'NONE', #35 ) ;
#82 = STYLED_ITEM ( 'NONE', ( #124 ), #161 ) ;
#83 =( CONVERSION_BASED_UNIT ( 'INCH', #237 ) LENGTH_UNIT ( ) NAMED_UNIT ( #122 ) );
#84 =( NAMED_UNIT ( * ) PLANE_ANGLE_UNIT ( ) SI_UNIT ( $, .RADIAN. ) );
#85 = PRESENTATION_LAYER_ASSIGNMENT (  '', '', ( #255 ) ) ;
#86 = EDGE_LOOP ( 'NONE', ( #12, #168, #165, #15 ) ) ;
#87 = FILL_AREA_STYLE ('',( #155 ) ) ;
#88 =( GEOMETRIC_REPRESENTATION_CONTEXT ( 3 ) GLOBAL_UNCERTAINTY_ASSIGNED_CONTEXT ( ( #16 ) ) GLOBAL_UNIT_ASSIGNED_CONTEXT ( ( #177, #130, #61 ) ) REPRESENTATION_CONTEXT ( 'NONE', 'WORKASPACE' ) );
#89 = PLANE ( 'NONE',  #191 ) ;
#90 = DIRECTION ( 'NONE',  ( -1.000000000000000000, 0.000000000000000000, 0.000000000000000000 ) ) ;
#91 = CARTESIAN_POINT ( 'NONE',  ( 0.000000000000000000, 0.8750000000000000000, 0.000000000000000000 ) ) ;
#92 = DIRECTION ( 'NONE',  ( 0.000000000000000000, 0.000000000000000000, -1.000000000000000000 ) ) ;
#93 =( GEOMETRIC_REPRESENTATION_CONTEXT ( 3 ) GLOBAL_UNCERTAINTY_ASSIGNED_CONTEXT ( ( #194 ) ) GLOBAL_UNIT_ASSIGNED_CONTEXT ( ( #45, #229, #304 ) ) REPRESENTATION_CONTEXT ( 'NONE', 'WORKASPACE' ) );
#94 = SURFACE_SIDE_STYLE ('',( #162 ) ) ;
#95 = SURFACE_SIDE_STYLE ('',( #116 ) ) ;
#96 = CARTESIAN_POINT ( 'NONE',  ( 0.000000000000000000, 0.000000000000000000, 0.000000000000000000 ) ) ;
#97 = COLOUR_RGB ( '',1.000000000000000000, 0.000000000000000000, 0.000000000000000000 ) ;
#98 = DIRECTION ( 'NONE',  ( 0.000000000000000000, 0.000000000000000000, -1.000000000000000000 ) ) ;
#99 = FILL_AREA_STYLE ('',( #305 ) ) ;
#100 = VERTEX_POINT ( 'NONE', #217 ) ;
#101 = STYLED_ITEM ( 'NONE', ( #26 ), #292 ) ;
#102 =( LENGTH_UNIT ( ) NAMED_UNIT ( * ) SI_UNIT ( $, .METRE. ) );
#103 = CIRCLE ( 'NONE', #309, 0.06250000000000000000 ) ;
#104 = CIRCLE ( 'NONE', #208, 0.06249999999999993755 ) ;
#105 = ORIENTED_EDGE ( 'NONE', *, *, #50, .F. ) ;
#106 =( GEOMETRIC_REPRESENTATION_CONTEXT ( 3 ) GLOBAL_UNCERTAINTY_ASSIGNED_CONTEXT ( ( #269 ) ) GLOBAL_UNIT_ASSIGNED_CONTEXT ( ( #199, #230, #179 ) ) REPRESENTATION_CONTEXT ( 'NONE', 'WORKASPACE' ) );
#107 = EDGE_CURVE ( 'NONE', #211, #24, #146, .T. ) ;
#108 =( CONVERSION_BASED_UNIT ( 'INCH', #2 ) LENGTH_UNIT ( ) NAMED_UNIT ( #140 ) );
#109 = PRODUCT_DEFINITION_SHAPE ( 'NONE', 'NONE',  #198 ) ;
#110 = CARTESIAN_POINT ( 'NONE',  ( 0.06250000000000000000, 0.8749999999999997780, 7.654042494670956004E-18 ) ) ;
#111 = DIRECTION ( 'NONE',  ( 3.768143997376474441E-17, 1.000000000000000000, -0.000000000000000000 ) ) ;
#112 = FACE_OUTER_BOUND ( 'NONE', #31, .T. ) ;
#113 = ORIENTED_EDGE ( 'NONE', *, *, #242, .T. ) ;
#114 = SURFACE_STYLE_USAGE ( .BOTH. , #95 ) ;
#115 = SURFACE_STYLE_USAGE ( .BOTH. , #138 ) ;
#116 = SURFACE_STYLE_FILL_AREA ( #70 ) ;
#117 = MANIFOLD_SOLID_BREP ( 'Revolve - Tool Body (Straight Shanked)', #296 ) ;
#118 = PRESENTATION_STYLE_ASSIGNMENT (( #115 ) ) ;
#119 = CLOSED_SHELL ( 'NONE', ( #292, #46, #161, #254 ) ) ;
#120 = FACE_OUTER_BOUND ( 'NONE', #281, .T. ) ;
#121 = MANIFOLD_SOLID_BREP ( 'Revolve - Cutting Edge', #119 ) ;
#122 = DIMENSIONAL_EXPONENTS ( 1.000000000000000000, 0.000000000000000000, 0.000000000000000000, 0.000000000000000000, 0.000000000000000000, 0.000000000000000000, 0.000000000000000000 ) ;
#123 = DIRECTION ( 'NONE',  ( 0.000000000000000000, 0.000000000000000000, -1.000000000000000000 ) ) ;
#124 = PRESENTATION_STYLE_ASSIGNMENT (( #78 ) ) ;
#125 = CIRCLE ( 'NONE', #73, 0.06250000000000000000 ) ;
#126 = EDGE_CURVE ( 'NONE', #205, #81, #153, .T. ) ;
#127 = ORIENTED_EDGE ( 'NONE', *, *, #126, .F. ) ;
#128 = COLOUR_RGB ( '',0.7921568627450980005, 0.8196078431372548767, 0.9333333333333333481 ) ;
#129 = EDGE_LOOP ( 'NONE', ( #127, #210, #239, #29 ) ) ;
#130 =( NAMED_UNIT ( * ) PLANE_ANGLE_UNIT ( ) SI_UNIT ( $, .RADIAN. ) );
#131 = CARTESIAN_POINT ( 'NONE',  ( 0.000000000000000000, 0.000000000000000000, 0.000000000000000000 ) ) ;
#132 = DIRECTION ( 'NONE',  ( -0.000000000000000000, -1.000000000000000000, -0.000000000000000000 ) ) ;
#133 = CARTESIAN_POINT ( 'NONE',  ( 6.123233995736772199E-17, 2.500000000000000000, 0.000000000000000000 ) ) ;
#134 = MECHANICAL_DESIGN_GEOMETRIC_PRESENTATION_REPRESENTATION (  '', ( #80 ), #88 ) ;
#135 = EDGE_CURVE ( 'NONE', #201, #205, #164, .T. ) ;
#136 = DIRECTION ( 'NONE',  ( -1.000000000000000000, 0.000000000000000000, 0.000000000000000000 ) ) ;
#137 = AXIS2_PLACEMENT_3D ( 'NONE', #96, #178, #251 ) ;
#138 = SURFACE_SIDE_STYLE ('',( #189 ) ) ;
#139 = CARTESIAN_POINT ( 'NONE',  ( 0.000000000000000000, 0.8750000000000000000, -0.06250000000000000000 ) ) ;
#140 = DIMENSIONAL_EXPONENTS ( 1.000000000000000000, 0.000000000000000000, 0.000000000000000000, 0.000000000000000000, 0.000000000000000000, 0.000000000000000000, 0.000000000000000000 ) ;
#141 = CARTESIAN_POINT ( 'NONE',  ( -0.06249999999999990286, 2.500000000000000000, 0.000000000000000000 ) ) ;
#142 = APPLICATION_PROTOCOL_DEFINITION ( 'draft international standard', 'automotive_design', 1998, #287 ) ;
#143 = SURFACE_STYLE_USAGE ( .BOTH. , #94 ) ;
#144 = VECTOR ( 'NONE', #248, 39.37007874015748143 ) ;
#145 = ADVANCED_FACE ( 'NONE', ( #274 ), #221, .F. ) ;
#146 = CIRCLE ( 'NONE', #207, 0.06250000000000000000 ) ;
#147 = EDGE_LOOP ( 'NONE', ( #295, #213 ) ) ;
#148 = ORIENTED_EDGE ( 'NONE', *, *, #180, .T. ) ;
#149 = DIRECTION ( 'NONE',  ( 3.768143997376474441E-17, 1.000000000000000000, -0.000000000000000000 ) ) ;
#150 = DIRECTION ( 'NONE',  ( 3.768143997376474441E-17, 1.000000000000000000, -0.000000000000000000 ) ) ;
#151 = EDGE_LOOP ( 'NONE', ( #268, #197 ) ) ;
#152 = DIRECTION ( 'NONE',  ( 3.768143997376474441E-17, 1.000000000000000000, -0.000000000000000000 ) ) ;
#153 = LINE ( 'NONE', #22, #301 ) ;
#154 = UNCERTAINTY_MEASURE_WITH_UNIT (LENGTH_MEASURE( 1.000000000000000082E-05 ), #83, 'distance_accuracy_value', 'NONE');
#155 = FILL_AREA_STYLE_COLOUR ( '', #14 ) ;
#156 =( LENGTH_UNIT ( ) NAMED_UNIT ( * ) SI_UNIT ( $, .METRE. ) );
#157 = DIRECTION ( 'NONE',  ( -0.000000000000000000, -1.000000000000000000, -0.000000000000000000 ) ) ;
#158 = LENGTH_MEASURE_WITH_UNIT ( LENGTH_MEASURE( 0.02539999999999999897 ), #156 );
#159 = SURFACE_STYLE_USAGE ( .BOTH. , #225 ) ;
#160 =( LENGTH_UNIT ( ) NAMED_UNIT ( * ) SI_UNIT ( $, .METRE. ) );
#161 = ADVANCED_FACE ( 'NONE', ( #13 ), #25, .T. ) ;
#162 = SURFACE_STYLE_FILL_AREA ( #48 ) ;
#163 = LENGTH_MEASURE_WITH_UNIT ( LENGTH_MEASURE( 0.02539999999999999897 ), #181 );
#164 = CIRCLE ( 'NONE', #37, 0.06250000000000000000 ) ;
#165 = ORIENTED_EDGE ( 'NONE', *, *, #242, .F. ) ;
#166 = VERTEX_POINT ( 'NONE', #288 ) ;
#167 = PRODUCT_DEFINITION_CONTEXT ( 'detailed design', #287, 'design' ) ;
#168 = ORIENTED_EDGE ( 'NONE', *, *, #126, .T. ) ;
#169 = PRESENTATION_LAYER_ASSIGNMENT (  '', '', ( #82 ) ) ;
#170 = DIRECTION ( 'NONE',  ( -1.000000000000000000, 0.000000000000000000, 0.000000000000000000 ) ) ;
#171 = CARTESIAN_POINT ( 'NONE',  ( 6.123233995736772199E-17, 2.500000000000000000, 0.000000000000000000 ) ) ;
#172 = DIRECTION ( 'NONE',  ( 0.000000000000000000, 0.000000000000000000, -1.000000000000000000 ) ) ;
#173 = ORIENTED_EDGE ( 'NONE', *, *, #107, .T. ) ;
#174 = UNCERTAINTY_MEASURE_WITH_UNIT (LENGTH_MEASURE( 1.000000000000000082E-05 ), #284, 'distance_accuracy_value', 'NONE');
#175 = LINE ( 'NONE', #267, #256 ) ;
#176 = AXIS2_PLACEMENT_3D ( 'NONE', #133, #150, #170 ) ;
#177 =( CONVERSION_BASED_UNIT ( 'INCH', #158 ) LENGTH_UNIT ( ) NAMED_UNIT ( #20 ) );
#178 = DIRECTION ( 'NONE',  ( 0.000000000000000000, 0.000000000000000000, 1.000000000000000000 ) ) ;
#179 =( NAMED_UNIT ( * ) SI_UNIT ( $, .STERADIAN. ) SOLID_ANGLE_UNIT ( ) );
#180 = EDGE_CURVE ( 'NONE', #24, #211, #279, .T. ) ;
#181 =( LENGTH_UNIT ( ) NAMED_UNIT ( * ) SI_UNIT ( $, .METRE. ) );
#182 =( NAMED_UNIT ( * ) PLANE_ANGLE_UNIT ( ) SI_UNIT ( $, .RADIAN. ) );
#183 = SURFACE_SIDE_STYLE ('',( #247 ) ) ;
#184 = COLOUR_RGB ( '',1.000000000000000000, 0.000000000000000000, 0.000000000000000000 ) ;
#185 = AXIS2_PLACEMENT_3D ( 'NONE', #235, #149, #90 ) ;
#186 = AXIS2_PLACEMENT_3D ( 'NONE', #71, #111, #190 ) ;
#187 =( NAMED_UNIT ( * ) SI_UNIT ( $, .STERADIAN. ) SOLID_ANGLE_UNIT ( ) );
#188 = VERTEX_POINT ( 'NONE', #195 ) ;
#189 = SURFACE_STYLE_FILL_AREA ( #87 ) ;
#190 = DIRECTION ( 'NONE',  ( -1.000000000000000000, 0.000000000000000000, 0.000000000000000000 ) ) ;
#191 = AXIS2_PLACEMENT_3D ( 'NONE', #91, #38, #265 ) ;
#192 = DIRECTION ( 'NONE',  ( 0.000000000000000000, -1.000000000000000000, -0.000000000000000000 ) ) ;
#193 = CARTESIAN_POINT ( 'NONE',  ( 0.000000000000000000, 0.8749999999999997780, 0.000000000000000000 ) ) ;
#194 = UNCERTAINTY_MEASURE_WITH_UNIT (LENGTH_MEASURE( 1.000000000000000082E-05 ), #45, 'distance_accuracy_value', 'NONE');
#195 = CARTESIAN_POINT ( 'NONE',  ( -0.06249999999999988204, 2.500000000000000000, 0.000000000000000000 ) ) ;
#196 = MECHANICAL_DESIGN_GEOMETRIC_PRESENTATION_REPRESENTATION (  '', ( #218 ), #266 ) ;
#197 = ORIENTED_EDGE ( 'NONE', *, *, #227, .F. ) ;
#198 = PRODUCT_DEFINITION ( 'UNKNOWN', '', #286, #167 ) ;
#199 =( CONVERSION_BASED_UNIT ( 'INCH', #163 ) LENGTH_UNIT ( ) NAMED_UNIT ( #294 ) );
#200 = AXIS2_PLACEMENT_3D ( 'NONE', #231, #203, #303 ) ;
#201 = VERTEX_POINT ( 'NONE', #139 ) ;
#202 =( NAMED_UNIT ( * ) SI_UNIT ( $, .STERADIAN. ) SOLID_ANGLE_UNIT ( ) );
#203 = DIRECTION ( 'NONE',  ( -3.768143997376474441E-17, -1.000000000000000000, 0.000000000000000000 ) ) ;
#204 = EDGE_CURVE ( 'NONE', #188, #166, #307, .T. ) ;
#205 = VERTEX_POINT ( 'NONE', #219 ) ;
#206 = FILL_AREA_STYLE_COLOUR ( '', #259 ) ;
#207 = AXIS2_PLACEMENT_3D ( 'NONE', #193, #289, #136 ) ;
#208 = AXIS2_PLACEMENT_3D ( 'NONE', #244, #152, #62 ) ;
#209 = MECHANICAL_DESIGN_GEOMETRIC_PRESENTATION_REPRESENTATION (  '', ( #255 ), #240 ) ;
#210 = ORIENTED_EDGE ( 'NONE', *, *, #227, .T. ) ;
#211 = VERTEX_POINT ( 'NONE', #110 ) ;
#212 = AXIS2_PLACEMENT_3D ( 'NONE', #34, #40, #262 ) ;
#213 = ORIENTED_EDGE ( 'NONE', *, *, #245, .T. ) ;
#214 = ADVANCED_FACE ( 'NONE', ( #17 ), #222, .F. ) ;
#215 = DIRECTION ( 'NONE',  ( -0.000000000000000000, -1.000000000000000000, -0.000000000000000000 ) ) ;
#216 = DIRECTION ( 'NONE',  ( -0.000000000000000000, -1.000000000000000000, -0.000000000000000000 ) ) ;
#217 = CARTESIAN_POINT ( 'NONE',  ( 0.000000000000000000, 0.000000000000000000, -0.06250000000000000000 ) ) ;
#218 = STYLED_ITEM ( 'NONE', ( #249 ), #121 ) ;
#219 = CARTESIAN_POINT ( 'NONE',  ( 7.654042494670957545E-18, 0.8750000000000000000, 0.06250000000000000000 ) ) ;
#220 = FILL_AREA_STYLE ('',( #243 ) ) ;
#221 = PLANE ( 'NONE',  #200 ) ;
#222 = PLANE ( 'NONE',  #212 ) ;
#223 = DIRECTION ( 'NONE',  ( 3.768143997376474441E-17, 1.000000000000000000, -0.000000000000000000 ) ) ;
#224 = CARTESIAN_POINT ( 'NONE',  ( 0.000000000000000000, 0.000000000000000000, 0.000000000000000000 ) ) ;
#225 = SURFACE_SIDE_STYLE ('',( #277 ) ) ;
#226 = SHAPE_DEFINITION_REPRESENTATION ( #109, #233 ) ;
#227 = EDGE_CURVE ( 'NONE', #205, #201, #103, .T. ) ;
#228 = EDGE_CURVE ( 'NONE', #211, #166, #264, .T. ) ;
#229 =( NAMED_UNIT ( * ) PLANE_ANGLE_UNIT ( ) SI_UNIT ( $, .RADIAN. ) );
#230 =( NAMED_UNIT ( * ) PLANE_ANGLE_UNIT ( ) SI_UNIT ( $, .RADIAN. ) );
#231 = CARTESIAN_POINT ( 'NONE',  ( 0.06250000000000000000, 2.500000000000000000, 0.000000000000000000 ) ) ;
#232 = LENGTH_MEASURE_WITH_UNIT ( LENGTH_MEASURE( 0.02539999999999999897 ), #252 );
#233 = ADVANCED_BREP_SHAPE_REPRESENTATION ( '83407', ( #121, #117, #137 ), #53 ) ;
#234 = PRODUCT_RELATED_PRODUCT_CATEGORY ( 'part', '', ( #77 ) ) ;
#235 = CARTESIAN_POINT ( 'NONE',  ( 0.000000000000000000, 0.8749999999999997780, 0.000000000000000000 ) ) ;
#236 = PRESENTATION_STYLE_ASSIGNMENT (( #114 ) ) ;
#237 = LENGTH_MEASURE_WITH_UNIT ( LENGTH_MEASURE( 0.02539999999999999897 ), #278 );
#238 = PLANE ( 'NONE',  #5 ) ;
#239 = ORIENTED_EDGE ( 'NONE', *, *, #280, .T. ) ;
#240 =( GEOMETRIC_REPRESENTATION_CONTEXT ( 3 ) GLOBAL_UNCERTAINTY_ASSIGNED_CONTEXT ( ( #174 ) ) GLOBAL_UNIT_ASSIGNED_CONTEXT ( ( #284, #291, #241 ) ) REPRESENTATION_CONTEXT ( 'NONE', 'WORKASPACE' ) );
#241 =( NAMED_UNIT ( * ) SI_UNIT ( $, .STERADIAN. ) SOLID_ANGLE_UNIT ( ) );
#242 = EDGE_CURVE ( 'NONE', #100, #81, #68, .T. ) ;
#243 = FILL_AREA_STYLE_COLOUR ( '', #128 ) ;
#244 = CARTESIAN_POINT ( 'NONE',  ( 6.123233995736772199E-17, 2.500000000000000000, 0.000000000000000000 ) ) ;
#245 = EDGE_CURVE ( 'NONE', #166, #188, #104, .T. ) ;
#246 = ORIENTED_EDGE ( 'NONE', *, *, #107, .F. ) ;
#247 = SURFACE_STYLE_FILL_AREA ( #99 ) ;
#248 = DIRECTION ( 'NONE',  ( 3.768143997376474441E-17, 1.000000000000000000, -0.000000000000000000 ) ) ;
#249 = PRESENTATION_STYLE_ASSIGNMENT (( #159 ) ) ;
#250 = VECTOR ( 'NONE', #223, 39.37007874015748143 ) ;
#251 = DIRECTION ( 'NONE',  ( 1.000000000000000000, 0.000000000000000000, 0.000000000000000000 ) ) ;
#252 =( LENGTH_UNIT ( ) NAMED_UNIT ( * ) SI_UNIT ( $, .METRE. ) );
#253 = FILL_AREA_STYLE_COLOUR ( '', #184 ) ;
#254 = ADVANCED_FACE ( 'NONE', ( #112 ), #238, .T. ) ;
#255 = STYLED_ITEM ( 'NONE', ( #118 ), #254 ) ;
#256 = VECTOR ( 'NONE', #67, 39.37007874015748143 ) ;
#257 = PRESENTATION_LAYER_ASSIGNMENT (  '', '', ( #218 ) ) ;
#258 = ORIENTED_EDGE ( 'NONE', *, *, #228, .T. ) ;
#259 = COLOUR_RGB ( '',0.7921568627450980005, 0.8196078431372548767, 0.9333333333333333481 ) ;
#260 =( LENGTH_UNIT ( ) NAMED_UNIT ( * ) SI_UNIT ( $, .METRE. ) );
#261 = FACE_OUTER_BOUND ( 'NONE', #4, .T. ) ;
#262 = DIRECTION ( 'NONE',  ( -1.000000000000000000, 3.768143997376474441E-17, 0.000000000000000000 ) ) ;
#263 = DIRECTION ( 'NONE',  ( 3.768143997376474441E-17, 1.000000000000000000, -0.000000000000000000 ) ) ;
#264 = LINE ( 'NONE', #297, #144 ) ;
#265 = DIRECTION ( 'NONE',  ( 0.000000000000000000, -0.000000000000000000, 1.000000000000000000 ) ) ;
#266 =( GEOMETRIC_REPRESENTATION_CONTEXT ( 3 ) GLOBAL_UNCERTAINTY_ASSIGNED_CONTEXT ( ( #154 ) ) GLOBAL_UNIT_ASSIGNED_CONTEXT ( ( #83, #27, #75 ) ) REPRESENTATION_CONTEXT ( 'NONE', 'WORKASPACE' ) );
#267 = CARTESIAN_POINT ( 'NONE',  ( 0.000000000000000000, 0.000000000000000000, -0.06250000000000000000 ) ) ;
#268 = ORIENTED_EDGE ( 'NONE', *, *, #135, .F. ) ;
#269 = UNCERTAINTY_MEASURE_WITH_UNIT (LENGTH_MEASURE( 1.000000000000000082E-05 ), #199, 'distance_accuracy_value', 'NONE');
#270 = CYLINDRICAL_SURFACE ( 'NONE', #186, 0.06249999999999996531 ) ;
#271 = CYLINDRICAL_SURFACE ( 'NONE', #32, 0.06250000000000000000 ) ;
#272 = ORIENTED_EDGE ( 'NONE', *, *, #245, .F. ) ;
#273 = LENGTH_MEASURE_WITH_UNIT ( LENGTH_MEASURE( 0.02539999999999999897 ), #160 );
#274 = FACE_OUTER_BOUND ( 'NONE', #147, .T. ) ;
#275 = MECHANICAL_DESIGN_GEOMETRIC_PRESENTATION_REPRESENTATION (  '', ( #101 ), #106 ) ;
#276 = PRESENTATION_LAYER_ASSIGNMENT (  '', '', ( #8 ) ) ;
#277 = SURFACE_STYLE_FILL_AREA ( #306 ) ;
#278 =( LENGTH_UNIT ( ) NAMED_UNIT ( * ) SI_UNIT ( $, .METRE. ) );
#279 = CIRCLE ( 'NONE', #185, 0.06250000000000000000 ) ;
#280 = EDGE_CURVE ( 'NONE', #201, #100, #175, .T. ) ;
#281 = EDGE_LOOP ( 'NONE', ( #148, #258, #33, #105 ) ) ;
#282 = ORIENTED_EDGE ( 'NONE', *, *, #228, .F. ) ;
#283 = PRESENTATION_LAYER_ASSIGNMENT (  '', '', ( #101 ) ) ;
#284 =( CONVERSION_BASED_UNIT ( 'INCH', #293 ) LENGTH_UNIT ( ) NAMED_UNIT ( #290 ) );
#285 = FACE_OUTER_BOUND ( 'NONE', #151, .T. ) ;
#286 = PRODUCT_DEFINITION_FORMATION_WITH_SPECIFIED_SOURCE ( 'ANY', '', #77, .NOT_KNOWN. ) ;
#287 = APPLICATION_CONTEXT ( 'automotive_design' ) ;
#288 = CARTESIAN_POINT ( 'NONE',  ( 0.06250000000000000000, 2.500000000000000000, 7.654042494670956004E-18 ) ) ;
#289 = DIRECTION ( 'NONE',  ( 3.768143997376474441E-17, 1.000000000000000000, -0.000000000000000000 ) ) ;
#290 = DIMENSIONAL_EXPONENTS ( 1.000000000000000000, 0.000000000000000000, 0.000000000000000000, 0.000000000000000000, 0.000000000000000000, 0.000000000000000000, 0.000000000000000000 ) ;
#291 =( NAMED_UNIT ( * ) PLANE_ANGLE_UNIT ( ) SI_UNIT ( $, .RADIAN. ) );
#292 = ADVANCED_FACE ( 'NONE', ( #302 ), #271, .T. ) ;
#293 = LENGTH_MEASURE_WITH_UNIT ( LENGTH_MEASURE( 0.02539999999999999897 ), #260 );
#294 = DIMENSIONAL_EXPONENTS ( 1.000000000000000000, 0.000000000000000000, 0.000000000000000000, 0.000000000000000000, 0.000000000000000000, 0.000000000000000000, 0.000000000000000000 ) ;
#295 = ORIENTED_EDGE ( 'NONE', *, *, #204, .T. ) ;
#296 = CLOSED_SHELL ( 'NONE', ( #55, #214, #63, #145 ) ) ;
#297 = CARTESIAN_POINT ( 'NONE',  ( 0.06250000000000002776, 2.500000000000000000, 7.654042494670954463E-18 ) ) ;
#298 = CARTESIAN_POINT ( 'NONE',  ( -0.06250000000000000000, 0.8749999999999997780, 0.000000000000000000 ) ) ;
#299 =( CONVERSION_BASED_UNIT ( 'INCH', #273 ) LENGTH_UNIT ( ) NAMED_UNIT ( #11 ) );
#300 = PRESENTATION_STYLE_ASSIGNMENT (( #49 ) ) ;
#301 = VECTOR ( 'NONE', #66, 39.37007874015748143 ) ;
#302 = FACE_OUTER_BOUND ( 'NONE', #86, .T. ) ;
#303 = DIRECTION ( 'NONE',  ( 1.000000000000000000, -3.768143997376474441E-17, 0.000000000000000000 ) ) ;
#304 =( NAMED_UNIT ( * ) SI_UNIT ( $, .STERADIAN. ) SOLID_ANGLE_UNIT ( ) );
#305 = FILL_AREA_STYLE_COLOUR ( '', #47 ) ;
#306 = FILL_AREA_STYLE ('',( #206 ) ) ;
#307 = CIRCLE ( 'NONE', #176, 0.06249999999999993755 ) ;
#308 = UNCERTAINTY_MEASURE_WITH_UNIT (LENGTH_MEASURE( 1.000000000000000082E-05 ), #299, 'distance_accuracy_value', 'NONE');
#309 = AXIS2_PLACEMENT_3D ( 'NONE', #7, #10, #60 ) ;
ENDSEC;
END-ISO-10303-21;
