ISO-10303-21;
HEADER;
FILE_DESCRIPTION (( 'STEP AP214' ),
    '1' );
FILE_NAME ('Micro_AMRM-009-2X.STEP',
    '2021-09-01T17:11:39',
    ( '' ),
    ( '' ),
    'SwSTEP 2.0',
    'SolidWorks 2020',
    '' );
FILE_SCHEMA (( 'AUTOMOTIVE_DESIGN' ));
ENDSEC;

DATA;
#1 = DIRECTION ( 'NONE',  ( -1.224646799147353207E-16, -0.0000000000000000000, -1.000000000000000000 ) ) ;
#2 =( NAMED_UNIT ( * ) SI_UNIT ( $, .STERADIAN. ) SOLID_ANGLE_UNIT ( ) );
#3 = AXIS2_PLACEMENT_3D ( 'NONE', #207, #138, #191 ) ;
#4 = ORIENTED_EDGE ( 'NONE', *, *, #51, .T. ) ;
#5 = LINE ( 'NONE', #236, #295 ) ;
#6 = CARTESIAN_POINT ( 'NONE',  ( 0.0000000000000000000, 0.0000000000000000000, 1.968503999999999809 ) ) ;
#7 = EDGE_CURVE ( 'NONE', #237, #19, #243, .T. ) ;
#8 = ORIENTED_EDGE ( 'NONE', *, *, #25, .T. ) ;
#9 = AXIS2_PLACEMENT_3D ( 'NONE', #177, #35, #36 ) ;
#10 = ORIENTED_EDGE ( 'NONE', *, *, #239, .F. ) ;
#11 =( GEOMETRIC_REPRESENTATION_CONTEXT ( 3 ) GLOBAL_UNCERTAINTY_ASSIGNED_CONTEXT ( ( #163 ) ) GLOBAL_UNIT_ASSIGNED_CONTEXT ( ( #83, #14, #66 ) ) REPRESENTATION_CONTEXT ( 'NONE', 'WORKASPACE' ) );
#12 = CARTESIAN_POINT ( 'NONE',  ( 0.0000000000000000000, 0.0000000000000000000, 1.968503999999999809 ) ) ;
#13 = CARTESIAN_POINT ( 'NONE',  ( 0.01769878350000001280, 0.0000000000000000000, 0.1062990000000000046 ) ) ;
#14 =( NAMED_UNIT ( * ) PLANE_ANGLE_UNIT ( ) SI_UNIT ( $, .RADIAN. ) );
#15 = VERTEX_POINT ( 'NONE', #67 ) ;
#16 = CARTESIAN_POINT ( 'NONE',  ( 2.654392369533927398E-34, 0.0000000000000000000, 2.167475856207698752E-18 ) ) ;
#17 = ADVANCED_BREP_SHAPE_REPRESENTATION ( 'Micro_AMRM-009-2X', ( #230, #95 ), #223 ) ;
#18 = CARTESIAN_POINT ( 'NONE',  ( 5.541293365408478656E-17, 0.0000000000000000000, 0.4524809413837967975 ) ) ;
#19 = VERTEX_POINT ( 'NONE', #106 ) ;
#20 = CONICAL_SURFACE ( 'NONE', #296, 0.06374000000000018540, 0.7853981633974528309 ) ;
#21 = PLANE ( 'NONE',  #71 ) ;
#22 = EDGE_CURVE ( 'NONE', #19, #146, #144, .T. ) ;
#23 = EDGE_CURVE ( 'NONE', #218, #65, #69, .T. ) ;
#24 = DIRECTION ( 'NONE',  ( 0.0000000000000000000, 0.0000000000000000000, 1.000000000000000000 ) ) ;
#25 = EDGE_CURVE ( 'NONE', #15, #268, #214, .T. ) ;
#26 = VECTOR ( 'NONE', #58, 39.37007874015748143 ) ;
#27 = VECTOR ( 'NONE', #30, 39.37007874015748143 ) ;
#28 = VERTEX_POINT ( 'NONE', #86 ) ;
#29 = DIRECTION ( 'NONE',  ( 0.0000000000000000000, 0.0000000000000000000, -1.000000000000000000 ) ) ;
#30 = DIRECTION ( 'NONE',  ( -0.7071067811865507924, 0.0000000000000000000, -0.7071067811865443531 ) ) ;
#31 = AXIS2_PLACEMENT_3D ( 'NONE', #228, #97, #116 ) ;
#32 = ORIENTED_EDGE ( 'NONE', *, *, #255, .F. ) ;
#33 = DIRECTION ( 'NONE',  ( -1.224646799147353207E-16, -0.0000000000000000000, -1.000000000000000000 ) ) ;
#34 = DIRECTION ( 'NONE',  ( -1.224646799147353207E-16, -0.0000000000000000000, -1.000000000000000000 ) ) ;
#35 = DIRECTION ( 'NONE',  ( 0.0000000000000000000, 0.0000000000000000000, -1.000000000000000000 ) ) ;
#36 = DIRECTION ( 'NONE',  ( 1.000000000000000000, 0.0000000000000000000, 0.0000000000000000000 ) ) ;
#37 =( GEOMETRIC_REPRESENTATION_CONTEXT ( 3 ) GLOBAL_UNCERTAINTY_ASSIGNED_CONTEXT ( ( #234 ) ) GLOBAL_UNIT_ASSIGNED_CONTEXT ( ( #186, #281, #2 ) ) REPRESENTATION_CONTEXT ( 'NONE', 'WORKASPACE' ) );
#38 = APPLICATION_CONTEXT ( 'automotive_design' ) ;
#39 = CARTESIAN_POINT ( 'NONE',  ( -0.06374000000000018540, 0.0000000000000000000, 1.968503999999999809 ) ) ;
#40 = DIRECTION ( 'NONE',  ( -1.000000000000000000, 0.0000000000000000000, 0.0000000000000000000 ) ) ;
#41 = CARTESIAN_POINT ( 'NONE',  ( 0.0000000000000000000, 0.0000000000000000000, 1.968503999999999809 ) ) ;
#42 = AXIS2_PLACEMENT_3D ( 'NONE', #290, #200, #246 ) ;
#43 = DIMENSIONAL_EXPONENTS ( 1.000000000000000000, 0.0000000000000000000, 0.0000000000000000000, 0.0000000000000000000, 0.0000000000000000000, 0.0000000000000000000, 0.0000000000000000000 ) ;
#44 = FACE_OUTER_BOUND ( 'NONE', #107, .T. ) ;
#45 = UNCERTAINTY_MEASURE_WITH_UNIT (LENGTH_MEASURE( 1.000000000000000082E-05 ), #55, 'distance_accuracy_value', 'NONE');
#46 = CIRCLE ( 'NONE', #263, 0.01769878349999999892 ) ;
#47 = ADVANCED_FACE ( 'NONE', ( #88 ), #157, .T. ) ;
#48 = FILL_AREA_STYLE_COLOUR ( '', #76 ) ;
#49 = FACE_OUTER_BOUND ( 'NONE', #100, .T. ) ;
#50 = ORIENTED_EDGE ( 'NONE', *, *, #117, .T. ) ;
#51 = EDGE_CURVE ( 'NONE', #268, #15, #91, .T. ) ;
#52 = LENGTH_MEASURE_WITH_UNIT ( LENGTH_MEASURE( 0.02539999999999999897 ), #68 );
#53 = AXIS2_PLACEMENT_3D ( 'NONE', #109, #221, #178 ) ;
#54 = CONICAL_SURFACE ( 'NONE', #282, 0.01769878349999999892, 0.1745329251994338637 ) ;
#55 =( CONVERSION_BASED_UNIT ( 'INCH', #264 ) LENGTH_UNIT ( ) NAMED_UNIT ( #43 ) );
#56 = CONICAL_SURFACE ( 'NONE', #137, 0.06374000000000018540, 0.7853981633974528309 ) ;
#57 = ORIENTED_EDGE ( 'NONE', *, *, #23, .F. ) ;
#58 = DIRECTION ( 'NONE',  ( 0.1736481776669313581, 0.0000000000000000000, 0.9848077530122077983 ) ) ;
#59 = CARTESIAN_POINT ( 'NONE',  ( -0.07874000000000001831, 0.0000000000000000000, 1.953504000000000129 ) ) ;
#60 = DIRECTION ( 'NONE',  ( 0.0000000000000000000, 0.0000000000000000000, -1.000000000000000000 ) ) ;
#61 = APPLICATION_PROTOCOL_DEFINITION ( 'draft international standard', 'automotive_design', 1998, #38 ) ;
#62 = ORIENTED_EDGE ( 'NONE', *, *, #119, .T. ) ;
#63 = VECTOR ( 'NONE', #135, 39.37007874015748143 ) ;
#64 = ADVANCED_FACE ( 'NONE', ( #180 ), #270, .F. ) ;
#65 = VERTEX_POINT ( 'NONE', #274 ) ;
#66 =( NAMED_UNIT ( * ) SI_UNIT ( $, .STERADIAN. ) SOLID_ANGLE_UNIT ( ) );
#67 = CARTESIAN_POINT ( 'NONE',  ( 0.07874000000000001831, 9.642868896486260050E-18, 1.953504000000000129 ) ) ;
#68 =( LENGTH_UNIT ( ) NAMED_UNIT ( * ) SI_UNIT ( $, .METRE. ) );
#69 = CIRCLE ( 'NONE', #72, 0.01769878349999999892 ) ;
#70 = CIRCLE ( 'NONE', #114, 0.01769878349999999892 ) ;
#71 = AXIS2_PLACEMENT_3D ( 'NONE', #41, #24, #187 ) ;
#72 = AXIS2_PLACEMENT_3D ( 'NONE', #16, #33, #193 ) ;
#73 = DIRECTION ( 'NONE',  ( 1.000000000000000000, 0.0000000000000000000, 0.0000000000000000000 ) ) ;
#74 = DIRECTION ( 'NONE',  ( -0.1736481776669311639, 2.126576849575783008E-17, 0.9848077530122080203 ) ) ;
#75 = DIRECTION ( 'NONE',  ( 1.224646799147353207E-16, 0.0000000000000000000, 1.000000000000000000 ) ) ;
#76 = COLOUR_RGB ( '',0.7921568627450980005, 0.8196078431372548767, 0.9333333333333333481 ) ;
#77 = ORIENTED_EDGE ( 'NONE', *, *, #201, .T. ) ;
#78 = LINE ( 'NONE', #150, #247 ) ;
#79 = ORIENTED_EDGE ( 'NONE', *, *, #167, .F. ) ;
#80 =( NAMED_UNIT ( * ) PLANE_ANGLE_UNIT ( ) SI_UNIT ( $, .RADIAN. ) );
#81 = EDGE_CURVE ( 'NONE', #28, #15, #198, .T. ) ;
#82 = ORIENTED_EDGE ( 'NONE', *, *, #23, .T. ) ;
#83 =( CONVERSION_BASED_UNIT ( 'INCH', #105 ) LENGTH_UNIT ( ) NAMED_UNIT ( #195 ) );
#84 = CIRCLE ( 'NONE', #205, 0.06374000000000018540 ) ;
#85 = CONICAL_SURFACE ( 'NONE', #132, 0.01769878349999999892, 0.1745329251994338637 ) ;
#86 = CARTESIAN_POINT ( 'NONE',  ( 0.06374000000000018540, 8.724383797125754882E-18, 1.968503999999999809 ) ) ;
#87 = APPLICATION_PROTOCOL_DEFINITION ( 'draft international standard', 'automotive_design', 1998, #271 ) ;
#88 = FACE_OUTER_BOUND ( 'NONE', #224, .T. ) ;
#89 = DIRECTION ( 'NONE',  ( -0.0000000000000000000, -0.0000000000000000000, -1.000000000000000000 ) ) ;
#90 = DIRECTION ( 'NONE',  ( 0.0000000000000000000, 0.0000000000000000000, -1.000000000000000000 ) ) ;
#91 = CIRCLE ( 'NONE', #9, 0.07874000000000001831 ) ;
#92 = EDGE_LOOP ( 'NONE', ( #277, #159, #240, #276 ) ) ;
#93 = DIRECTION ( 'NONE',  ( 0.0000000000000000000, 0.0000000000000000000, 1.000000000000000000 ) ) ;
#94 = DIRECTION ( 'NONE',  ( -1.000000000000000000, 0.0000000000000000000, 0.0000000000000000000 ) ) ;
#95 = AXIS2_PLACEMENT_3D ( 'NONE', #204, #93, #225 ) ;
#96 = PRODUCT_RELATED_PRODUCT_CATEGORY ( 'part', '', ( #111 ) ) ;
#97 = DIRECTION ( 'NONE',  ( -1.224646799147353207E-16, -0.0000000000000000000, -1.000000000000000000 ) ) ;
#98 = AXIS2_PLACEMENT_3D ( 'NONE', #162, #60, #130 ) ;
#99 = CARTESIAN_POINT ( 'NONE',  ( -0.07873999999999996280, 0.0000000000000000000, 0.4524809413837967975 ) ) ;
#100 = EDGE_LOOP ( 'NONE', ( #227, #292 ) ) ;
#101 = CARTESIAN_POINT ( 'NONE',  ( 5.541293365408478656E-17, 0.0000000000000000000, 0.4524809413837967975 ) ) ;
#102 = CARTESIAN_POINT ( 'NONE',  ( -0.01769878349999998851, 5.905172376346980171E-18, 0.1062990000000000046 ) ) ;
#103 = DIRECTION ( 'NONE',  ( -0.0000000000000000000, -0.0000000000000000000, -1.000000000000000000 ) ) ;
#104 = FILL_AREA_STYLE ('',( #220 ) ) ;
#105 = LENGTH_MEASURE_WITH_UNIT ( LENGTH_MEASURE( 0.02539999999999999897 ), #217 );
#106 = CARTESIAN_POINT ( 'NONE',  ( 0.07874000000000007382, 9.642868896486266213E-18, 0.4524809413837967975 ) ) ;
#107 = EDGE_LOOP ( 'NONE', ( #261, #8, #196, #265 ) ) ;
#108 = DIRECTION ( 'NONE',  ( 0.0000000000000000000, 0.0000000000000000000, 1.000000000000000000 ) ) ;
#109 = CARTESIAN_POINT ( 'NONE',  ( 0.0000000000000000000, 0.0000000000000000000, 0.0000000000000000000 ) ) ;
#110 = DIRECTION ( 'NONE',  ( 1.000000000000000000, 0.0000000000000000000, 0.0000000000000000000 ) ) ;
#111 = PRODUCT ( 'Micro_AMRM-009-2X', 'Micro_AMRM-009-2X', '', ( #179 ) ) ;
#112 = CIRCLE ( 'NONE', #152, 0.01769878349999999892 ) ;
#113 = DIRECTION ( 'NONE',  ( -1.224646799147353207E-16, -0.0000000000000000000, -1.000000000000000000 ) ) ;
#114 = AXIS2_PLACEMENT_3D ( 'NONE', #171, #272, #170 ) ;
#115 = AXIS2_PLACEMENT_3D ( 'NONE', #131, #108, #197 ) ;
#116 = DIRECTION ( 'NONE',  ( -1.000000000000000000, 0.0000000000000000000, 1.224646799147353207E-16 ) ) ;
#117 = EDGE_CURVE ( 'NONE', #15, #19, #293, .T. ) ;
#118 = PRESENTATION_STYLE_ASSIGNMENT (( #232 ) ) ;
#119 = EDGE_CURVE ( 'NONE', #237, #218, #161, .T. ) ;
#120 = PRESENTATION_LAYER_ASSIGNMENT (  '', '', ( #254 ) ) ;
#121 = FACE_OUTER_BOUND ( 'NONE', #129, .T. ) ;
#122 = VERTEX_POINT ( 'NONE', #39 ) ;
#123 = DIRECTION ( 'NONE',  ( 1.224646799147353207E-16, 0.0000000000000000000, 1.000000000000000000 ) ) ;
#124 = ORIENTED_EDGE ( 'NONE', *, *, #7, .T. ) ;
#125 = CARTESIAN_POINT ( 'NONE',  ( -0.06374000000000018540, 0.0000000000000000000, 1.968503999999999809 ) ) ;
#126 = ADVANCED_FACE ( 'NONE', ( #134 ), #56, .T. ) ;
#127 = EDGE_LOOP ( 'NONE', ( #172, #273, #297, #57 ) ) ;
#128 = CARTESIAN_POINT ( 'NONE',  ( 1.301787301025644899E-17, 0.0000000000000000000, 0.1062990000000000046 ) ) ;
#129 = EDGE_LOOP ( 'NONE', ( #287, #62, #143, #10 ) ) ;
#130 = DIRECTION ( 'NONE',  ( 1.000000000000000000, 0.0000000000000000000, 0.0000000000000000000 ) ) ;
#131 = CARTESIAN_POINT ( 'NONE',  ( 0.0000000000000000000, 0.0000000000000000000, 1.968503999999999809 ) ) ;
#132 = AXIS2_PLACEMENT_3D ( 'NONE', #128, #75, #212 ) ;
#133 = VERTEX_POINT ( 'NONE', #102 ) ;
#134 = FACE_OUTER_BOUND ( 'NONE', #215, .T. ) ;
#135 = DIRECTION ( 'NONE',  ( -1.224646799147353207E-16, -0.0000000000000000000, -1.000000000000000000 ) ) ;
#136 = EDGE_CURVE ( 'NONE', #146, #19, #181, .T. ) ;
#137 = AXIS2_PLACEMENT_3D ( 'NONE', #226, #90, #40 ) ;
#138 = DIRECTION ( 'NONE',  ( -0.0000000000000000000, -0.0000000000000000000, -1.000000000000000000 ) ) ;
#139 = CARTESIAN_POINT ( 'NONE',  ( 0.0000000000000000000, 0.0000000000000000000, 0.0000000000000000000 ) ) ;
#140 = ADVANCED_FACE ( 'NONE', ( #44 ), #233, .T. ) ;
#141 = CARTESIAN_POINT ( 'NONE',  ( 0.01769878349999999892, 2.167475856207698752E-18, 0.0000000000000000000 ) ) ;
#142 = FILL_AREA_STYLE ('',( #48 ) ) ;
#143 = ORIENTED_EDGE ( 'NONE', *, *, #201, .F. ) ;
#144 = CIRCLE ( 'NONE', #275, 0.07874000000000001831 ) ;
#145 = CARTESIAN_POINT ( 'NONE',  ( 1.301787301025644899E-17, 0.0000000000000000000, 0.1062990000000000046 ) ) ;
#146 = VERTEX_POINT ( 'NONE', #99 ) ;
#147 =( NAMED_UNIT ( * ) SI_UNIT ( $, .STERADIAN. ) SOLID_ANGLE_UNIT ( ) );
#148 = PRODUCT_DEFINITION ( 'UNKNOWN', '', #206, #165 ) ;
#149 = EDGE_LOOP ( 'NONE', ( #77, #82 ) ) ;
#150 = CARTESIAN_POINT ( 'NONE',  ( -0.01769878349999999892, 0.0000000000000000000, 2.167475856207698752E-18 ) ) ;
#151 = ORIENTED_EDGE ( 'NONE', *, *, #81, .T. ) ;
#152 = AXIS2_PLACEMENT_3D ( 'NONE', #203, #229, #94 ) ;
#153 = SURFACE_STYLE_USAGE ( .BOTH. , #192 ) ;
#154 = CIRCLE ( 'NONE', #115, 0.06374000000000018540 ) ;
#155 = ORIENTED_EDGE ( 'NONE', *, *, #22, .T. ) ;
#156 = CARTESIAN_POINT ( 'NONE',  ( -0.07874000000000001831, 0.0000000000000000000, 1.968503999999999809 ) ) ;
#157 = CYLINDRICAL_SURFACE ( 'NONE', #42, 0.07874000000000001831 ) ;
#158 = FACE_OUTER_BOUND ( 'NONE', #190, .T. ) ;
#159 = ORIENTED_EDGE ( 'NONE', *, *, #231, .T. ) ;
#160 = AXIS2_PLACEMENT_3D ( 'NONE', #101, #189, #168 ) ;
#161 = LINE ( 'NONE', #249, #63 ) ;
#162 = CARTESIAN_POINT ( 'NONE',  ( 0.0000000000000000000, 0.0000000000000000000, 1.953504000000000129 ) ) ;
#163 = UNCERTAINTY_MEASURE_WITH_UNIT (LENGTH_MEASURE( 1.000000000000000082E-05 ), #83, 'distance_accuracy_value', 'NONE');
#164 = CYLINDRICAL_SURFACE ( 'NONE', #280, 0.01769878349999999892 ) ;
#165 = PRODUCT_DEFINITION_CONTEXT ( 'detailed design', #38, 'design' ) ;
#166 = CYLINDRICAL_SURFACE ( 'NONE', #31, 0.01769878349999999892 ) ;
#167 = EDGE_CURVE ( 'NONE', #122, #28, #84, .T. ) ;
#168 = DIRECTION ( 'NONE',  ( 1.000000000000000000, 0.0000000000000000000, 0.0000000000000000000 ) ) ;
#169 = EDGE_LOOP ( 'NONE', ( #202, #79, #173, #188 ) ) ;
#170 = DIRECTION ( 'NONE',  ( -1.000000000000000000, 0.0000000000000000000, 0.0000000000000000000 ) ) ;
#171 = CARTESIAN_POINT ( 'NONE',  ( 1.301787301025644899E-17, 0.0000000000000000000, 0.1062990000000000046 ) ) ;
#172 = ORIENTED_EDGE ( 'NONE', *, *, #119, .F. ) ;
#173 = ORIENTED_EDGE ( 'NONE', *, *, #278, .T. ) ;
#174 = STYLED_ITEM ( 'NONE', ( #118 ), #230 ) ;
#175 = LINE ( 'NONE', #125, #27 ) ;
#176 = COLOUR_RGB ( '',0.7921568627450980005, 0.8196078431372548767, 0.9333333333333333481 ) ;
#177 = CARTESIAN_POINT ( 'NONE',  ( 0.0000000000000000000, 0.0000000000000000000, 1.953504000000000129 ) ) ;
#178 = DIRECTION ( 'NONE',  ( 1.000000000000000000, 0.0000000000000000000, -0.0000000000000000000 ) ) ;
#179 = PRODUCT_CONTEXT ( 'NONE', #271, 'mechanical' ) ;
#180 = FACE_OUTER_BOUND ( 'NONE', #149, .T. ) ;
#181 = CIRCLE ( 'NONE', #160, 0.07874000000000001831 ) ;
#182 = MECHANICAL_DESIGN_GEOMETRIC_PRESENTATION_REPRESENTATION (  '', ( #254 ), #11 ) ;
#183 = CARTESIAN_POINT ( 'NONE',  ( 0.07874000000000001831, 9.642868896486260050E-18, 1.968503999999999809 ) ) ;
#184 = ORIENTED_EDGE ( 'NONE', *, *, #252, .F. ) ;
#185 = SURFACE_STYLE_FILL_AREA ( #142 ) ;
#186 =( CONVERSION_BASED_UNIT ( 'INCH', #52 ) LENGTH_UNIT ( ) NAMED_UNIT ( #248 ) );
#187 = DIRECTION ( 'NONE',  ( 1.000000000000000000, 0.0000000000000000000, -0.0000000000000000000 ) ) ;
#188 = ORIENTED_EDGE ( 'NONE', *, *, #25, .F. ) ;
#189 = DIRECTION ( 'NONE',  ( -1.224646799147353207E-16, -0.0000000000000000000, -1.000000000000000000 ) ) ;
#190 = EDGE_LOOP ( 'NONE', ( #244, #213, #124, #155 ) ) ;
#191 = DIRECTION ( 'NONE',  ( -1.000000000000000000, 0.0000000000000000000, 0.0000000000000000000 ) ) ;
#192 = SURFACE_SIDE_STYLE ('',( #291 ) ) ;
#193 = DIRECTION ( 'NONE',  ( -1.000000000000000000, 0.0000000000000000000, 1.224646799147353207E-16 ) ) ;
#194 = LINE ( 'NONE', #156, #257 ) ;
#195 = DIMENSIONAL_EXPONENTS ( 1.000000000000000000, 0.0000000000000000000, 0.0000000000000000000, 0.0000000000000000000, 0.0000000000000000000, 0.0000000000000000000, 0.0000000000000000000 ) ;
#196 = ORIENTED_EDGE ( 'NONE', *, *, #252, .T. ) ;
#197 = DIRECTION ( 'NONE',  ( 1.000000000000000000, 0.0000000000000000000, 0.0000000000000000000 ) ) ;
#198 = LINE ( 'NONE', #294, #256 ) ;
#199 = ADVANCED_FACE ( 'NONE', ( #283 ), #166, .T. ) ;
#200 = DIRECTION ( 'NONE',  ( -0.0000000000000000000, -0.0000000000000000000, -1.000000000000000000 ) ) ;
#201 = EDGE_CURVE ( 'NONE', #65, #218, #46, .T. ) ;
#202 = ORIENTED_EDGE ( 'NONE', *, *, #81, .F. ) ;
#203 = CARTESIAN_POINT ( 'NONE',  ( 1.301787301025644899E-17, 0.0000000000000000000, 0.1062990000000000046 ) ) ;
#204 = CARTESIAN_POINT ( 'NONE',  ( 0.0000000000000000000, 0.0000000000000000000, 0.0000000000000000000 ) ) ;
#205 = AXIS2_PLACEMENT_3D ( 'NONE', #6, #286, #73 ) ;
#206 = PRODUCT_DEFINITION_FORMATION_WITH_SPECIFIED_SOURCE ( 'ANY', '', #111, .NOT_KNOWN. ) ;
#207 = CARTESIAN_POINT ( 'NONE',  ( 0.0000000000000000000, 0.0000000000000000000, 1.968503999999999809 ) ) ;
#208 = PRESENTATION_LAYER_ASSIGNMENT (  '', '', ( #174 ) ) ;
#209 = ADVANCED_FACE ( 'NONE', ( #121 ), #164, .T. ) ;
#210 = DIRECTION ( 'NONE',  ( 1.000000000000000000, 0.0000000000000000000, 0.0000000000000000000 ) ) ;
#211 = ORIENTED_EDGE ( 'NONE', *, *, #51, .F. ) ;
#212 = DIRECTION ( 'NONE',  ( 1.000000000000000000, 0.0000000000000000000, 0.0000000000000000000 ) ) ;
#213 = ORIENTED_EDGE ( 'NONE', *, *, #219, .F. ) ;
#214 = CIRCLE ( 'NONE', #98, 0.07874000000000001831 ) ;
#215 = EDGE_LOOP ( 'NONE', ( #32, #151, #211, #285 ) ) ;
#216 = ADVANCED_FACE ( 'NONE', ( #49 ), #21, .T. ) ;
#217 =( LENGTH_UNIT ( ) NAMED_UNIT ( * ) SI_UNIT ( $, .METRE. ) );
#218 = VERTEX_POINT ( 'NONE', #141 ) ;
#219 = EDGE_CURVE ( 'NONE', #237, #133, #112, .T. ) ;
#220 = FILL_AREA_STYLE_COLOUR ( '', #176 ) ;
#221 = DIRECTION ( 'NONE',  ( 0.0000000000000000000, 0.0000000000000000000, 1.000000000000000000 ) ) ;
#222 = CARTESIAN_POINT ( 'NONE',  ( 0.01769878350000001280, 0.0000000000000000000, 0.1062990000000000046 ) ) ;
#223 =( GEOMETRIC_REPRESENTATION_CONTEXT ( 3 ) GLOBAL_UNCERTAINTY_ASSIGNED_CONTEXT ( ( #45 ) ) GLOBAL_UNIT_ASSIGNED_CONTEXT ( ( #55, #80, #147 ) ) REPRESENTATION_CONTEXT ( 'NONE', 'WORKASPACE' ) );
#224 = EDGE_LOOP ( 'NONE', ( #4, #50, #288, #184 ) ) ;
#225 = DIRECTION ( 'NONE',  ( 1.000000000000000000, 0.0000000000000000000, 0.0000000000000000000 ) ) ;
#226 = CARTESIAN_POINT ( 'NONE',  ( 0.0000000000000000000, 0.0000000000000000000, 1.968503999999999809 ) ) ;
#227 = ORIENTED_EDGE ( 'NONE', *, *, #167, .T. ) ;
#228 = CARTESIAN_POINT ( 'NONE',  ( 0.0000000000000000000, 0.0000000000000000000, 0.0000000000000000000 ) ) ;
#229 = DIRECTION ( 'NONE',  ( -1.224646799147353207E-16, -0.0000000000000000000, -1.000000000000000000 ) ) ;
#230 = MANIFOLD_SOLID_BREP ( 'Cut-Revolve1', #269 ) ;
#231 = EDGE_CURVE ( 'NONE', #133, #146, #5, .T. ) ;
#232 = SURFACE_STYLE_USAGE ( .BOTH. , #279 ) ;
#233 = CYLINDRICAL_SURFACE ( 'NONE', #3, 0.07874000000000001831 ) ;
#234 = UNCERTAINTY_MEASURE_WITH_UNIT (LENGTH_MEASURE( 1.000000000000000082E-05 ), #186, 'distance_accuracy_value', 'NONE');
#235 = ADVANCED_FACE ( 'NONE', ( #262 ), #54, .T. ) ;
#236 = CARTESIAN_POINT ( 'NONE',  ( -0.01769878349999998851, 2.167475856207698752E-18, 0.1062990000000000046 ) ) ;
#237 = VERTEX_POINT ( 'NONE', #222 ) ;
#238 = FACE_OUTER_BOUND ( 'NONE', #169, .T. ) ;
#239 = EDGE_CURVE ( 'NONE', #133, #65, #78, .T. ) ;
#240 = ORIENTED_EDGE ( 'NONE', *, *, #136, .T. ) ;
#241 = VECTOR ( 'NONE', #89, 39.37007874015748143 ) ;
#242 = PRESENTATION_STYLE_ASSIGNMENT (( #153 ) ) ;
#243 = LINE ( 'NONE', #13, #26 ) ;
#244 = ORIENTED_EDGE ( 'NONE', *, *, #231, .F. ) ;
#245 = EDGE_CURVE ( 'NONE', #133, #237, #70, .T. ) ;
#246 = DIRECTION ( 'NONE',  ( -1.000000000000000000, 0.0000000000000000000, 0.0000000000000000000 ) ) ;
#247 = VECTOR ( 'NONE', #34, 39.37007874015748143 ) ;
#248 = DIMENSIONAL_EXPONENTS ( 1.000000000000000000, 0.0000000000000000000, 0.0000000000000000000, 0.0000000000000000000, 0.0000000000000000000, 0.0000000000000000000, 0.0000000000000000000 ) ;
#249 = CARTESIAN_POINT ( 'NONE',  ( 0.01769878349999999892, 2.167475856207698752E-18, -2.167475856207698752E-18 ) ) ;
#250 = DIRECTION ( 'NONE',  ( 0.7071067811865507924, 8.659560562354973534E-17, -0.7071067811865443531 ) ) ;
#251 = DIRECTION ( 'NONE',  ( -1.000000000000000000, 0.0000000000000000000, 1.224646799147353207E-16 ) ) ;
#252 = EDGE_CURVE ( 'NONE', #268, #146, #194, .T. ) ;
#253 = MECHANICAL_DESIGN_GEOMETRIC_PRESENTATION_REPRESENTATION (  '', ( #174 ), #37 ) ;
#254 = STYLED_ITEM ( 'NONE', ( #242 ), #17 ) ;
#255 = EDGE_CURVE ( 'NONE', #28, #122, #154, .T. ) ;
#256 = VECTOR ( 'NONE', #250, 39.37007874015748143 ) ;
#257 = VECTOR ( 'NONE', #103, 39.37007874015748143 ) ;
#258 = CARTESIAN_POINT ( 'NONE',  ( 2.654392369533927398E-34, 0.0000000000000000000, 2.167475856207698752E-18 ) ) ;
#259 = PRODUCT_DEFINITION_SHAPE ( 'NONE', 'NONE',  #148 ) ;
#260 = DIRECTION ( 'NONE',  ( -1.224646799147353207E-16, -0.0000000000000000000, -1.000000000000000000 ) ) ;
#261 = ORIENTED_EDGE ( 'NONE', *, *, #117, .F. ) ;
#262 = FACE_OUTER_BOUND ( 'NONE', #92, .T. ) ;
#263 = AXIS2_PLACEMENT_3D ( 'NONE', #258, #260, #298 ) ;
#264 = LENGTH_MEASURE_WITH_UNIT ( LENGTH_MEASURE( 0.02539999999999999897 ), #289 );
#265 = ORIENTED_EDGE ( 'NONE', *, *, #22, .F. ) ;
#266 = DIRECTION ( 'NONE',  ( -1.000000000000000000, 0.0000000000000000000, 0.0000000000000000000 ) ) ;
#267 = ADVANCED_FACE ( 'NONE', ( #238 ), #20, .T. ) ;
#268 = VERTEX_POINT ( 'NONE', #59 ) ;
#269 = CLOSED_SHELL ( 'NONE', ( #209, #235, #126, #47, #140, #216, #267, #284, #199, #64 ) ) ;
#270 = PLANE ( 'NONE',  #53 ) ;
#271 = APPLICATION_CONTEXT ( 'automotive_design' ) ;
#272 = DIRECTION ( 'NONE',  ( -1.224646799147353207E-16, -0.0000000000000000000, -1.000000000000000000 ) ) ;
#273 = ORIENTED_EDGE ( 'NONE', *, *, #219, .T. ) ;
#274 = CARTESIAN_POINT ( 'NONE',  ( -0.01769878349999999892, 0.0000000000000000000, 4.334951712415397505E-18 ) ) ;
#275 = AXIS2_PLACEMENT_3D ( 'NONE', #18, #113, #110 ) ;
#276 = ORIENTED_EDGE ( 'NONE', *, *, #7, .F. ) ;
#277 = ORIENTED_EDGE ( 'NONE', *, *, #245, .F. ) ;
#278 = EDGE_CURVE ( 'NONE', #122, #268, #175, .T. ) ;
#279 = SURFACE_SIDE_STYLE ('',( #185 ) ) ;
#280 = AXIS2_PLACEMENT_3D ( 'NONE', #139, #1, #251 ) ;
#281 =( NAMED_UNIT ( * ) PLANE_ANGLE_UNIT ( ) SI_UNIT ( $, .RADIAN. ) );
#282 = AXIS2_PLACEMENT_3D ( 'NONE', #145, #123, #210 ) ;
#283 = FACE_OUTER_BOUND ( 'NONE', #127, .T. ) ;
#284 = ADVANCED_FACE ( 'NONE', ( #158 ), #85, .T. ) ;
#285 = ORIENTED_EDGE ( 'NONE', *, *, #278, .F. ) ;
#286 = DIRECTION ( 'NONE',  ( 0.0000000000000000000, 0.0000000000000000000, 1.000000000000000000 ) ) ;
#287 = ORIENTED_EDGE ( 'NONE', *, *, #245, .T. ) ;
#288 = ORIENTED_EDGE ( 'NONE', *, *, #136, .F. ) ;
#289 =( LENGTH_UNIT ( ) NAMED_UNIT ( * ) SI_UNIT ( $, .METRE. ) );
#290 = CARTESIAN_POINT ( 'NONE',  ( 0.0000000000000000000, 0.0000000000000000000, 1.968503999999999809 ) ) ;
#291 = SURFACE_STYLE_FILL_AREA ( #104 ) ;
#292 = ORIENTED_EDGE ( 'NONE', *, *, #255, .T. ) ;
#293 = LINE ( 'NONE', #183, #241 ) ;
#294 = CARTESIAN_POINT ( 'NONE',  ( 0.06374000000000018540, 7.805898697765251255E-18, 1.968503999999999809 ) ) ;
#295 = VECTOR ( 'NONE', #74, 39.37007874015747433 ) ;
#296 = AXIS2_PLACEMENT_3D ( 'NONE', #12, #29, #266 ) ;
#297 = ORIENTED_EDGE ( 'NONE', *, *, #239, .T. ) ;
#298 = DIRECTION ( 'NONE',  ( -1.000000000000000000, 0.0000000000000000000, 1.224646799147353207E-16 ) ) ;
#299 = SHAPE_DEFINITION_REPRESENTATION ( #259, #17 ) ;
ENDSEC;
END-ISO-10303-21;
