ISO-10303-21;
HEADER;
FILE_DESCRIPTION (( 'STEP AP214' ),
    '1' );
FILE_NAME ('Micro_SPD-250-090.STEP',
    '2021-09-03T21:20:21',
    ( '' ),
    ( '' ),
    'SwSTEP 2.0',
    'SolidWorks 2020',
    '' );
FILE_SCHEMA (( 'AUTOMOTIVE_DESIGN' ));
ENDSEC;

DATA;
#1 =( LENGTH_UNIT ( ) NAMED_UNIT ( * ) SI_UNIT ( $, .METRE. ) );
#2 = ORIENTED_EDGE ( 'NONE', *, *, #85, .T. ) ;
#3 = ADVANCED_FACE ( 'NONE', ( #45 ), #264, .T. ) ;
#4 = APPLICATION_CONTEXT ( 'automotive_design' ) ;
#5 = DIRECTION ( 'NONE',  ( -1.000000000000000000, 0.0000000000000000000, 0.0000000000000000000 ) ) ;
#6 = CARTESIAN_POINT ( 'NONE',  ( -0.1249500000000001304, 1.530196175534619251E-17, 0.7500000000000001110 ) ) ;
#7 = DIRECTION ( 'NONE',  ( -1.000000000000000000, 0.0000000000000000000, 0.0000000000000000000 ) ) ;
#8 = VERTEX_POINT ( 'NONE', #116 ) ;
#9 = LINE ( 'NONE', #280, #77 ) ;
#10 = DIRECTION ( 'NONE',  ( 1.000000000000000000, 0.0000000000000000000, -0.0000000000000000000 ) ) ;
#11 = CARTESIAN_POINT ( 'NONE',  ( 0.0000000000000000000, 0.0000000000000000000, 0.0000000000000000000 ) ) ;
#12 = ORIENTED_EDGE ( 'NONE', *, *, #349, .T. ) ;
#13 = DIRECTION ( 'NONE',  ( -0.0000000000000000000, -0.0000000000000000000, -1.000000000000000000 ) ) ;
#14 = VERTEX_POINT ( 'NONE', #317 ) ;
#15 = AXIS2_PLACEMENT_3D ( 'NONE', #39, #229, #62 ) ;
#16 = EDGE_CURVE ( 'NONE', #214, #215, #50, .T. ) ;
#17 = DIRECTION ( 'NONE',  ( -0.0000000000000000000, -0.0000000000000000000, -1.000000000000000000 ) ) ;
#18 = ADVANCED_FACE ( 'NONE', ( #111 ), #232, .T. ) ;
#19 = SHAPE_DEFINITION_REPRESENTATION ( #125, #219 ) ;
#20 = EDGE_CURVE ( 'NONE', #266, #214, #200, .T. ) ;
#21 = LINE ( 'NONE', #181, #333 ) ;
#22 = LINE ( 'NONE', #319, #324 ) ;
#23 = ORIENTED_EDGE ( 'NONE', *, *, #58, .F. ) ;
#24 = SURFACE_SIDE_STYLE ('',( #102 ) ) ;
#25 = EDGE_LOOP ( 'NONE', ( #240, #12, #197, #103 ) ) ;
#26 = STYLED_ITEM ( 'NONE', ( #123 ), #219 ) ;
#27 =( NAMED_UNIT ( * ) SI_UNIT ( $, .STERADIAN. ) SOLID_ANGLE_UNIT ( ) );
#28 = AXIS2_PLACEMENT_3D ( 'NONE', #33, #91, #195 ) ;
#29 = ORIENTED_EDGE ( 'NONE', *, *, #161, .T. ) ;
#30 = DIRECTION ( 'NONE',  ( -1.000000000000000000, 0.0000000000000000000, 0.0000000000000000000 ) ) ;
#31 = ORIENTED_EDGE ( 'NONE', *, *, #243, .T. ) ;
#32 = CARTESIAN_POINT ( 'NONE',  ( 0.0000000000000000000, 0.0000000000000000000, 0.0000000000000000000 ) ) ;
#33 = CARTESIAN_POINT ( 'NONE',  ( 0.0000000000000000000, 0.0000000000000000000, 0.7500499999999999945 ) ) ;
#34 = VECTOR ( 'NONE', #93, 39.37007874015748143 ) ;
#35 = CARTESIAN_POINT ( 'NONE',  ( 0.0000000000000000000, 0.0000000000000000000, 2.500000000000000000 ) ) ;
#36 = CLOSED_SHELL ( 'NONE', ( #189, #241, #254, #220, #273, #207, #18, #175, #82, #3, #277, #239 ) ) ;
#37 = ORIENTED_EDGE ( 'NONE', *, *, #246, .T. ) ;
#38 = FACE_OUTER_BOUND ( 'NONE', #25, .T. ) ;
#39 = CARTESIAN_POINT ( 'NONE',  ( 0.0000000000000000000, 0.0000000000000000000, 0.1034499999999995978 ) ) ;
#40 = DIMENSIONAL_EXPONENTS ( 1.000000000000000000, 0.0000000000000000000, 0.0000000000000000000, 0.0000000000000000000, 0.0000000000000000000, 0.0000000000000000000, 0.0000000000000000000 ) ;
#41 = CARTESIAN_POINT ( 'NONE',  ( 0.0000000000000000000, 0.0000000000000000000, 2.500000000000000000 ) ) ;
#42 = ORIENTED_EDGE ( 'NONE', *, *, #139, .T. ) ;
#43 = CONICAL_SURFACE ( 'NONE', #250, 0.1100000000000002087, 0.7853981633974528309 ) ;
#44 = SURFACE_STYLE_FILL_AREA ( #209 ) ;
#45 = FACE_OUTER_BOUND ( 'NONE', #326, .T. ) ;
#46 = EDGE_CURVE ( 'NONE', #8, #86, #70, .T. ) ;
#47 = LINE ( 'NONE', #321, #236 ) ;
#48 = DIRECTION ( 'NONE',  ( 1.000000000000000000, 0.0000000000000000000, 0.0000000000000000000 ) ) ;
#49 = LENGTH_MEASURE_WITH_UNIT ( LENGTH_MEASURE( 0.02539999999999999897 ), #271 );
#50 = CIRCLE ( 'NONE', #107, 0.1250000000000000555 ) ;
#51 = EDGE_CURVE ( 'NONE', #14, #8, #87, .T. ) ;
#52 = APPLICATION_PROTOCOL_DEFINITION ( 'draft international standard', 'automotive_design', 1998, #4 ) ;
#53 = DIRECTION ( 'NONE',  ( 0.0000000000000000000, 0.0000000000000000000, 1.000000000000000000 ) ) ;
#54 = LENGTH_MEASURE_WITH_UNIT ( LENGTH_MEASURE( 0.02539999999999999897 ), #1 );
#55 = PRODUCT ( 'Micro_SPD-250-090', 'Micro_SPD-250-090', '', ( #152 ) ) ;
#56 = AXIS2_PLACEMENT_3D ( 'NONE', #124, #53, #48 ) ;
#57 = CIRCLE ( 'NONE', #28, 0.1250000000000000555 ) ;
#58 = EDGE_CURVE ( 'NONE', #170, #135, #76, .T. ) ;
#59 = ORIENTED_EDGE ( 'NONE', *, *, #185, .F. ) ;
#60 = DIRECTION ( 'NONE',  ( 1.000000000000000000, 0.0000000000000000000, -0.0000000000000000000 ) ) ;
#61 = DIRECTION ( 'NONE',  ( 0.0000000000000000000, 0.0000000000000000000, 1.000000000000000000 ) ) ;
#62 = DIRECTION ( 'NONE',  ( -1.000000000000000000, 0.0000000000000000000, 0.0000000000000000000 ) ) ;
#63 = DIRECTION ( 'NONE',  ( -0.0000000000000000000, -0.0000000000000000000, -1.000000000000000000 ) ) ;
#64 = ORIENTED_EDGE ( 'NONE', *, *, #58, .T. ) ;
#65 = DIMENSIONAL_EXPONENTS ( 1.000000000000000000, 0.0000000000000000000, 0.0000000000000000000, 0.0000000000000000000, 0.0000000000000000000, 0.0000000000000000000, 0.0000000000000000000 ) ;
#66 = DIRECTION ( 'NONE',  ( -0.0000000000000000000, -0.0000000000000000000, -1.000000000000000000 ) ) ;
#67 = AXIS2_PLACEMENT_3D ( 'NONE', #242, #247, #269 ) ;
#68 = ORIENTED_EDGE ( 'NONE', *, *, #349, .F. ) ;
#69 = FACE_OUTER_BOUND ( 'NONE', #291, .T. ) ;
#70 = LINE ( 'NONE', #6, #315 ) ;
#71 = ORIENTED_EDGE ( 'NONE', *, *, #289, .T. ) ;
#72 = AXIS2_PLACEMENT_3D ( 'NONE', #257, #13, #115 ) ;
#73 =( CONVERSION_BASED_UNIT ( 'INCH', #49 ) LENGTH_UNIT ( ) NAMED_UNIT ( #191 ) );
#74 = DIRECTION ( 'NONE',  ( 0.7071067811865507924, 8.659560562354973534E-17, -0.7071067811865443531 ) ) ;
#75 = CONICAL_SURFACE ( 'NONE', #126, 0.02149999999999999481, 0.7853981633974503884 ) ;
#76 = CIRCLE ( 'NONE', #15, 0.1249500000000000194 ) ;
#77 = VECTOR ( 'NONE', #237, 39.37007874015748143 ) ;
#78 = CARTESIAN_POINT ( 'NONE',  ( -0.1249500000000000194, 0.0000000000000000000, 0.1034499999999995978 ) ) ;
#79 = DIRECTION ( 'NONE',  ( 0.0000000000000000000, 0.0000000000000000000, -1.000000000000000000 ) ) ;
#80 = ORIENTED_EDGE ( 'NONE', *, *, #298, .T. ) ;
#81 = AXIS2_PLACEMENT_3D ( 'NONE', #261, #61, #60 ) ;
#82 = ADVANCED_FACE ( 'NONE', ( #167 ), #183, .T. ) ;
#83 = EDGE_LOOP ( 'NONE', ( #327, #31, #293, #253 ) ) ;
#84 = ORIENTED_EDGE ( 'NONE', *, *, #339, .T. ) ;
#85 = EDGE_CURVE ( 'NONE', #187, #86, #57, .T. ) ;
#86 = VERTEX_POINT ( 'NONE', #180 ) ;
#87 = CIRCLE ( 'NONE', #301, 0.1249500000000001304 ) ;
#88 = DIRECTION ( 'NONE',  ( -1.000000000000000000, 0.0000000000000000000, 0.0000000000000000000 ) ) ;
#89 = DIRECTION ( 'NONE',  ( -0.0000000000000000000, -0.0000000000000000000, -1.000000000000000000 ) ) ;
#90 = CARTESIAN_POINT ( 'NONE',  ( -0.02149999999999999481, 8.967476186756494957E-18, 0.0000000000000000000 ) ) ;
#91 = DIRECTION ( 'NONE',  ( -0.0000000000000000000, -0.0000000000000000000, -1.000000000000000000 ) ) ;
#92 = PRODUCT_RELATED_PRODUCT_CATEGORY ( 'part', '', ( #55 ) ) ;
#93 = DIRECTION ( 'NONE',  ( -0.0000000000000000000, -0.0000000000000000000, -1.000000000000000000 ) ) ;
#94 = DIRECTION ( 'NONE',  ( -0.0000000000000000000, -0.0000000000000000000, -1.000000000000000000 ) ) ;
#95 = MECHANICAL_DESIGN_GEOMETRIC_PRESENTATION_REPRESENTATION (  '', ( #26 ), #320 ) ;
#96 = CARTESIAN_POINT ( 'NONE',  ( -0.1249500000000000749, 0.0000000000000000000, 0.0000000000000000000 ) ) ;
#97 = DIRECTION ( 'NONE',  ( 1.000000000000000000, 0.0000000000000000000, 0.0000000000000000000 ) ) ;
#98 = CARTESIAN_POINT ( 'NONE',  ( 0.1250000000000000555, 1.530808498934192125E-17, 2.485000000000000320 ) ) ;
#99 = CARTESIAN_POINT ( 'NONE',  ( 0.0000000000000000000, 0.0000000000000000000, 0.0000000000000000000 ) ) ;
#100 = PRESENTATION_LAYER_ASSIGNMENT (  '', '', ( #26 ) ) ;
#101 =( LENGTH_UNIT ( ) NAMED_UNIT ( * ) SI_UNIT ( $, .METRE. ) );
#102 = SURFACE_STYLE_FILL_AREA ( #131 ) ;
#103 = ORIENTED_EDGE ( 'NONE', *, *, #20, .F. ) ;
#104 = EDGE_CURVE ( 'NONE', #14, #170, #47, .T. ) ;
#105 =( NAMED_UNIT ( * ) PLANE_ANGLE_UNIT ( ) SI_UNIT ( $, .RADIAN. ) );
#106 = ORIENTED_EDGE ( 'NONE', *, *, #149, .T. ) ;
#107 = AXIS2_PLACEMENT_3D ( 'NONE', #336, #177, #97 ) ;
#108 = EDGE_CURVE ( 'NONE', #86, #187, #143, .T. ) ;
#109 = ORIENTED_EDGE ( 'NONE', *, *, #108, .T. ) ;
#110 = DIRECTION ( 'NONE',  ( 1.000000000000000000, 0.0000000000000000000, 0.0000000000000000000 ) ) ;
#111 = FACE_OUTER_BOUND ( 'NONE', #163, .T. ) ;
#112 = CONICAL_SURFACE ( 'NONE', #134, 0.1100000000000002087, 0.7853981633974528309 ) ;
#113 = CARTESIAN_POINT ( 'NONE',  ( 0.0000000000000000000, 0.0000000000000000000, 2.485000000000000320 ) ) ;
#114 = CARTESIAN_POINT ( 'NONE',  ( 0.0000000000000000000, 0.0000000000000000000, 0.0000000000000000000 ) ) ;
#115 = DIRECTION ( 'NONE',  ( -1.000000000000000000, 0.0000000000000000000, 0.0000000000000000000 ) ) ;
#116 = CARTESIAN_POINT ( 'NONE',  ( -0.1249500000000001304, 1.530502337234405688E-17, 0.7500000000000001110 ) ) ;
#117 = CIRCLE ( 'NONE', #312, 0.1100000000000002087 ) ;
#118 = ORIENTED_EDGE ( 'NONE', *, *, #51, .F. ) ;
#119 = CARTESIAN_POINT ( 'NONE',  ( 0.0000000000000000000, 0.0000000000000000000, 0.0000000000000000000 ) ) ;
#120 = CIRCLE ( 'NONE', #164, 0.02149999999999999481 ) ;
#121 = CONICAL_SURFACE ( 'NONE', #222, 0.02149999999999999481, 0.7853981633974503884 ) ;
#122 = ORIENTED_EDGE ( 'NONE', *, *, #16, .T. ) ;
#123 = PRESENTATION_STYLE_ASSIGNMENT (( #344 ) ) ;
#124 = CARTESIAN_POINT ( 'NONE',  ( 0.0000000000000000000, 0.0000000000000000000, 2.500000000000000000 ) ) ;
#125 = PRODUCT_DEFINITION_SHAPE ( 'NONE', 'NONE',  #205 ) ;
#126 = AXIS2_PLACEMENT_3D ( 'NONE', #119, #306, #168 ) ;
#127 = UNCERTAINTY_MEASURE_WITH_UNIT (LENGTH_MEASURE( 1.000000000000000082E-05 ), #302, 'distance_accuracy_value', 'NONE');
#128 = AXIS2_PLACEMENT_3D ( 'NONE', #282, #331, #148 ) ;
#129 = CARTESIAN_POINT ( 'NONE',  ( -0.1250000000000000555, 0.0000000000000000000, 2.500000000000000000 ) ) ;
#130 = LINE ( 'NONE', #129, #156 ) ;
#131 = FILL_AREA_STYLE ('',( #159 ) ) ;
#132 = EDGE_CURVE ( 'NONE', #14, #187, #208, .T. ) ;
#133 = CONICAL_SURFACE ( 'NONE', #267, 0.1249500000000001304, 0.7853981633974591592 ) ;
#134 = AXIS2_PLACEMENT_3D ( 'NONE', #155, #79, #299 ) ;
#135 = VERTEX_POINT ( 'NONE', #78 ) ;
#136 = EDGE_LOOP ( 'NONE', ( #174, #84, #325, #300 ) ) ;
#137 = ORIENTED_EDGE ( 'NONE', *, *, #230, .F. ) ;
#138 = DIRECTION ( 'NONE',  ( 0.0000000000000000000, 0.0000000000000000000, 1.000000000000000000 ) ) ;
#139 = EDGE_CURVE ( 'NONE', #338, #255, #120, .T. ) ;
#140 = ORIENTED_EDGE ( 'NONE', *, *, #230, .T. ) ;
#141 = FACE_OUTER_BOUND ( 'NONE', #83, .T. ) ;
#142 = EDGE_LOOP ( 'NONE', ( #218, #118, #188, #2 ) ) ;
#143 = CIRCLE ( 'NONE', #67, 0.1250000000000000555 ) ;
#144 = FACE_OUTER_BOUND ( 'NONE', #256, .T. ) ;
#145 = CARTESIAN_POINT ( 'NONE',  ( -0.1100000000000002087, 0.0000000000000000000, 2.500000000000000000 ) ) ;
#146 = APPLICATION_CONTEXT ( 'automotive_design' ) ;
#147 = CARTESIAN_POINT ( 'NONE',  ( 0.1100000000000002087, 1.438959988998141454E-17, 2.500000000000000000 ) ) ;
#148 = DIRECTION ( 'NONE',  ( 1.000000000000000000, 0.0000000000000000000, 0.0000000000000000000 ) ) ;
#149 = EDGE_CURVE ( 'NONE', #215, #187, #318, .T. ) ;
#150 = DIRECTION ( 'NONE',  ( -1.000000000000000000, 0.0000000000000000000, 0.0000000000000000000 ) ) ;
#151 = CIRCLE ( 'NONE', #186, 0.1249500000000000194 ) ;
#152 = PRODUCT_CONTEXT ( 'NONE', #4, 'mechanical' ) ;
#153 = DIRECTION ( 'NONE',  ( 0.7071067811865551223, 0.0000000000000000000, 0.7071067811865398012 ) ) ;
#154 =( NAMED_UNIT ( * ) SI_UNIT ( $, .STERADIAN. ) SOLID_ANGLE_UNIT ( ) );
#155 = CARTESIAN_POINT ( 'NONE',  ( 0.0000000000000000000, 0.0000000000000000000, 2.500000000000000000 ) ) ;
#156 = VECTOR ( 'NONE', #210, 39.37007874015748143 ) ;
#157 =( NAMED_UNIT ( * ) PLANE_ANGLE_UNIT ( ) SI_UNIT ( $, .RADIAN. ) );
#158 = DIRECTION ( 'NONE',  ( -0.0000000000000000000, -0.0000000000000000000, -1.000000000000000000 ) ) ;
#159 = FILL_AREA_STYLE_COLOUR ( '', #294 ) ;
#160 = EDGE_LOOP ( 'NONE', ( #140, #276, #59, #285 ) ) ;
#161 = EDGE_CURVE ( 'NONE', #266, #278, #227, .T. ) ;
#162 = ORIENTED_EDGE ( 'NONE', *, *, #104, .F. ) ;
#163 = EDGE_LOOP ( 'NONE', ( #29, #71 ) ) ;
#164 = AXIS2_PLACEMENT_3D ( 'NONE', #249, #211, #182 ) ;
#165 = CYLINDRICAL_SURFACE ( 'NONE', #244, 0.1250000000000000555 ) ;
#166 = FACE_OUTER_BOUND ( 'NONE', #160, .T. ) ;
#167 = FACE_OUTER_BOUND ( 'NONE', #142, .T. ) ;
#168 = DIRECTION ( 'NONE',  ( 1.000000000000000000, 0.0000000000000000000, 0.0000000000000000000 ) ) ;
#169 = MANIFOLD_SOLID_BREP ( 'Cut-Revolve2', #36 ) ;
#170 = VERTEX_POINT ( 'NONE', #213 ) ;
#171 = COLOUR_RGB ( '',0.7921568627450980005, 0.8196078431372548767, 0.9333333333333333481 ) ;
#172 = VECTOR ( 'NONE', #316, 39.37007874015748143 ) ;
#173 = LINE ( 'NONE', #96, #34 ) ;
#174 = ORIENTED_EDGE ( 'NONE', *, *, #298, .F. ) ;
#175 = ADVANCED_FACE ( 'NONE', ( #322 ), #112, .T. ) ;
#176 = DIRECTION ( 'NONE',  ( 0.0000000000000000000, 0.0000000000000000000, -1.000000000000000000 ) ) ;
#177 = DIRECTION ( 'NONE',  ( 0.0000000000000000000, 0.0000000000000000000, -1.000000000000000000 ) ) ;
#178 = DIRECTION ( 'NONE',  ( 1.000000000000000000, 0.0000000000000000000, 0.0000000000000000000 ) ) ;
#179 = FILL_AREA_STYLE_COLOUR ( '', #171 ) ;
#180 = CARTESIAN_POINT ( 'NONE',  ( -0.1250000000000000555, 0.0000000000000000000, 0.7500499999999999945 ) ) ;
#181 = CARTESIAN_POINT ( 'NONE',  ( 0.1100000000000002087, 1.347111479062090938E-17, 2.500000000000000000 ) ) ;
#182 = DIRECTION ( 'NONE',  ( -1.000000000000000000, 0.0000000000000000000, 0.0000000000000000000 ) ) ;
#183 = CONICAL_SURFACE ( 'NONE', #128, 0.1249500000000001304, 0.7853981633974591592 ) ;
#184 = AXIS2_PLACEMENT_3D ( 'NONE', #41, #63, #5 ) ;
#185 = EDGE_CURVE ( 'NONE', #135, #170, #151, .T. ) ;
#186 = AXIS2_PLACEMENT_3D ( 'NONE', #304, #233, #334 ) ;
#187 = VERTEX_POINT ( 'NONE', #192 ) ;
#188 = ORIENTED_EDGE ( 'NONE', *, *, #132, .T. ) ;
#189 = ADVANCED_FACE ( 'NONE', ( #313 ), #121, .T. ) ;
#190 = EDGE_LOOP ( 'NONE', ( #303, #323, #347, #64 ) ) ;
#191 = DIMENSIONAL_EXPONENTS ( 1.000000000000000000, 0.0000000000000000000, 0.0000000000000000000, 0.0000000000000000000, 0.0000000000000000000, 0.0000000000000000000, 0.0000000000000000000 ) ;
#192 = CARTESIAN_POINT ( 'NONE',  ( 0.1250000000000000555, 1.530808498934192125E-17, 0.7500499999999999945 ) ) ;
#193 = CARTESIAN_POINT ( 'NONE',  ( 0.0000000000000000000, 0.0000000000000000000, 0.7500000000000001110 ) ) ;
#194 = CARTESIAN_POINT ( 'NONE',  ( 0.0000000000000000000, 0.0000000000000000000, 2.500000000000000000 ) ) ;
#195 = DIRECTION ( 'NONE',  ( 1.000000000000000000, 0.0000000000000000000, 0.0000000000000000000 ) ) ;
#196 = CARTESIAN_POINT ( 'NONE',  ( -0.1100000000000002087, 0.0000000000000000000, 2.500000000000000000 ) ) ;
#197 = ORIENTED_EDGE ( 'NONE', *, *, #16, .F. ) ;
#198 = AXIS2_PLACEMENT_3D ( 'NONE', #114, #89, #234 ) ;
#199 = CYLINDRICAL_SURFACE ( 'NONE', #184, 0.1250000000000000555 ) ;
#200 = LINE ( 'NONE', #145, #172 ) ;
#201 = ORIENTED_EDGE ( 'NONE', *, *, #132, .F. ) ;
#202 = EDGE_CURVE ( 'NONE', #338, #170, #9, .T. ) ;
#203 = DIRECTION ( 'NONE',  ( 0.0000000000000000000, 0.0000000000000000000, 1.000000000000000000 ) ) ;
#204 = CIRCLE ( 'NONE', #226, 0.1250000000000000555 ) ;
#205 = PRODUCT_DEFINITION ( 'UNKNOWN', '', #296, #335 ) ;
#206 = VECTOR ( 'NONE', #17, 39.37007874015748143 ) ;
#207 = ADVANCED_FACE ( 'NONE', ( #141 ), #165, .T. ) ;
#208 = LINE ( 'NONE', #343, #279 ) ;
#209 = FILL_AREA_STYLE ('',( #179 ) ) ;
#210 = DIRECTION ( 'NONE',  ( -0.0000000000000000000, -0.0000000000000000000, -1.000000000000000000 ) ) ;
#211 = DIRECTION ( 'NONE',  ( -0.0000000000000000000, -0.0000000000000000000, -1.000000000000000000 ) ) ;
#212 = STYLED_ITEM ( 'NONE', ( #252 ), #169 ) ;
#213 = CARTESIAN_POINT ( 'NONE',  ( 0.1249500000000000194, 1.530196175534618327E-17, 0.1034499999999995978 ) ) ;
#214 = VERTEX_POINT ( 'NONE', #259 ) ;
#215 = VERTEX_POINT ( 'NONE', #98 ) ;
#216 = CIRCLE ( 'NONE', #235, 0.02149999999999999481 ) ;
#217 = AXIS2_PLACEMENT_3D ( 'NONE', #99, #203, #178 ) ;
#218 = ORIENTED_EDGE ( 'NONE', *, *, #46, .F. ) ;
#219 = ADVANCED_BREP_SHAPE_REPRESENTATION ( 'Micro_SPD-250-090', ( #169, #217 ), #340 ) ;
#220 = ADVANCED_FACE ( 'NONE', ( #38 ), #43, .T. ) ;
#221 = ORIENTED_EDGE ( 'NONE', *, *, #51, .T. ) ;
#222 = AXIS2_PLACEMENT_3D ( 'NONE', #283, #138, #308 ) ;
#223 = CIRCLE ( 'NONE', #72, 0.1249500000000001304 ) ;
#224 = DIRECTION ( 'NONE',  ( -0.0000000000000000000, -0.0000000000000000000, -1.000000000000000000 ) ) ;
#225 = DIRECTION ( 'NONE',  ( -0.7071067811865551223, 8.659560562355026535E-17, 0.7071067811865398012 ) ) ;
#226 = AXIS2_PLACEMENT_3D ( 'NONE', #113, #228, #330 ) ;
#227 = CIRCLE ( 'NONE', #56, 0.1100000000000002087 ) ;
#228 = DIRECTION ( 'NONE',  ( 0.0000000000000000000, 0.0000000000000000000, -1.000000000000000000 ) ) ;
#229 = DIRECTION ( 'NONE',  ( -0.0000000000000000000, -0.0000000000000000000, -1.000000000000000000 ) ) ;
#230 = EDGE_CURVE ( 'NONE', #8, #14, #223, .T. ) ;
#231 = DIRECTION ( 'NONE',  ( 1.000000000000000000, 0.0000000000000000000, 0.0000000000000000000 ) ) ;
#232 = PLANE ( 'NONE',  #286 ) ;
#233 = DIRECTION ( 'NONE',  ( -0.0000000000000000000, -0.0000000000000000000, -1.000000000000000000 ) ) ;
#234 = DIRECTION ( 'NONE',  ( -1.000000000000000000, 0.0000000000000000000, 0.0000000000000000000 ) ) ;
#235 = AXIS2_PLACEMENT_3D ( 'NONE', #11, #224, #88 ) ;
#236 = VECTOR ( 'NONE', #158, 39.37007874015748143 ) ;
#237 = DIRECTION ( 'NONE',  ( 0.7071067811865490160, 0.0000000000000000000, 0.7071067811865460184 ) ) ;
#238 = UNCERTAINTY_MEASURE_WITH_UNIT (LENGTH_MEASURE( 1.000000000000000082E-05 ), #73, 'distance_accuracy_value', 'NONE');
#239 = ADVANCED_FACE ( 'NONE', ( #144 ), #281, .F. ) ;
#240 = ORIENTED_EDGE ( 'NONE', *, *, #289, .F. ) ;
#241 = ADVANCED_FACE ( 'NONE', ( #166 ), #332, .T. ) ;
#242 = CARTESIAN_POINT ( 'NONE',  ( 0.0000000000000000000, 0.0000000000000000000, 0.7500499999999999945 ) ) ;
#243 = EDGE_CURVE ( 'NONE', #215, #214, #204, .T. ) ;
#244 = AXIS2_PLACEMENT_3D ( 'NONE', #35, #337, #30 ) ;
#245 = DIRECTION ( 'NONE',  ( -0.7071067811865490160, 8.659560562354951347E-17, 0.7071067811865460184 ) ) ;
#246 = EDGE_CURVE ( 'NONE', #8, #135, #173, .T. ) ;
#247 = DIRECTION ( 'NONE',  ( -0.0000000000000000000, -0.0000000000000000000, -1.000000000000000000 ) ) ;
#248 =( CONVERSION_BASED_UNIT ( 'INCH', #292 ) LENGTH_UNIT ( ) NAMED_UNIT ( #40 ) );
#249 = CARTESIAN_POINT ( 'NONE',  ( 0.0000000000000000000, 0.0000000000000000000, 0.0000000000000000000 ) ) ;
#250 = AXIS2_PLACEMENT_3D ( 'NONE', #194, #176, #150 ) ;
#251 = AXIS2_PLACEMENT_3D ( 'NONE', #32, #66, #7 ) ;
#252 = PRESENTATION_STYLE_ASSIGNMENT (( #274 ) ) ;
#253 = ORIENTED_EDGE ( 'NONE', *, *, #85, .F. ) ;
#254 = ADVANCED_FACE ( 'NONE', ( #69 ), #133, .T. ) ;
#255 = VERTEX_POINT ( 'NONE', #90 ) ;
#256 = EDGE_LOOP ( 'NONE', ( #42, #80 ) ) ;
#257 = CARTESIAN_POINT ( 'NONE',  ( 0.0000000000000000000, 0.0000000000000000000, 0.7500000000000001110 ) ) ;
#258 = CARTESIAN_POINT ( 'NONE',  ( 0.0000000000000000000, 0.0000000000000000000, 2.500000000000000000 ) ) ;
#259 = CARTESIAN_POINT ( 'NONE',  ( -0.1250000000000000555, 0.0000000000000000000, 2.485000000000000320 ) ) ;
#260 = ORIENTED_EDGE ( 'NONE', *, *, #161, .F. ) ;
#261 = CARTESIAN_POINT ( 'NONE',  ( 0.0000000000000000000, 0.0000000000000000000, 0.0000000000000000000 ) ) ;
#262 = ORIENTED_EDGE ( 'NONE', *, *, #346, .F. ) ;
#263 = CARTESIAN_POINT ( 'NONE',  ( 0.0000000000000000000, 0.0000000000000000000, 2.500000000000000000 ) ) ;
#264 = CYLINDRICAL_SURFACE ( 'NONE', #198, 0.1249500000000000749 ) ;
#265 = DIRECTION ( 'NONE',  ( 0.0000000000000000000, 0.0000000000000000000, 1.000000000000000000 ) ) ;
#266 = VERTEX_POINT ( 'NONE', #196 ) ;
#267 = AXIS2_PLACEMENT_3D ( 'NONE', #290, #265, #231 ) ;
#268 = MECHANICAL_DESIGN_GEOMETRIC_PRESENTATION_REPRESENTATION (  '', ( #212 ), #307 ) ;
#269 = DIRECTION ( 'NONE',  ( 1.000000000000000000, 0.0000000000000000000, 0.0000000000000000000 ) ) ;
#270 = APPLICATION_PROTOCOL_DEFINITION ( 'draft international standard', 'automotive_design', 1998, #146 ) ;
#271 =( LENGTH_UNIT ( ) NAMED_UNIT ( * ) SI_UNIT ( $, .METRE. ) );
#272 = SURFACE_SIDE_STYLE ('',( #44 ) ) ;
#273 = ADVANCED_FACE ( 'NONE', ( #310 ), #199, .T. ) ;
#274 = SURFACE_STYLE_USAGE ( .BOTH. , #24 ) ;
#275 = ORIENTED_EDGE ( 'NONE', *, *, #46, .T. ) ;
#276 = ORIENTED_EDGE ( 'NONE', *, *, #104, .T. ) ;
#277 = ADVANCED_FACE ( 'NONE', ( #287 ), #75, .T. ) ;
#278 = VERTEX_POINT ( 'NONE', #147 ) ;
#279 = VECTOR ( 'NONE', #153, 39.37007874015748854 ) ;
#280 = CARTESIAN_POINT ( 'NONE',  ( 0.02149999999999999481, 0.0000000000000000000, 0.0000000000000000000 ) ) ;
#281 = PLANE ( 'NONE',  #81 ) ;
#282 = CARTESIAN_POINT ( 'NONE',  ( 0.0000000000000000000, 0.0000000000000000000, 0.7500000000000001110 ) ) ;
#283 = CARTESIAN_POINT ( 'NONE',  ( 0.0000000000000000000, 0.0000000000000000000, 0.0000000000000000000 ) ) ;
#284 = UNCERTAINTY_MEASURE_WITH_UNIT (LENGTH_MEASURE( 1.000000000000000082E-05 ), #248, 'distance_accuracy_value', 'NONE');
#285 = ORIENTED_EDGE ( 'NONE', *, *, #246, .F. ) ;
#286 = AXIS2_PLACEMENT_3D ( 'NONE', #258, #288, #10 ) ;
#287 = FACE_OUTER_BOUND ( 'NONE', #190, .T. ) ;
#288 = DIRECTION ( 'NONE',  ( 0.0000000000000000000, 0.0000000000000000000, 1.000000000000000000 ) ) ;
#289 = EDGE_CURVE ( 'NONE', #278, #266, #117, .T. ) ;
#290 = CARTESIAN_POINT ( 'NONE',  ( 0.0000000000000000000, 0.0000000000000000000, 0.7500000000000001110 ) ) ;
#291 = EDGE_LOOP ( 'NONE', ( #137, #275, #109, #201 ) ) ;
#292 = LENGTH_MEASURE_WITH_UNIT ( LENGTH_MEASURE( 0.02539999999999999897 ), #101 );
#293 = ORIENTED_EDGE ( 'NONE', *, *, #346, .T. ) ;
#294 = COLOUR_RGB ( '',0.7921568627450980005, 0.8196078431372548767, 0.9333333333333333481 ) ;
#295 = CARTESIAN_POINT ( 'NONE',  ( 0.02149999999999999481, 0.0000000000000000000, 0.0000000000000000000 ) ) ;
#296 = PRODUCT_DEFINITION_FORMATION_WITH_SPECIFIED_SOURCE ( 'ANY', '', #55, .NOT_KNOWN. ) ;
#297 = CARTESIAN_POINT ( 'NONE',  ( 0.1250000000000000555, 1.530808498934192125E-17, 2.500000000000000000 ) ) ;
#298 = EDGE_CURVE ( 'NONE', #255, #338, #216, .T. ) ;
#299 = DIRECTION ( 'NONE',  ( -1.000000000000000000, 0.0000000000000000000, 0.0000000000000000000 ) ) ;
#300 = ORIENTED_EDGE ( 'NONE', *, *, #202, .F. ) ;
#301 = AXIS2_PLACEMENT_3D ( 'NONE', #193, #94, #309 ) ;
#302 =( CONVERSION_BASED_UNIT ( 'INCH', #54 ) LENGTH_UNIT ( ) NAMED_UNIT ( #65 ) );
#303 = ORIENTED_EDGE ( 'NONE', *, *, #339, .F. ) ;
#304 = CARTESIAN_POINT ( 'NONE',  ( 0.0000000000000000000, 0.0000000000000000000, 0.1034499999999995978 ) ) ;
#305 = ORIENTED_EDGE ( 'NONE', *, *, #20, .T. ) ;
#306 = DIRECTION ( 'NONE',  ( 0.0000000000000000000, 0.0000000000000000000, 1.000000000000000000 ) ) ;
#307 =( GEOMETRIC_REPRESENTATION_CONTEXT ( 3 ) GLOBAL_UNCERTAINTY_ASSIGNED_CONTEXT ( ( #127 ) ) GLOBAL_UNIT_ASSIGNED_CONTEXT ( ( #302, #105, #27 ) ) REPRESENTATION_CONTEXT ( 'NONE', 'WORKASPACE' ) );
#308 = DIRECTION ( 'NONE',  ( 1.000000000000000000, 0.0000000000000000000, 0.0000000000000000000 ) ) ;
#309 = DIRECTION ( 'NONE',  ( -1.000000000000000000, 0.0000000000000000000, 0.0000000000000000000 ) ) ;
#310 = FACE_OUTER_BOUND ( 'NONE', #348, .T. ) ;
#311 = EDGE_LOOP ( 'NONE', ( #68, #260, #305, #314 ) ) ;
#312 = AXIS2_PLACEMENT_3D ( 'NONE', #263, #328, #110 ) ;
#313 = FACE_OUTER_BOUND ( 'NONE', #136, .T. ) ;
#314 = ORIENTED_EDGE ( 'NONE', *, *, #243, .F. ) ;
#315 = VECTOR ( 'NONE', #225, 39.37007874015748854 ) ;
#316 = DIRECTION ( 'NONE',  ( -0.7071067811865507924, 0.0000000000000000000, -0.7071067811865443531 ) ) ;
#317 = CARTESIAN_POINT ( 'NONE',  ( 0.1249500000000001304, 0.0000000000000000000, 0.7500000000000001110 ) ) ;
#318 = LINE ( 'NONE', #297, #206 ) ;
#319 = CARTESIAN_POINT ( 'NONE',  ( -0.02149999999999999481, 2.632990618166808958E-18, 0.0000000000000000000 ) ) ;
#320 =( GEOMETRIC_REPRESENTATION_CONTEXT ( 3 ) GLOBAL_UNCERTAINTY_ASSIGNED_CONTEXT ( ( #238 ) ) GLOBAL_UNIT_ASSIGNED_CONTEXT ( ( #73, #342, #345 ) ) REPRESENTATION_CONTEXT ( 'NONE', 'WORKASPACE' ) );
#321 = CARTESIAN_POINT ( 'NONE',  ( 0.1249500000000000749, 1.530196175534618635E-17, 0.0000000000000000000 ) ) ;
#322 = FACE_OUTER_BOUND ( 'NONE', #311, .T. ) ;
#323 = ORIENTED_EDGE ( 'NONE', *, *, #139, .F. ) ;
#324 = VECTOR ( 'NONE', #245, 39.37007874015748143 ) ;
#325 = ORIENTED_EDGE ( 'NONE', *, *, #185, .T. ) ;
#326 = EDGE_LOOP ( 'NONE', ( #162, #221, #37, #23 ) ) ;
#327 = ORIENTED_EDGE ( 'NONE', *, *, #149, .F. ) ;
#328 = DIRECTION ( 'NONE',  ( 0.0000000000000000000, 0.0000000000000000000, 1.000000000000000000 ) ) ;
#329 = ORIENTED_EDGE ( 'NONE', *, *, #108, .F. ) ;
#330 = DIRECTION ( 'NONE',  ( 1.000000000000000000, 0.0000000000000000000, 0.0000000000000000000 ) ) ;
#331 = DIRECTION ( 'NONE',  ( 0.0000000000000000000, 0.0000000000000000000, 1.000000000000000000 ) ) ;
#332 = CYLINDRICAL_SURFACE ( 'NONE', #251, 0.1249500000000000749 ) ;
#333 = VECTOR ( 'NONE', #74, 39.37007874015748143 ) ;
#334 = DIRECTION ( 'NONE',  ( -1.000000000000000000, 0.0000000000000000000, 0.0000000000000000000 ) ) ;
#335 = PRODUCT_DEFINITION_CONTEXT ( 'detailed design', #146, 'design' ) ;
#336 = CARTESIAN_POINT ( 'NONE',  ( 0.0000000000000000000, 0.0000000000000000000, 2.485000000000000320 ) ) ;
#337 = DIRECTION ( 'NONE',  ( -0.0000000000000000000, -0.0000000000000000000, -1.000000000000000000 ) ) ;
#338 = VERTEX_POINT ( 'NONE', #295 ) ;
#339 = EDGE_CURVE ( 'NONE', #255, #135, #22, .T. ) ;
#340 =( GEOMETRIC_REPRESENTATION_CONTEXT ( 3 ) GLOBAL_UNCERTAINTY_ASSIGNED_CONTEXT ( ( #284 ) ) GLOBAL_UNIT_ASSIGNED_CONTEXT ( ( #248, #157, #154 ) ) REPRESENTATION_CONTEXT ( 'NONE', 'WORKASPACE' ) );
#341 = PRESENTATION_LAYER_ASSIGNMENT (  '', '', ( #212 ) ) ;
#342 =( NAMED_UNIT ( * ) PLANE_ANGLE_UNIT ( ) SI_UNIT ( $, .RADIAN. ) );
#343 = CARTESIAN_POINT ( 'NONE',  ( 0.1249500000000001304, 0.0000000000000000000, 0.7500000000000001110 ) ) ;
#344 = SURFACE_STYLE_USAGE ( .BOTH. , #272 ) ;
#345 =( NAMED_UNIT ( * ) SI_UNIT ( $, .STERADIAN. ) SOLID_ANGLE_UNIT ( ) );
#346 = EDGE_CURVE ( 'NONE', #214, #86, #130, .T. ) ;
#347 = ORIENTED_EDGE ( 'NONE', *, *, #202, .T. ) ;
#348 = EDGE_LOOP ( 'NONE', ( #122, #106, #329, #262 ) ) ;
#349 = EDGE_CURVE ( 'NONE', #278, #215, #21, .T. ) ;
ENDSEC;
END-ISO-10303-21;
