ISO-10303-21;
HEADER;
FILE_DESCRIPTION (( 'STEP AP214' ),
    '1' );
FILE_NAME ('03612.STEP',
    '2023-06-22T15:33:17',
    ( '' ),
    ( '' ),
    'SwSTEP 2.0',
    'SolidWorks 2023',
    '' );
FILE_SCHEMA (( 'AUTOMOTIVE_DESIGN' ));
ENDSEC;

DATA;
#1 = DIMENSIONAL_EXPONENTS ( 1.000000000000000000, 0.000000000000000000, 0.000000000000000000, 0.000000000000000000, 0.000000000000000000, 0.000000000000000000, 0.000000000000000000 ) ;
#2 = EDGE_LOOP ( 'NONE', ( #221, #95, #141, #52 ) ) ;
#3 = ORIENTED_EDGE ( 'NONE', *, *, #252, .T. ) ;
#4 = STYLED_ITEM ( 'NONE', ( #118 ), #6 ) ;
#5 = LENGTH_MEASURE_WITH_UNIT ( LENGTH_MEASURE( 0.02539999999999999897 ), #135 );
#6 = ADVANCED_FACE ( 'NONE', ( #24 ), #288, .T. ) ;
#7 = ORIENTED_EDGE ( 'NONE', *, *, #226, .T. ) ;
#8 = FILL_AREA_STYLE ('',( #163 ) ) ;
#9 = VERTEX_POINT ( 'NONE', #196 ) ;
#10 = AXIS2_PLACEMENT_3D ( 'NONE', #42, #154, #180 ) ;
#11 = PRESENTATION_LAYER_ASSIGNMENT (  '', '', ( #132 ) ) ;
#12 = EDGE_CURVE ( 'NONE', #169, #121, #32, .T. ) ;
#13 =( CONVERSION_BASED_UNIT ( 'INCH', #78 ) LENGTH_UNIT ( ) NAMED_UNIT ( #105 ) );
#14 =( GEOMETRIC_REPRESENTATION_CONTEXT ( 3 ) GLOBAL_UNCERTAINTY_ASSIGNED_CONTEXT ( ( #86 ) ) GLOBAL_UNIT_ASSIGNED_CONTEXT ( ( #88, #204, #39 ) ) REPRESENTATION_CONTEXT ( 'NONE', 'WORKASPACE' ) );
#15 = CIRCLE ( 'NONE', #87, 0.3125000000000000000 ) ;
#16 = COLOUR_RGB ( '',1.000000000000000000, 0.000000000000000000, 0.000000000000000000 ) ;
#17 = CARTESIAN_POINT ( 'NONE',  ( -1.224646799147354440E-16, 6.000000000000000888, 0.000000000000000000 ) ) ;
#18 = COLOUR_RGB ( '',1.000000000000000000, 0.000000000000000000, 0.000000000000000000 ) ;
#19 = SURFACE_STYLE_FILL_AREA ( #170 ) ;
#20 = DIMENSIONAL_EXPONENTS ( 1.000000000000000000, 0.000000000000000000, 0.000000000000000000, 0.000000000000000000, 0.000000000000000000, 0.000000000000000000, 0.000000000000000000 ) ;
#21 = SURFACE_STYLE_USAGE ( .BOTH. , #130 ) ;
#22 =( NAMED_UNIT ( * ) SI_UNIT ( $, .STERADIAN. ) SOLID_ANGLE_UNIT ( ) );
#23 = PRESENTATION_LAYER_ASSIGNMENT (  '', '', ( #199 ) ) ;
#24 = FACE_OUTER_BOUND ( 'NONE', #264, .T. ) ;
#25 = DIRECTION ( 'NONE',  ( 4.453261087808560759E-17, -1.000000000000000000, 0.000000000000000000 ) ) ;
#26 = EDGE_LOOP ( 'NONE', ( #74, #7, #291, #189 ) ) ;
#27 = SURFACE_STYLE_USAGE ( .BOTH. , #285 ) ;
#28 = CARTESIAN_POINT ( 'NONE',  ( -0.3125000000000002220, 6.000000000000000888, 0.000000000000000000 ) ) ;
#29 = DIRECTION ( 'NONE',  ( -4.453261087808560759E-17, 1.000000000000000000, -0.000000000000000000 ) ) ;
#30 = ORIENTED_EDGE ( 'NONE', *, *, #258, .F. ) ;
#31 =( CONVERSION_BASED_UNIT ( 'INCH', #5 ) LENGTH_UNIT ( ) NAMED_UNIT ( #302 ) );
#32 = CIRCLE ( 'NONE', #37, 0.3125000000000000000 ) ;
#33 = DIRECTION ( 'NONE',  ( -0.000000000000000000, -1.000000000000000000, -0.000000000000000000 ) ) ;
#34 = DIRECTION ( 'NONE',  ( -0.000000000000000000, -1.000000000000000000, -0.000000000000000000 ) ) ;
#35 = DIRECTION ( 'NONE',  ( 0.000000000000000000, 0.000000000000000000, -1.000000000000000000 ) ) ;
#36 = DIRECTION ( 'NONE',  ( -0.000000000000000000, -1.000000000000000000, -0.000000000000000000 ) ) ;
#37 = AXIS2_PLACEMENT_3D ( 'NONE', #248, #33, #295 ) ;
#38 = CYLINDRICAL_SURFACE ( 'NONE', #212, 0.3125000000000000000 ) ;
#39 =( NAMED_UNIT ( * ) SI_UNIT ( $, .STERADIAN. ) SOLID_ANGLE_UNIT ( ) );
#40 = PRESENTATION_STYLE_ASSIGNMENT (( #183 ) ) ;
#41 = AXIS2_PLACEMENT_3D ( 'NONE', #195, #197, #274 ) ;
#42 = CARTESIAN_POINT ( 'NONE',  ( 0.000000000000000000, 3.250000000000000000, 0.000000000000000000 ) ) ;
#43 = MECHANICAL_DESIGN_GEOMETRIC_PRESENTATION_REPRESENTATION (  '', ( #132 ), #137 ) ;
#44 = EDGE_LOOP ( 'NONE', ( #46, #216, #218, #144 ) ) ;
#45 =( NAMED_UNIT ( * ) SI_UNIT ( $, .STERADIAN. ) SOLID_ANGLE_UNIT ( ) );
#46 = ORIENTED_EDGE ( 'NONE', *, *, #111, .F. ) ;
#47 =( GEOMETRIC_REPRESENTATION_CONTEXT ( 3 ) GLOBAL_UNCERTAINTY_ASSIGNED_CONTEXT ( ( #236 ) ) GLOBAL_UNIT_ASSIGNED_CONTEXT ( ( #31, #289, #97 ) ) REPRESENTATION_CONTEXT ( 'NONE', 'WORKASPACE' ) );
#48 = AXIS2_PLACEMENT_3D ( 'NONE', #80, #126, #106 ) ;
#49 = ORIENTED_EDGE ( 'NONE', *, *, #98, .T. ) ;
#50 = CYLINDRICAL_SURFACE ( 'NONE', #227, 0.3125000000000000000 ) ;
#51 =( NAMED_UNIT ( * ) SI_UNIT ( $, .STERADIAN. ) SOLID_ANGLE_UNIT ( ) );
#52 = ORIENTED_EDGE ( 'NONE', *, *, #244, .F. ) ;
#53 = DIRECTION ( 'NONE',  ( -0.000000000000000000, -1.000000000000000000, -0.000000000000000000 ) ) ;
#54 = EDGE_LOOP ( 'NONE', ( #3, #243 ) ) ;
#55 =( NAMED_UNIT ( * ) PLANE_ANGLE_UNIT ( ) SI_UNIT ( $, .RADIAN. ) );
#56 = COLOUR_RGB ( '',1.000000000000000000, 0.000000000000000000, 0.000000000000000000 ) ;
#57 = LINE ( 'NONE', #61, #100 ) ;
#58 = CARTESIAN_POINT ( 'NONE',  ( -0.3125000000000000000, 3.250000000000000000, 0.000000000000000000 ) ) ;
#59 = DIRECTION ( 'NONE',  ( -0.000000000000000000, -1.000000000000000000, -0.000000000000000000 ) ) ;
#60 = DIRECTION ( 'NONE',  ( -4.453261087808560759E-17, 1.000000000000000000, -0.000000000000000000 ) ) ;
#61 = CARTESIAN_POINT ( 'NONE',  ( 0.000000000000000000, 0.000000000000000000, -0.3125000000000000000 ) ) ;
#62 = SURFACE_SIDE_STYLE ('',( #19 ) ) ;
#63 =( NAMED_UNIT ( * ) PLANE_ANGLE_UNIT ( ) SI_UNIT ( $, .RADIAN. ) );
#64 =( LENGTH_UNIT ( ) NAMED_UNIT ( * ) SI_UNIT ( $, .METRE. ) );
#65 = APPLICATION_CONTEXT ( 'automotive_design' ) ;
#66 = DIMENSIONAL_EXPONENTS ( 1.000000000000000000, 0.000000000000000000, 0.000000000000000000, 0.000000000000000000, 0.000000000000000000, 0.000000000000000000, 0.000000000000000000 ) ;
#67 = MECHANICAL_DESIGN_GEOMETRIC_PRESENTATION_REPRESENTATION (  '', ( #4 ), #123 ) ;
#68 = SURFACE_SIDE_STYLE ('',( #286 ) ) ;
#69 = UNCERTAINTY_MEASURE_WITH_UNIT (LENGTH_MEASURE( 1.000000000000000082E-05 ), #242, 'distance_accuracy_value', 'NONE');
#70 = EDGE_CURVE ( 'NONE', #270, #210, #15, .T. ) ;
#71 = DIRECTION ( 'NONE',  ( 1.000000000000000000, 4.453261087808560759E-17, 0.000000000000000000 ) ) ;
#72 = ORIENTED_EDGE ( 'NONE', *, *, #115, .F. ) ;
#73 = FACE_OUTER_BOUND ( 'NONE', #44, .T. ) ;
#74 = ORIENTED_EDGE ( 'NONE', *, *, #157, .F. ) ;
#75 = FACE_OUTER_BOUND ( 'NONE', #94, .T. ) ;
#76 = VERTEX_POINT ( 'NONE', #147 ) ;
#77 = PLANE ( 'NONE',  #145 ) ;
#78 = LENGTH_MEASURE_WITH_UNIT ( LENGTH_MEASURE( 0.02539999999999999897 ), #276 );
#79 = CIRCLE ( 'NONE', #256, 0.3125000000000000000 ) ;
#80 = CARTESIAN_POINT ( 'NONE',  ( 0.000000000000000000, 3.250000000000000000, 0.000000000000000000 ) ) ;
#81 = UNCERTAINTY_MEASURE_WITH_UNIT (LENGTH_MEASURE( 1.000000000000000082E-05 ), #308, 'distance_accuracy_value', 'NONE');
#82 =( GEOMETRIC_REPRESENTATION_CONTEXT ( 3 ) GLOBAL_UNCERTAINTY_ASSIGNED_CONTEXT ( ( #91 ) ) GLOBAL_UNIT_ASSIGNED_CONTEXT ( ( #117, #263, #122 ) ) REPRESENTATION_CONTEXT ( 'NONE', 'WORKASPACE' ) );
#83 = DIRECTION ( 'NONE',  ( 0.000000000000000000, 0.000000000000000000, -1.000000000000000000 ) ) ;
#84 = CARTESIAN_POINT ( 'NONE',  ( 0.000000000000000000, 3.250000000000000000, 0.000000000000000000 ) ) ;
#85 = PRESENTATION_STYLE_ASSIGNMENT (( #206 ) ) ;
#86 = UNCERTAINTY_MEASURE_WITH_UNIT (LENGTH_MEASURE( 1.000000000000000082E-05 ), #88, 'distance_accuracy_value', 'NONE');
#87 = AXIS2_PLACEMENT_3D ( 'NONE', #149, #250, #171 ) ;
#88 =( CONVERSION_BASED_UNIT ( 'INCH', #112 ) LENGTH_UNIT ( ) NAMED_UNIT ( #1 ) );
#89 = DIRECTION ( 'NONE',  ( -4.453261087808560759E-17, 1.000000000000000000, 0.000000000000000000 ) ) ;
#90 = MECHANICAL_DESIGN_GEOMETRIC_PRESENTATION_REPRESENTATION (  '', ( #202 ), #253 ) ;
#91 = UNCERTAINTY_MEASURE_WITH_UNIT (LENGTH_MEASURE( 1.000000000000000082E-05 ), #117, 'distance_accuracy_value', 'NONE');
#92 = PRODUCT ( '03612', '03612', '', ( #292 ) ) ;
#93 = LENGTH_MEASURE_WITH_UNIT ( LENGTH_MEASURE( 0.02539999999999999897 ), #284 );
#94 = EDGE_LOOP ( 'NONE', ( #136, #211, #168, #30 ) ) ;
#95 = ORIENTED_EDGE ( 'NONE', *, *, #111, .T. ) ;
#96 = LINE ( 'NONE', #28, #222 ) ;
#97 =( NAMED_UNIT ( * ) SI_UNIT ( $, .STERADIAN. ) SOLID_ANGLE_UNIT ( ) );
#98 = EDGE_CURVE ( 'NONE', #210, #270, #79, .T. ) ;
#99 = FACE_OUTER_BOUND ( 'NONE', #166, .T. ) ;
#100 = VECTOR ( 'NONE', #59, 39.37007874015748143 ) ;
#101 = FILL_AREA_STYLE_COLOUR ( '', #125 ) ;
#102 = MECHANICAL_DESIGN_GEOMETRIC_PRESENTATION_REPRESENTATION (  '', ( #199 ), #14 ) ;
#103 = ORIENTED_EDGE ( 'NONE', *, *, #226, .F. ) ;
#104 = AXIS2_PLACEMENT_3D ( 'NONE', #238, #89, #280 ) ;
#105 = DIMENSIONAL_EXPONENTS ( 1.000000000000000000, 0.000000000000000000, 0.000000000000000000, 0.000000000000000000, 0.000000000000000000, 0.000000000000000000, 0.000000000000000000 ) ;
#106 = DIRECTION ( 'NONE',  ( 0.000000000000000000, 0.000000000000000000, -1.000000000000000000 ) ) ;
#107 = DIRECTION ( 'NONE',  ( -1.000000000000000000, 0.000000000000000000, 0.000000000000000000 ) ) ;
#108 = CIRCLE ( 'NONE', #161, 0.3125000000000001665 ) ;
#109 = SURFACE_STYLE_FILL_AREA ( #129 ) ;
#110 = CARTESIAN_POINT ( 'NONE',  ( 0.000000000000000000, 3.250000000000000000, -0.3125000000000000000 ) ) ;
#111 = EDGE_CURVE ( 'NONE', #121, #270, #225, .T. ) ;
#112 = LENGTH_MEASURE_WITH_UNIT ( LENGTH_MEASURE( 0.02539999999999999897 ), #303 );
#113 = AXIS2_PLACEMENT_3D ( 'NONE', #17, #156, #127 ) ;
#114 = FILL_AREA_STYLE_COLOUR ( '', #237 ) ;
#115 = EDGE_CURVE ( 'NONE', #121, #169, #247, .T. ) ;
#116 = FILL_AREA_STYLE_COLOUR ( '', #305 ) ;
#117 =( CONVERSION_BASED_UNIT ( 'INCH', #261 ) LENGTH_UNIT ( ) NAMED_UNIT ( #20 ) );
#118 = PRESENTATION_STYLE_ASSIGNMENT (( #165 ) ) ;
#119 = PRESENTATION_LAYER_ASSIGNMENT (  '', '', ( #277 ) ) ;
#120 = SURFACE_STYLE_FILL_AREA ( #8 ) ;
#121 = VERTEX_POINT ( 'NONE', #230 ) ;
#122 =( NAMED_UNIT ( * ) SI_UNIT ( $, .STERADIAN. ) SOLID_ANGLE_UNIT ( ) );
#123 =( GEOMETRIC_REPRESENTATION_CONTEXT ( 3 ) GLOBAL_UNCERTAINTY_ASSIGNED_CONTEXT ( ( #201 ) ) GLOBAL_UNIT_ASSIGNED_CONTEXT ( ( #13, #55, #294 ) ) REPRESENTATION_CONTEXT ( 'NONE', 'WORKASPACE' ) );
#124 = EDGE_CURVE ( 'NONE', #9, #267, #299, .T. ) ;
#125 = COLOUR_RGB ( '',0.7921568627450980005, 0.8196078431372548767, 0.9333333333333333481 ) ;
#126 = DIRECTION ( 'NONE',  ( -0.000000000000000000, -1.000000000000000000, -0.000000000000000000 ) ) ;
#127 = DIRECTION ( 'NONE',  ( -1.000000000000000000, 0.000000000000000000, 0.000000000000000000 ) ) ;
#128 = DIRECTION ( 'NONE',  ( 0.000000000000000000, -0.000000000000000000, 1.000000000000000000 ) ) ;
#129 = FILL_AREA_STYLE ('',( #114 ) ) ;
#130 = SURFACE_SIDE_STYLE ('',( #173 ) ) ;
#131 = CARTESIAN_POINT ( 'NONE',  ( 0.000000000000000000, 0.000000000000000000, 0.000000000000000000 ) ) ;
#132 = STYLED_ITEM ( 'NONE', ( #153 ), #177 ) ;
#133 = DIRECTION ( 'NONE',  ( -1.000000000000000000, 0.000000000000000000, 0.000000000000000000 ) ) ;
#134 = VERTEX_POINT ( 'NONE', #58 ) ;
#135 =( LENGTH_UNIT ( ) NAMED_UNIT ( * ) SI_UNIT ( $, .METRE. ) );
#136 = ORIENTED_EDGE ( 'NONE', *, *, #142, .T. ) ;
#137 =( GEOMETRIC_REPRESENTATION_CONTEXT ( 3 ) GLOBAL_UNCERTAINTY_ASSIGNED_CONTEXT ( ( #81 ) ) GLOBAL_UNIT_ASSIGNED_CONTEXT ( ( #308, #63, #22 ) ) REPRESENTATION_CONTEXT ( 'NONE', 'WORKASPACE' ) );
#138 = CARTESIAN_POINT ( 'NONE',  ( 3.827021247335478926E-17, 0.000000000000000000, 0.3125000000000000000 ) ) ;
#139 = PRESENTATION_STYLE_ASSIGNMENT (( #194 ) ) ;
#140 = AXIS2_PLACEMENT_3D ( 'NONE', #224, #175, #35 ) ;
#141 = ORIENTED_EDGE ( 'NONE', *, *, #98, .F. ) ;
#142 = EDGE_CURVE ( 'NONE', #134, #76, #297, .T. ) ;
#143 = DIRECTION ( 'NONE',  ( -4.453261087808560759E-17, 1.000000000000000000, -0.000000000000000000 ) ) ;
#144 = ORIENTED_EDGE ( 'NONE', *, *, #70, .F. ) ;
#145 = AXIS2_PLACEMENT_3D ( 'NONE', #240, #25, #71 ) ;
#146 = AXIS2_PLACEMENT_3D ( 'NONE', #84, #60, #133 ) ;
#147 = CARTESIAN_POINT ( 'NONE',  ( 0.3125000000000000000, 3.250000000000000000, 3.827021247335479543E-17 ) ) ;
#148 = MANIFOLD_SOLID_BREP ( 'Revolve - Tool Body (Straight Shanked)', #273 ) ;
#149 = CARTESIAN_POINT ( 'NONE',  ( 0.000000000000000000, 0.000000000000000000, 0.000000000000000000 ) ) ;
#150 = SHAPE_DEFINITION_REPRESENTATION ( #290, #301 ) ;
#151 = VECTOR ( 'NONE', #298, 39.37007874015748143 ) ;
#152 = PRODUCT_DEFINITION_CONTEXT ( 'detailed design', #164, 'design' ) ;
#153 = PRESENTATION_STYLE_ASSIGNMENT (( #21 ) ) ;
#154 = DIRECTION ( 'NONE',  ( -4.453261087808560759E-17, 1.000000000000000000, -0.000000000000000000 ) ) ;
#155 = CARTESIAN_POINT ( 'NONE',  ( 0.000000000000000000, 3.250000000000000000, 0.000000000000000000 ) ) ;
#156 = DIRECTION ( 'NONE',  ( -4.453261087808560759E-17, 1.000000000000000000, -0.000000000000000000 ) ) ;
#157 = EDGE_CURVE ( 'NONE', #76, #9, #220, .T. ) ;
#158 = MECHANICAL_DESIGN_GEOMETRIC_PRESENTATION_REPRESENTATION (  '', ( #208 ), #176 ) ;
#159 = ADVANCED_FACE ( 'NONE', ( #99 ), #293, .T. ) ;
#160 = CARTESIAN_POINT ( 'NONE',  ( 0.3124999999999999445, 6.000000000000000888, 3.827021247335479543E-17 ) ) ;
#161 = AXIS2_PLACEMENT_3D ( 'NONE', #259, #257, #232 ) ;
#162 = PRESENTATION_LAYER_ASSIGNMENT (  '', '', ( #208 ) ) ;
#163 = FILL_AREA_STYLE_COLOUR ( '', #16 ) ;
#164 = APPLICATION_CONTEXT ( 'automotive_design' ) ;
#165 = SURFACE_STYLE_USAGE ( .BOTH. , #68 ) ;
#166 = EDGE_LOOP ( 'NONE', ( #245, #72 ) ) ;
#167 = CYLINDRICAL_SURFACE ( 'NONE', #174, 0.3125000000000000555 ) ;
#168 = ORIENTED_EDGE ( 'NONE', *, *, #252, .F. ) ;
#169 = VERTEX_POINT ( 'NONE', #110 ) ;
#170 = FILL_AREA_STYLE ('',( #275 ) ) ;
#171 = DIRECTION ( 'NONE',  ( 0.000000000000000000, 0.000000000000000000, -1.000000000000000000 ) ) ;
#172 = PRODUCT_RELATED_PRODUCT_CATEGORY ( 'part', '', ( #92 ) ) ;
#173 = SURFACE_STYLE_FILL_AREA ( #179 ) ;
#174 = AXIS2_PLACEMENT_3D ( 'NONE', #188, #143, #190 ) ;
#175 = DIRECTION ( 'NONE',  ( 0.000000000000000000, -1.000000000000000000, -0.000000000000000000 ) ) ;
#176 =( GEOMETRIC_REPRESENTATION_CONTEXT ( 3 ) GLOBAL_UNCERTAINTY_ASSIGNED_CONTEXT ( ( #69 ) ) GLOBAL_UNIT_ASSIGNED_CONTEXT ( ( #242, #192, #51 ) ) REPRESENTATION_CONTEXT ( 'NONE', 'WORKASPACE' ) );
#177 = ADVANCED_FACE ( 'NONE', ( #182 ), #38, .T. ) ;
#178 = PLANE ( 'NONE',  #104 ) ;
#179 = FILL_AREA_STYLE ('',( #282 ) ) ;
#180 = DIRECTION ( 'NONE',  ( -1.000000000000000000, 0.000000000000000000, 0.000000000000000000 ) ) ;
#181 = CIRCLE ( 'NONE', #10, 0.3125000000000000000 ) ;
#182 = FACE_OUTER_BOUND ( 'NONE', #2, .T. ) ;
#183 = SURFACE_STYLE_USAGE ( .BOTH. , #207 ) ;
#184 = ADVANCED_FACE ( 'NONE', ( #260 ), #205, .T. ) ;
#185 = FACE_OUTER_BOUND ( 'NONE', #241, .T. ) ;
#186 = SURFACE_STYLE_FILL_AREA ( #215 ) ;
#187 = FILL_AREA_STYLE ('',( #116 ) ) ;
#188 = CARTESIAN_POINT ( 'NONE',  ( -1.224646799147354440E-16, 6.000000000000000888, 0.000000000000000000 ) ) ;
#189 = ORIENTED_EDGE ( 'NONE', *, *, #124, .F. ) ;
#190 = DIRECTION ( 'NONE',  ( -1.000000000000000000, 0.000000000000000000, 0.000000000000000000 ) ) ;
#191 = LENGTH_MEASURE_WITH_UNIT ( LENGTH_MEASURE( 0.02539999999999999897 ), #64 );
#192 =( NAMED_UNIT ( * ) PLANE_ANGLE_UNIT ( ) SI_UNIT ( $, .RADIAN. ) );
#193 = CARTESIAN_POINT ( 'NONE',  ( 0.000000000000000000, 0.000000000000000000, 0.000000000000000000 ) ) ;
#194 = SURFACE_STYLE_USAGE ( .BOTH. , #287 ) ;
#195 = CARTESIAN_POINT ( 'NONE',  ( 0.000000000000000000, 0.000000000000000000, 0.000000000000000000 ) ) ;
#196 = CARTESIAN_POINT ( 'NONE',  ( 0.3125000000000000000, 6.000000000000000888, 3.827021247335479543E-17 ) ) ;
#197 = DIRECTION ( 'NONE',  ( 0.000000000000000000, 0.000000000000000000, 1.000000000000000000 ) ) ;
#198 = DIRECTION ( 'NONE',  ( -4.453261087808560759E-17, 1.000000000000000000, -0.000000000000000000 ) ) ;
#199 = STYLED_ITEM ( 'NONE', ( #85 ), #159 ) ;
#200 = CARTESIAN_POINT ( 'NONE',  ( 3.827021247335478926E-17, 0.000000000000000000, 0.3125000000000000000 ) ) ;
#201 = UNCERTAINTY_MEASURE_WITH_UNIT (LENGTH_MEASURE( 1.000000000000000082E-05 ), #13, 'distance_accuracy_value', 'NONE');
#202 = STYLED_ITEM ( 'NONE', ( #40 ), #255 ) ;
#203 = VECTOR ( 'NONE', #198, 39.37007874015748143 ) ;
#204 =( NAMED_UNIT ( * ) PLANE_ANGLE_UNIT ( ) SI_UNIT ( $, .RADIAN. ) );
#205 = CYLINDRICAL_SURFACE ( 'NONE', #113, 0.3125000000000000555 ) ;
#206 = SURFACE_STYLE_USAGE ( .BOTH. , #62 ) ;
#207 = SURFACE_SIDE_STYLE ('',( #109 ) ) ;
#208 = STYLED_ITEM ( 'NONE', ( #139 ), #148 ) ;
#209 = LENGTH_MEASURE_WITH_UNIT ( LENGTH_MEASURE( 0.02539999999999999897 ), #283 );
#210 = VERTEX_POINT ( 'NONE', #300 ) ;
#211 = ORIENTED_EDGE ( 'NONE', *, *, #157, .T. ) ;
#212 = AXIS2_PLACEMENT_3D ( 'NONE', #131, #36, #83 ) ;
#213 = PRESENTATION_LAYER_ASSIGNMENT (  '', '', ( #4 ) ) ;
#214 = DIRECTION ( 'NONE',  ( 0.000000000000000000, 0.000000000000000000, -1.000000000000000000 ) ) ;
#215 = FILL_AREA_STYLE ('',( #101 ) ) ;
#216 = ORIENTED_EDGE ( 'NONE', *, *, #115, .T. ) ;
#217 = CARTESIAN_POINT ( 'NONE',  ( -0.3125000000000002776, 6.000000000000000888, 0.000000000000000000 ) ) ;
#218 = ORIENTED_EDGE ( 'NONE', *, *, #244, .T. ) ;
#219 =( NAMED_UNIT ( * ) PLANE_ANGLE_UNIT ( ) SI_UNIT ( $, .RADIAN. ) );
#220 = LINE ( 'NONE', #160, #203 ) ;
#221 = ORIENTED_EDGE ( 'NONE', *, *, #12, .T. ) ;
#222 = VECTOR ( 'NONE', #29, 39.37007874015748143 ) ;
#223 =( LENGTH_UNIT ( ) NAMED_UNIT ( * ) SI_UNIT ( $, .METRE. ) );
#224 = CARTESIAN_POINT ( 'NONE',  ( 0.000000000000000000, 0.000000000000000000, 0.000000000000000000 ) ) ;
#225 = LINE ( 'NONE', #200, #151 ) ;
#226 = EDGE_CURVE ( 'NONE', #76, #134, #181, .T. ) ;
#227 = AXIS2_PLACEMENT_3D ( 'NONE', #193, #53, #214 ) ;
#228 = CLOSED_SHELL ( 'NONE', ( #177, #159, #272, #6 ) ) ;
#229 = DIRECTION ( 'NONE',  ( 0.000000000000000000, 0.000000000000000000, -1.000000000000000000 ) ) ;
#230 = CARTESIAN_POINT ( 'NONE',  ( 3.827021247335478926E-17, 3.250000000000000000, 0.3125000000000000000 ) ) ;
#231 = APPLICATION_PROTOCOL_DEFINITION ( 'draft international standard', 'automotive_design', 1998, #65 ) ;
#232 = DIRECTION ( 'NONE',  ( -1.000000000000000000, 0.000000000000000000, 0.000000000000000000 ) ) ;
#233 = PRODUCT_DEFINITION ( 'UNKNOWN', '', #306, #152 ) ;
#234 = FACE_OUTER_BOUND ( 'NONE', #54, .T. ) ;
#235 = CARTESIAN_POINT ( 'NONE',  ( -1.224646799147354440E-16, 6.000000000000000888, 0.000000000000000000 ) ) ;
#236 = UNCERTAINTY_MEASURE_WITH_UNIT (LENGTH_MEASURE( 1.000000000000000082E-05 ), #31, 'distance_accuracy_value', 'NONE');
#237 = COLOUR_RGB ( '',0.7921568627450980005, 0.8196078431372548767, 0.9333333333333333481 ) ;
#238 = CARTESIAN_POINT ( 'NONE',  ( 3.098677236904669840E-34, 3.250000000000000000, 0.000000000000000000 ) ) ;
#239 = ADVANCED_FACE ( 'NONE', ( #185 ), #178, .F. ) ;
#240 = CARTESIAN_POINT ( 'NONE',  ( 0.3125000000000000000, 6.000000000000000888, 0.000000000000000000 ) ) ;
#241 = EDGE_LOOP ( 'NONE', ( #271, #103 ) ) ;
#242 =( CONVERSION_BASED_UNIT ( 'INCH', #191 ) LENGTH_UNIT ( ) NAMED_UNIT ( #307 ) );
#243 = ORIENTED_EDGE ( 'NONE', *, *, #124, .T. ) ;
#244 = EDGE_CURVE ( 'NONE', #169, #210, #57, .T. ) ;
#245 = ORIENTED_EDGE ( 'NONE', *, *, #12, .F. ) ;
#246 = PRESENTATION_LAYER_ASSIGNMENT (  '', '', ( #202 ) ) ;
#247 = CIRCLE ( 'NONE', #48, 0.3125000000000000000 ) ;
#248 = CARTESIAN_POINT ( 'NONE',  ( 0.000000000000000000, 3.250000000000000000, 0.000000000000000000 ) ) ;
#249 = CARTESIAN_POINT ( 'NONE',  ( 0.000000000000000000, 0.000000000000000000, 0.000000000000000000 ) ) ;
#250 = DIRECTION ( 'NONE',  ( -0.000000000000000000, -1.000000000000000000, -0.000000000000000000 ) ) ;
#251 = AXIS2_PLACEMENT_3D ( 'NONE', #155, #254, #128 ) ;
#252 = EDGE_CURVE ( 'NONE', #267, #9, #108, .T. ) ;
#253 =( GEOMETRIC_REPRESENTATION_CONTEXT ( 3 ) GLOBAL_UNCERTAINTY_ASSIGNED_CONTEXT ( ( #279 ) ) GLOBAL_UNIT_ASSIGNED_CONTEXT ( ( #278, #219, #45 ) ) REPRESENTATION_CONTEXT ( 'NONE', 'WORKASPACE' ) );
#254 = DIRECTION ( 'NONE',  ( 0.000000000000000000, 1.000000000000000000, 0.000000000000000000 ) ) ;
#255 = MANIFOLD_SOLID_BREP ( 'Revolve - Cutting Edge', #228 ) ;
#256 = AXIS2_PLACEMENT_3D ( 'NONE', #249, #34, #229 ) ;
#257 = DIRECTION ( 'NONE',  ( -4.453261087808560759E-17, 1.000000000000000000, -0.000000000000000000 ) ) ;
#258 = EDGE_CURVE ( 'NONE', #134, #267, #96, .T. ) ;
#259 = CARTESIAN_POINT ( 'NONE',  ( -1.224646799147354440E-16, 6.000000000000000888, 0.000000000000000000 ) ) ;
#260 = FACE_OUTER_BOUND ( 'NONE', #26, .T. ) ;
#261 = LENGTH_MEASURE_WITH_UNIT ( LENGTH_MEASURE( 0.02539999999999999897 ), #223 );
#262 = ORIENTED_EDGE ( 'NONE', *, *, #70, .T. ) ;
#263 =( NAMED_UNIT ( * ) PLANE_ANGLE_UNIT ( ) SI_UNIT ( $, .RADIAN. ) );
#264 = EDGE_LOOP ( 'NONE', ( #49, #262 ) ) ;
#265 = PRESENTATION_STYLE_ASSIGNMENT (( #27 ) ) ;
#266 = ADVANCED_FACE ( 'NONE', ( #234 ), #77, .F. ) ;
#267 = VERTEX_POINT ( 'NONE', #217 ) ;
#268 = MECHANICAL_DESIGN_GEOMETRIC_PRESENTATION_REPRESENTATION (  '', ( #277 ), #82 ) ;
#269 = AXIS2_PLACEMENT_3D ( 'NONE', #235, #304, #107 ) ;
#270 = VERTEX_POINT ( 'NONE', #138 ) ;
#271 = ORIENTED_EDGE ( 'NONE', *, *, #142, .F. ) ;
#272 = ADVANCED_FACE ( 'NONE', ( #73 ), #50, .T. ) ;
#273 = CLOSED_SHELL ( 'NONE', ( #309, #239, #184, #266 ) ) ;
#274 = DIRECTION ( 'NONE',  ( 1.000000000000000000, 0.000000000000000000, 0.000000000000000000 ) ) ;
#275 = FILL_AREA_STYLE_COLOUR ( '', #18 ) ;
#276 =( LENGTH_UNIT ( ) NAMED_UNIT ( * ) SI_UNIT ( $, .METRE. ) );
#277 = STYLED_ITEM ( 'NONE', ( #265 ), #272 ) ;
#278 =( CONVERSION_BASED_UNIT ( 'INCH', #93 ) LENGTH_UNIT ( ) NAMED_UNIT ( #281 ) );
#279 = UNCERTAINTY_MEASURE_WITH_UNIT (LENGTH_MEASURE( 1.000000000000000082E-05 ), #278, 'distance_accuracy_value', 'NONE');
#280 = DIRECTION ( 'NONE',  ( -1.000000000000000000, -4.453261087808560759E-17, 0.000000000000000000 ) ) ;
#281 = DIMENSIONAL_EXPONENTS ( 1.000000000000000000, 0.000000000000000000, 0.000000000000000000, 0.000000000000000000, 0.000000000000000000, 0.000000000000000000, 0.000000000000000000 ) ;
#282 = FILL_AREA_STYLE_COLOUR ( '', #56 ) ;
#283 =( LENGTH_UNIT ( ) NAMED_UNIT ( * ) SI_UNIT ( $, .METRE. ) );
#284 =( LENGTH_UNIT ( ) NAMED_UNIT ( * ) SI_UNIT ( $, .METRE. ) );
#285 = SURFACE_SIDE_STYLE ('',( #120 ) ) ;
#286 = SURFACE_STYLE_FILL_AREA ( #187 ) ;
#287 = SURFACE_SIDE_STYLE ('',( #186 ) ) ;
#288 = PLANE ( 'NONE',  #140 ) ;
#289 =( NAMED_UNIT ( * ) PLANE_ANGLE_UNIT ( ) SI_UNIT ( $, .RADIAN. ) );
#290 = PRODUCT_DEFINITION_SHAPE ( 'NONE', 'NONE',  #233 ) ;
#291 = ORIENTED_EDGE ( 'NONE', *, *, #258, .T. ) ;
#292 = PRODUCT_CONTEXT ( 'NONE', #65, 'mechanical' ) ;
#293 = PLANE ( 'NONE',  #251 ) ;
#294 =( NAMED_UNIT ( * ) SI_UNIT ( $, .STERADIAN. ) SOLID_ANGLE_UNIT ( ) );
#295 = DIRECTION ( 'NONE',  ( 0.000000000000000000, 0.000000000000000000, -1.000000000000000000 ) ) ;
#296 = APPLICATION_PROTOCOL_DEFINITION ( 'draft international standard', 'automotive_design', 1998, #164 ) ;
#297 = CIRCLE ( 'NONE', #146, 0.3125000000000000000 ) ;
#298 = DIRECTION ( 'NONE',  ( -0.000000000000000000, -1.000000000000000000, -0.000000000000000000 ) ) ;
#299 = CIRCLE ( 'NONE', #269, 0.3125000000000001665 ) ;
#300 = CARTESIAN_POINT ( 'NONE',  ( 0.000000000000000000, 0.000000000000000000, -0.3125000000000000000 ) ) ;
#301 = ADVANCED_BREP_SHAPE_REPRESENTATION ( '03612', ( #255, #148, #41 ), #47 ) ;
#302 = DIMENSIONAL_EXPONENTS ( 1.000000000000000000, 0.000000000000000000, 0.000000000000000000, 0.000000000000000000, 0.000000000000000000, 0.000000000000000000, 0.000000000000000000 ) ;
#303 =( LENGTH_UNIT ( ) NAMED_UNIT ( * ) SI_UNIT ( $, .METRE. ) );
#304 = DIRECTION ( 'NONE',  ( -4.453261087808560759E-17, 1.000000000000000000, -0.000000000000000000 ) ) ;
#305 = COLOUR_RGB ( '',1.000000000000000000, 0.000000000000000000, 0.000000000000000000 ) ;
#306 = PRODUCT_DEFINITION_FORMATION_WITH_SPECIFIED_SOURCE ( 'ANY', '', #92, .NOT_KNOWN. ) ;
#307 = DIMENSIONAL_EXPONENTS ( 1.000000000000000000, 0.000000000000000000, 0.000000000000000000, 0.000000000000000000, 0.000000000000000000, 0.000000000000000000, 0.000000000000000000 ) ;
#308 =( CONVERSION_BASED_UNIT ( 'INCH', #209 ) LENGTH_UNIT ( ) NAMED_UNIT ( #66 ) );
#309 = ADVANCED_FACE ( 'NONE', ( #75 ), #167, .T. ) ;
ENDSEC;
END-ISO-10303-21;
