ISO-10303-21;
HEADER;
FILE_DESCRIPTION (( 'STEP AP214' ),
    '1' );
FILE_NAME ('03105.STEP',
    '2023-06-22T14:55:35',
    ( '' ),
    ( '' ),
    'SwSTEP 2.0',
    'SolidWorks 2023',
    '' );
FILE_SCHEMA (( 'AUTOMOTIVE_DESIGN' ));
ENDSEC;

DATA;
#1 = EDGE_CURVE ( 'NONE', #204, #294, #188, .T. ) ;
#2 = DIRECTION ( 'NONE',  ( -1.000000000000000000, 0.000000000000000000, 0.000000000000000000 ) ) ;
#3 = ADVANCED_BREP_SHAPE_REPRESENTATION ( '03105', ( #246, #129, #233 ), #302 ) ;
#4 = CARTESIAN_POINT ( 'NONE',  ( 0.000000000000000000, 0.5625000000000000000, 0.000000000000000000 ) ) ;
#5 = DIRECTION ( 'NONE',  ( -1.000000000000000000, 0.000000000000000000, 0.000000000000000000 ) ) ;
#6 = PRESENTATION_STYLE_ASSIGNMENT (( #21 ) ) ;
#7 = EDGE_LOOP ( 'NONE', ( #161, #300 ) ) ;
#8 = VERTEX_POINT ( 'NONE', #106 ) ;
#9 =( NAMED_UNIT ( * ) PLANE_ANGLE_UNIT ( ) SI_UNIT ( $, .RADIAN. ) );
#10 = SURFACE_STYLE_FILL_AREA ( #150 ) ;
#11 = ORIENTED_EDGE ( 'NONE', *, *, #128, .F. ) ;
#12 = ADVANCED_FACE ( 'NONE', ( #104 ), #212, .T. ) ;
#13 = SHAPE_DEFINITION_REPRESENTATION ( #279, #3 ) ;
#14 = AXIS2_PLACEMENT_3D ( 'NONE', #120, #79, #57 ) ;
#15 = MECHANICAL_DESIGN_GEOMETRIC_PRESENTATION_REPRESENTATION (  '', ( #36 ), #81 ) ;
#16 = FILL_AREA_STYLE_COLOUR ( '', #89 ) ;
#17 = FACE_OUTER_BOUND ( 'NONE', #76, .T. ) ;
#18 = CARTESIAN_POINT ( 'NONE',  ( -6.123233995736766036E-17, 2.500000000000000000, 0.000000000000000000 ) ) ;
#19 = AXIS2_PLACEMENT_3D ( 'NONE', #139, #74, #199 ) ;
#20 = STYLED_ITEM ( 'NONE', ( #158 ), #153 ) ;
#21 = SURFACE_STYLE_USAGE ( .BOTH. , #286 ) ;
#22 = PRESENTATION_STYLE_ASSIGNMENT (( #96 ) ) ;
#23 =( LENGTH_UNIT ( ) NAMED_UNIT ( * ) SI_UNIT ( $, .METRE. ) );
#24 = DIRECTION ( 'NONE',  ( -3.160378836509298460E-17, 1.000000000000000000, -0.000000000000000000 ) ) ;
#25 = CLOSED_SHELL ( 'NONE', ( #258, #182, #194, #37 ) ) ;
#26 = COLOUR_RGB ( '',0.7921568627450980005, 0.8196078431372548767, 0.9333333333333333481 ) ;
#27 =( NAMED_UNIT ( * ) SI_UNIT ( $, .STERADIAN. ) SOLID_ANGLE_UNIT ( ) );
#28 = ORIENTED_EDGE ( 'NONE', *, *, #254, .F. ) ;
#29 = FACE_OUTER_BOUND ( 'NONE', #54, .T. ) ;
#30 =( LENGTH_UNIT ( ) NAMED_UNIT ( * ) SI_UNIT ( $, .METRE. ) );
#31 = DIRECTION ( 'NONE',  ( 0.000000000000000000, 0.000000000000000000, -1.000000000000000000 ) ) ;
#32 = SURFACE_SIDE_STYLE ('',( #227 ) ) ;
#33 = DIRECTION ( 'NONE',  ( 1.000000000000000000, 0.000000000000000000, 0.000000000000000000 ) ) ;
#34 =( NAMED_UNIT ( * ) SI_UNIT ( $, .STERADIAN. ) SOLID_ANGLE_UNIT ( ) );
#35 = AXIS2_PLACEMENT_3D ( 'NONE', #91, #44, #166 ) ;
#36 = STYLED_ITEM ( 'NONE', ( #175 ), #246 ) ;
#37 = ADVANCED_FACE ( 'NONE', ( #241 ), #284, .F. ) ;
#38 = AXIS2_PLACEMENT_3D ( 'NONE', #77, #144, #176 ) ;
#39 = DIRECTION ( 'NONE',  ( -1.000000000000000000, 0.000000000000000000, 0.000000000000000000 ) ) ;
#40 = VERTEX_POINT ( 'NONE', #261 ) ;
#41 = SURFACE_STYLE_USAGE ( .BOTH. , #257 ) ;
#42 = CIRCLE ( 'NONE', #38, 0.09374999999999998612 ) ;
#43 = DIRECTION ( 'NONE',  ( -3.160378836509298460E-17, 1.000000000000000000, 0.000000000000000000 ) ) ;
#44 = DIRECTION ( 'NONE',  ( -0.000000000000000000, -1.000000000000000000, -0.000000000000000000 ) ) ;
#45 = LINE ( 'NONE', #133, #58 ) ;
#46 = LENGTH_MEASURE_WITH_UNIT ( LENGTH_MEASURE( 0.02539999999999999897 ), #50 );
#47 = CARTESIAN_POINT ( 'NONE',  ( -6.123233995736766036E-17, 2.500000000000000000, 0.000000000000000000 ) ) ;
#48 = CARTESIAN_POINT ( 'NONE',  ( 0.000000000000000000, 0.000000000000000000, 0.000000000000000000 ) ) ;
#49 = CYLINDRICAL_SURFACE ( 'NONE', #184, 0.09375000000000002776 ) ;
#50 =( LENGTH_UNIT ( ) NAMED_UNIT ( * ) SI_UNIT ( $, .METRE. ) );
#51 =( NAMED_UNIT ( * ) SI_UNIT ( $, .STERADIAN. ) SOLID_ANGLE_UNIT ( ) );
#52 = ORIENTED_EDGE ( 'NONE', *, *, #270, .T. ) ;
#53 = DIRECTION ( 'NONE',  ( -3.160378836509298460E-17, 1.000000000000000000, -0.000000000000000000 ) ) ;
#54 = EDGE_LOOP ( 'NONE', ( #52, #268, #123, #283 ) ) ;
#55 = CIRCLE ( 'NONE', #292, 0.09375000000000001388 ) ;
#56 = MECHANICAL_DESIGN_GEOMETRIC_PRESENTATION_REPRESENTATION (  '', ( #20 ), #156 ) ;
#57 = DIRECTION ( 'NONE',  ( 0.000000000000000000, 0.000000000000000000, -1.000000000000000000 ) ) ;
#58 = VECTOR ( 'NONE', #92, 39.37007874015748143 ) ;
#59 = EDGE_CURVE ( 'NONE', #143, #146, #263, .T. ) ;
#60 = VERTEX_POINT ( 'NONE', #164 ) ;
#61 = UNCERTAINTY_MEASURE_WITH_UNIT (LENGTH_MEASURE( 1.000000000000000082E-05 ), #101, 'distance_accuracy_value', 'NONE');
#62 = DIMENSIONAL_EXPONENTS ( 1.000000000000000000, 0.000000000000000000, 0.000000000000000000, 0.000000000000000000, 0.000000000000000000, 0.000000000000000000, 0.000000000000000000 ) ;
#63 = UNCERTAINTY_MEASURE_WITH_UNIT (LENGTH_MEASURE( 1.000000000000000082E-05 ), #142, 'distance_accuracy_value', 'NONE');
#64 = PRESENTATION_LAYER_ASSIGNMENT (  '', '', ( #205 ) ) ;
#65 = AXIS2_PLACEMENT_3D ( 'NONE', #208, #162, #187 ) ;
#66 = EDGE_CURVE ( 'NONE', #143, #211, #191, .T. ) ;
#67 = EDGE_LOOP ( 'NONE', ( #234, #115, #231, #272 ) ) ;
#68 = SURFACE_STYLE_FILL_AREA ( #256 ) ;
#69 = APPLICATION_CONTEXT ( 'automotive_design' ) ;
#70 = CARTESIAN_POINT ( 'NONE',  ( 0.000000000000000000, 0.000000000000000000, 0.000000000000000000 ) ) ;
#71 = ADVANCED_FACE ( 'NONE', ( #170 ), #195, .T. ) ;
#72 =( NAMED_UNIT ( * ) SI_UNIT ( $, .STERADIAN. ) SOLID_ANGLE_UNIT ( ) );
#73 = FILL_AREA_STYLE_COLOUR ( '', #26 ) ;
#74 = DIRECTION ( 'NONE',  ( 3.160378836509298460E-17, -1.000000000000000000, 0.000000000000000000 ) ) ;
#75 =( CONVERSION_BASED_UNIT ( 'INCH', #196 ) LENGTH_UNIT ( ) NAMED_UNIT ( #277 ) );
#76 = EDGE_LOOP ( 'NONE', ( #181, #235 ) ) ;
#77 = CARTESIAN_POINT ( 'NONE',  ( 0.000000000000000000, 0.5625000000000001110, 0.000000000000000000 ) ) ;
#78 = CARTESIAN_POINT ( 'NONE',  ( -6.123233995736766036E-17, 2.500000000000000000, 0.000000000000000000 ) ) ;
#79 = DIRECTION ( 'NONE',  ( -0.000000000000000000, -1.000000000000000000, -0.000000000000000000 ) ) ;
#80 = PRODUCT_DEFINITION_FORMATION_WITH_SPECIFIED_SOURCE ( 'ANY', '', #185, .NOT_KNOWN. ) ;
#81 =( GEOMETRIC_REPRESENTATION_CONTEXT ( 3 ) GLOBAL_UNCERTAINTY_ASSIGNED_CONTEXT ( ( #275 ) ) GLOBAL_UNIT_ASSIGNED_CONTEXT ( ( #296, #145, #51 ) ) REPRESENTATION_CONTEXT ( 'NONE', 'WORKASPACE' ) );
#82 = PRESENTATION_STYLE_ASSIGNMENT (( #98 ) ) ;
#83 = EDGE_CURVE ( 'NONE', #60, #294, #242, .T. ) ;
#84 = AXIS2_PLACEMENT_3D ( 'NONE', #48, #223, #197 ) ;
#85 = CARTESIAN_POINT ( 'NONE',  ( 0.000000000000000000, 0.5625000000000000000, -0.09374999999999998612 ) ) ;
#86 = EDGE_CURVE ( 'NONE', #294, #204, #105, .T. ) ;
#87 = DIRECTION ( 'NONE',  ( -3.160378836509298460E-17, 1.000000000000000000, -0.000000000000000000 ) ) ;
#88 = COLOUR_RGB ( '',1.000000000000000000, 0.000000000000000000, 0.000000000000000000 ) ;
#89 = COLOUR_RGB ( '',1.000000000000000000, 0.000000000000000000, 0.000000000000000000 ) ;
#90 = PLANE ( 'NONE',  #203 ) ;
#91 = CARTESIAN_POINT ( 'NONE',  ( 0.000000000000000000, 0.5625000000000000000, 0.000000000000000000 ) ) ;
#92 = DIRECTION ( 'NONE',  ( -0.000000000000000000, -1.000000000000000000, -0.000000000000000000 ) ) ;
#93 = DIRECTION ( 'NONE',  ( -0.000000000000000000, -1.000000000000000000, -0.000000000000000000 ) ) ;
#94 =( NAMED_UNIT ( * ) PLANE_ANGLE_UNIT ( ) SI_UNIT ( $, .RADIAN. ) );
#95 = PRODUCT_RELATED_PRODUCT_CATEGORY ( 'part', '', ( #185 ) ) ;
#96 = SURFACE_STYLE_USAGE ( .BOTH. , #307 ) ;
#97 = PRESENTATION_LAYER_ASSIGNMENT (  '', '', ( #36 ) ) ;
#98 = SURFACE_STYLE_USAGE ( .BOTH. , #179 ) ;
#99 = ORIENTED_EDGE ( 'NONE', *, *, #66, .F. ) ;
#100 =( NAMED_UNIT ( * ) SI_UNIT ( $, .STERADIAN. ) SOLID_ANGLE_UNIT ( ) );
#101 =( CONVERSION_BASED_UNIT ( 'INCH', #253 ) LENGTH_UNIT ( ) NAMED_UNIT ( #149 ) );
#102 =( LENGTH_UNIT ( ) NAMED_UNIT ( * ) SI_UNIT ( $, .METRE. ) );
#103 = APPLICATION_PROTOCOL_DEFINITION ( 'draft international standard', 'automotive_design', 1998, #69 ) ;
#104 = FACE_OUTER_BOUND ( 'NONE', #122, .T. ) ;
#105 = CIRCLE ( 'NONE', #308, 0.09375000000000005551 ) ;
#106 = CARTESIAN_POINT ( 'NONE',  ( 0.09374999999999998612, 0.5625000000000001110, 1.148106374200644171E-17 ) ) ;
#107 = VECTOR ( 'NONE', #53, 39.37007874015748143 ) ;
#108 = EDGE_CURVE ( 'NONE', #146, #143, #147, .T. ) ;
#109 = SURFACE_STYLE_FILL_AREA ( #260 ) ;
#110 =( NAMED_UNIT ( * ) SI_UNIT ( $, .STERADIAN. ) SOLID_ANGLE_UNIT ( ) );
#111 = DIRECTION ( 'NONE',  ( 0.000000000000000000, 0.000000000000000000, -1.000000000000000000 ) ) ;
#112 = COLOUR_RGB ( '',1.000000000000000000, 0.000000000000000000, 0.000000000000000000 ) ;
#113 = CARTESIAN_POINT ( 'NONE',  ( -0.09375000000000009714, 2.500000000000000000, 0.000000000000000000 ) ) ;
#114 = FILL_AREA_STYLE ('',( #73 ) ) ;
#115 = ORIENTED_EDGE ( 'NONE', *, *, #254, .T. ) ;
#116 = CARTESIAN_POINT ( 'NONE',  ( -6.123233995736766036E-17, 2.500000000000000000, 0.000000000000000000 ) ) ;
#117 = FILL_AREA_STYLE ('',( #130 ) ) ;
#118 = SURFACE_STYLE_USAGE ( .BOTH. , #32 ) ;
#119 =( GEOMETRIC_REPRESENTATION_CONTEXT ( 3 ) GLOBAL_UNCERTAINTY_ASSIGNED_CONTEXT ( ( #63 ) ) GLOBAL_UNIT_ASSIGNED_CONTEXT ( ( #142, #259, #72 ) ) REPRESENTATION_CONTEXT ( 'NONE', 'WORKASPACE' ) );
#120 = CARTESIAN_POINT ( 'NONE',  ( 0.000000000000000000, 0.5625000000000000000, 0.000000000000000000 ) ) ;
#121 = AXIS2_PLACEMENT_3D ( 'NONE', #219, #262, #111 ) ;
#122 = EDGE_LOOP ( 'NONE', ( #178, #249, #11, #183 ) ) ;
#123 = ORIENTED_EDGE ( 'NONE', *, *, #86, .F. ) ;
#124 = APPLICATION_PROTOCOL_DEFINITION ( 'draft international standard', 'automotive_design', 1998, #291 ) ;
#125 = PRESENTATION_LAYER_ASSIGNMENT (  '', '', ( #218 ) ) ;
#126 = COLOUR_RGB ( '',0.7921568627450980005, 0.8196078431372548767, 0.9333333333333333481 ) ;
#127 = SURFACE_STYLE_USAGE ( .BOTH. , #278 ) ;
#128 = EDGE_CURVE ( 'NONE', #40, #211, #55, .T. ) ;
#129 = MANIFOLD_SOLID_BREP ( 'Revolve - Tool Body (Straight Shanked)', #25 ) ;
#130 = FILL_AREA_STYLE_COLOUR ( '', #112 ) ;
#131 = DIRECTION ( 'NONE',  ( -1.000000000000000000, -3.160378836509298460E-17, 0.000000000000000000 ) ) ;
#132 = CARTESIAN_POINT ( 'NONE',  ( -0.09375000000000012490, 2.500000000000000000, 0.000000000000000000 ) ) ;
#133 = CARTESIAN_POINT ( 'NONE',  ( 0.000000000000000000, 0.000000000000000000, -0.09374999999999998612 ) ) ;
#134 = CARTESIAN_POINT ( 'NONE',  ( 1.148106374200643401E-17, 0.000000000000000000, 0.09374999999999998612 ) ) ;
#135 = CARTESIAN_POINT ( 'NONE',  ( 1.148106374200643555E-17, 0.000000000000000000, 0.09375000000000001388 ) ) ;
#136 = EDGE_CURVE ( 'NONE', #211, #40, #282, .T. ) ;
#137 = STYLED_ITEM ( 'NONE', ( #82 ), #129 ) ;
#138 = AXIS2_PLACEMENT_3D ( 'NONE', #4, #222, #198 ) ;
#139 = CARTESIAN_POINT ( 'NONE',  ( 0.09374999999999998612, 2.500000000000000000, 0.000000000000000000 ) ) ;
#140 = LINE ( 'NONE', #216, #265 ) ;
#141 = CYLINDRICAL_SURFACE ( 'NONE', #180, 0.09375000000000002776 ) ;
#142 =( CONVERSION_BASED_UNIT ( 'INCH', #306 ) LENGTH_UNIT ( ) NAMED_UNIT ( #62 ) );
#143 = VERTEX_POINT ( 'NONE', #303 ) ;
#144 = DIRECTION ( 'NONE',  ( -3.160378836509298460E-17, 1.000000000000000000, -0.000000000000000000 ) ) ;
#145 =( NAMED_UNIT ( * ) PLANE_ANGLE_UNIT ( ) SI_UNIT ( $, .RADIAN. ) );
#146 = VERTEX_POINT ( 'NONE', #85 ) ;
#147 = CIRCLE ( 'NONE', #14, 0.09374999999999998612 ) ;
#148 = LENGTH_MEASURE_WITH_UNIT ( LENGTH_MEASURE( 0.02539999999999999897 ), #102 );
#149 = DIMENSIONAL_EXPONENTS ( 1.000000000000000000, 0.000000000000000000, 0.000000000000000000, 0.000000000000000000, 0.000000000000000000, 0.000000000000000000, 0.000000000000000000 ) ;
#150 = FILL_AREA_STYLE ('',( #177 ) ) ;
#151 = UNCERTAINTY_MEASURE_WITH_UNIT (LENGTH_MEASURE( 1.000000000000000082E-05 ), #75, 'distance_accuracy_value', 'NONE');
#152 = ORIENTED_EDGE ( 'NONE', *, *, #1, .T. ) ;
#153 = ADVANCED_FACE ( 'NONE', ( #17 ), #190, .T. ) ;
#154 =( CONVERSION_BASED_UNIT ( 'INCH', #148 ) LENGTH_UNIT ( ) NAMED_UNIT ( #207 ) );
#155 = PRESENTATION_LAYER_ASSIGNMENT (  '', '', ( #137 ) ) ;
#156 =( GEOMETRIC_REPRESENTATION_CONTEXT ( 3 ) GLOBAL_UNCERTAINTY_ASSIGNED_CONTEXT ( ( #159 ) ) GLOBAL_UNIT_ASSIGNED_CONTEXT ( ( #244, #238, #27 ) ) REPRESENTATION_CONTEXT ( 'NONE', 'WORKASPACE' ) );
#157 = DIMENSIONAL_EXPONENTS ( 1.000000000000000000, 0.000000000000000000, 0.000000000000000000, 0.000000000000000000, 0.000000000000000000, 0.000000000000000000, 0.000000000000000000 ) ;
#158 = PRESENTATION_STYLE_ASSIGNMENT (( #127 ) ) ;
#159 = UNCERTAINTY_MEASURE_WITH_UNIT (LENGTH_MEASURE( 1.000000000000000082E-05 ), #244, 'distance_accuracy_value', 'NONE');
#160 =( GEOMETRIC_REPRESENTATION_CONTEXT ( 3 ) GLOBAL_UNCERTAINTY_ASSIGNED_CONTEXT ( ( #151 ) ) GLOBAL_UNIT_ASSIGNED_CONTEXT ( ( #75, #240, #169 ) ) REPRESENTATION_CONTEXT ( 'NONE', 'WORKASPACE' ) );
#161 = ORIENTED_EDGE ( 'NONE', *, *, #128, .T. ) ;
#162 = DIRECTION ( 'NONE',  ( -0.000000000000000000, -1.000000000000000000, -0.000000000000000000 ) ) ;
#163 = ADVANCED_FACE ( 'NONE', ( #201 ), #243, .T. ) ;
#164 = CARTESIAN_POINT ( 'NONE',  ( -0.09374999999999998612, 0.5625000000000001110, 0.000000000000000000 ) ) ;
#165 = CARTESIAN_POINT ( 'NONE',  ( 4.681872370432437241E-35, 0.5625000000000000000, 0.000000000000000000 ) ) ;
#166 = DIRECTION ( 'NONE',  ( 0.000000000000000000, 0.000000000000000000, -1.000000000000000000 ) ) ;
#167 = DIRECTION ( 'NONE',  ( -3.160378836509298460E-17, 1.000000000000000000, -0.000000000000000000 ) ) ;
#168 = DIRECTION ( 'NONE',  ( 0.000000000000000000, 0.000000000000000000, -1.000000000000000000 ) ) ;
#169 =( NAMED_UNIT ( * ) SI_UNIT ( $, .STERADIAN. ) SOLID_ANGLE_UNIT ( ) );
#170 = FACE_OUTER_BOUND ( 'NONE', #298, .T. ) ;
#171 = FACE_OUTER_BOUND ( 'NONE', #214, .T. ) ;
#172 = MECHANICAL_DESIGN_GEOMETRIC_PRESENTATION_REPRESENTATION (  '', ( #229 ), #160 ) ;
#173 = PRODUCT_DEFINITION ( 'UNKNOWN', '', #80, #215 ) ;
#174 = CARTESIAN_POINT ( 'NONE',  ( 0.000000000000000000, 0.000000000000000000, 0.000000000000000000 ) ) ;
#175 = PRESENTATION_STYLE_ASSIGNMENT (( #118 ) ) ;
#176 = DIRECTION ( 'NONE',  ( -1.000000000000000000, 0.000000000000000000, 0.000000000000000000 ) ) ;
#177 = FILL_AREA_STYLE_COLOUR ( '', #126 ) ;
#178 = ORIENTED_EDGE ( 'NONE', *, *, #108, .T. ) ;
#179 = SURFACE_SIDE_STYLE ('',( #10 ) ) ;
#180 = AXIS2_PLACEMENT_3D ( 'NONE', #116, #225, #5 ) ;
#181 = ORIENTED_EDGE ( 'NONE', *, *, #108, .F. ) ;
#182 = ADVANCED_FACE ( 'NONE', ( #171 ), #90, .F. ) ;
#183 = ORIENTED_EDGE ( 'NONE', *, *, #239, .F. ) ;
#184 = AXIS2_PLACEMENT_3D ( 'NONE', #47, #192, #287 ) ;
#185 = PRODUCT ( '03105', '03105', '', ( #269 ) ) ;
#186 = SURFACE_STYLE_FILL_AREA ( #281 ) ;
#187 = DIRECTION ( 'NONE',  ( 0.000000000000000000, 0.000000000000000000, -1.000000000000000000 ) ) ;
#188 = CIRCLE ( 'NONE', #193, 0.09375000000000005551 ) ;
#189 = FILL_AREA_STYLE_COLOUR ( '', #88 ) ;
#190 = PLANE ( 'NONE',  #138 ) ;
#191 = LINE ( 'NONE', #134, #237 ) ;
#192 = DIRECTION ( 'NONE',  ( -3.160378836509298460E-17, 1.000000000000000000, -0.000000000000000000 ) ) ;
#193 = AXIS2_PLACEMENT_3D ( 'NONE', #18, #87, #39 ) ;
#194 = ADVANCED_FACE ( 'NONE', ( #264 ), #49, .T. ) ;
#195 = CYLINDRICAL_SURFACE ( 'NONE', #248, 0.09374999999999998612 ) ;
#196 = LENGTH_MEASURE_WITH_UNIT ( LENGTH_MEASURE( 0.02539999999999999897 ), #285 );
#197 = DIRECTION ( 'NONE',  ( 0.000000000000000000, 0.000000000000000000, -1.000000000000000000 ) ) ;
#198 = DIRECTION ( 'NONE',  ( 0.000000000000000000, -0.000000000000000000, 1.000000000000000000 ) ) ;
#199 = DIRECTION ( 'NONE',  ( 1.000000000000000000, 3.160378836509298460E-17, 0.000000000000000000 ) ) ;
#200 = EDGE_CURVE ( 'NONE', #8, #204, #140, .T. ) ;
#201 = FACE_OUTER_BOUND ( 'NONE', #7, .T. ) ;
#202 = MECHANICAL_DESIGN_GEOMETRIC_PRESENTATION_REPRESENTATION (  '', ( #137 ), #309 ) ;
#203 = AXIS2_PLACEMENT_3D ( 'NONE', #165, #43, #131 ) ;
#204 = VERTEX_POINT ( 'NONE', #266 ) ;
#205 = STYLED_ITEM ( 'NONE', ( #6 ), #71 ) ;
#206 = ORIENTED_EDGE ( 'NONE', *, *, #270, .F. ) ;
#207 = DIMENSIONAL_EXPONENTS ( 1.000000000000000000, 0.000000000000000000, 0.000000000000000000, 0.000000000000000000, 0.000000000000000000, 0.000000000000000000, 0.000000000000000000 ) ;
#208 = CARTESIAN_POINT ( 'NONE',  ( 0.000000000000000000, 0.000000000000000000, 0.000000000000000000 ) ) ;
#209 = PRESENTATION_STYLE_ASSIGNMENT (( #41 ) ) ;
#210 = UNCERTAINTY_MEASURE_WITH_UNIT (LENGTH_MEASURE( 1.000000000000000082E-05 ), #221, 'distance_accuracy_value', 'NONE');
#211 = VERTEX_POINT ( 'NONE', #135 ) ;
#212 = CYLINDRICAL_SURFACE ( 'NONE', #84, 0.09374999999999998612 ) ;
#213 = MECHANICAL_DESIGN_GEOMETRIC_PRESENTATION_REPRESENTATION (  '', ( #205 ), #119 ) ;
#214 = EDGE_LOOP ( 'NONE', ( #206, #28 ) ) ;
#215 = PRODUCT_DEFINITION_CONTEXT ( 'detailed design', #69, 'design' ) ;
#216 = CARTESIAN_POINT ( 'NONE',  ( 0.09374999999999995837, 2.500000000000000000, 1.148106374200644017E-17 ) ) ;
#217 = FILL_AREA_STYLE_COLOUR ( '', #220 ) ;
#218 = STYLED_ITEM ( 'NONE', ( #209 ), #12 ) ;
#219 = CARTESIAN_POINT ( 'NONE',  ( 0.000000000000000000, 0.000000000000000000, 0.000000000000000000 ) ) ;
#220 = COLOUR_RGB ( '',1.000000000000000000, 0.000000000000000000, 0.000000000000000000 ) ;
#221 =( CONVERSION_BASED_UNIT ( 'INCH', #46 ) LENGTH_UNIT ( ) NAMED_UNIT ( #255 ) );
#222 = DIRECTION ( 'NONE',  ( 0.000000000000000000, 1.000000000000000000, 0.000000000000000000 ) ) ;
#223 = DIRECTION ( 'NONE',  ( -0.000000000000000000, -1.000000000000000000, -0.000000000000000000 ) ) ;
#224 = LENGTH_MEASURE_WITH_UNIT ( LENGTH_MEASURE( 0.02539999999999999897 ), #236 );
#225 = DIRECTION ( 'NONE',  ( -3.160378836509298460E-17, 1.000000000000000000, -0.000000000000000000 ) ) ;
#226 = SURFACE_STYLE_FILL_AREA ( #117 ) ;
#227 = SURFACE_STYLE_FILL_AREA ( #114 ) ;
#228 =( GEOMETRIC_REPRESENTATION_CONTEXT ( 3 ) GLOBAL_UNCERTAINTY_ASSIGNED_CONTEXT ( ( #210 ) ) GLOBAL_UNIT_ASSIGNED_CONTEXT ( ( #221, #94, #110 ) ) REPRESENTATION_CONTEXT ( 'NONE', 'WORKASPACE' ) );
#229 = STYLED_ITEM ( 'NONE', ( #22 ), #163 ) ;
#230 = ORIENTED_EDGE ( 'NONE', *, *, #239, .T. ) ;
#231 = ORIENTED_EDGE ( 'NONE', *, *, #83, .T. ) ;
#232 = UNCERTAINTY_MEASURE_WITH_UNIT (LENGTH_MEASURE( 1.000000000000000082E-05 ), #154, 'distance_accuracy_value', 'NONE');
#233 = AXIS2_PLACEMENT_3D ( 'NONE', #301, #251, #33 ) ;
#234 = ORIENTED_EDGE ( 'NONE', *, *, #200, .F. ) ;
#235 = ORIENTED_EDGE ( 'NONE', *, *, #59, .F. ) ;
#236 =( LENGTH_UNIT ( ) NAMED_UNIT ( * ) SI_UNIT ( $, .METRE. ) );
#237 = VECTOR ( 'NONE', #93, 39.37007874015748143 ) ;
#238 =( NAMED_UNIT ( * ) PLANE_ANGLE_UNIT ( ) SI_UNIT ( $, .RADIAN. ) );
#239 = EDGE_CURVE ( 'NONE', #146, #40, #45, .T. ) ;
#240 =( NAMED_UNIT ( * ) PLANE_ANGLE_UNIT ( ) SI_UNIT ( $, .RADIAN. ) );
#241 = FACE_OUTER_BOUND ( 'NONE', #267, .T. ) ;
#242 = LINE ( 'NONE', #113, #107 ) ;
#243 = PLANE ( 'NONE',  #121 ) ;
#244 =( CONVERSION_BASED_UNIT ( 'INCH', #224 ) LENGTH_UNIT ( ) NAMED_UNIT ( #274 ) );
#245 = ORIENTED_EDGE ( 'NONE', *, *, #136, .F. ) ;
#246 = MANIFOLD_SOLID_BREP ( 'Revolve - Cutting Edge', #280 ) ;
#247 = LENGTH_MEASURE_WITH_UNIT ( LENGTH_MEASURE( 0.02539999999999999897 ), #30 );
#248 = AXIS2_PLACEMENT_3D ( 'NONE', #70, #289, #168 ) ;
#249 = ORIENTED_EDGE ( 'NONE', *, *, #66, .T. ) ;
#250 = DIRECTION ( 'NONE',  ( -3.160378836509298460E-17, 1.000000000000000000, -0.000000000000000000 ) ) ;
#251 = DIRECTION ( 'NONE',  ( 0.000000000000000000, 0.000000000000000000, 1.000000000000000000 ) ) ;
#252 = MECHANICAL_DESIGN_GEOMETRIC_PRESENTATION_REPRESENTATION (  '', ( #218 ), #228 ) ;
#253 = LENGTH_MEASURE_WITH_UNIT ( LENGTH_MEASURE( 0.02539999999999999897 ), #288 );
#254 = EDGE_CURVE ( 'NONE', #8, #60, #271, .T. ) ;
#255 = DIMENSIONAL_EXPONENTS ( 1.000000000000000000, 0.000000000000000000, 0.000000000000000000, 0.000000000000000000, 0.000000000000000000, 0.000000000000000000, 0.000000000000000000 ) ;
#256 = FILL_AREA_STYLE ('',( #189 ) ) ;
#257 = SURFACE_SIDE_STYLE ('',( #68 ) ) ;
#258 = ADVANCED_FACE ( 'NONE', ( #29 ), #141, .T. ) ;
#259 =( NAMED_UNIT ( * ) PLANE_ANGLE_UNIT ( ) SI_UNIT ( $, .RADIAN. ) );
#260 = FILL_AREA_STYLE ('',( #217 ) ) ;
#261 = CARTESIAN_POINT ( 'NONE',  ( 0.000000000000000000, 0.000000000000000000, -0.09375000000000001388 ) ) ;
#262 = DIRECTION ( 'NONE',  ( 0.000000000000000000, -1.000000000000000000, -0.000000000000000000 ) ) ;
#263 = CIRCLE ( 'NONE', #35, 0.09374999999999998612 ) ;
#264 = FACE_OUTER_BOUND ( 'NONE', #67, .T. ) ;
#265 = VECTOR ( 'NONE', #167, 39.37007874015748143 ) ;
#266 = CARTESIAN_POINT ( 'NONE',  ( 0.09374999999999998612, 2.500000000000000000, 1.148106374200644171E-17 ) ) ;
#267 = EDGE_LOOP ( 'NONE', ( #297, #152 ) ) ;
#268 = ORIENTED_EDGE ( 'NONE', *, *, #200, .T. ) ;
#269 = PRODUCT_CONTEXT ( 'NONE', #291, 'mechanical' ) ;
#270 = EDGE_CURVE ( 'NONE', #60, #8, #42, .T. ) ;
#271 = CIRCLE ( 'NONE', #276, 0.09374999999999998612 ) ;
#272 = ORIENTED_EDGE ( 'NONE', *, *, #1, .F. ) ;
#273 = DIRECTION ( 'NONE',  ( -1.000000000000000000, 0.000000000000000000, 0.000000000000000000 ) ) ;
#274 = DIMENSIONAL_EXPONENTS ( 1.000000000000000000, 0.000000000000000000, 0.000000000000000000, 0.000000000000000000, 0.000000000000000000, 0.000000000000000000, 0.000000000000000000 ) ;
#275 = UNCERTAINTY_MEASURE_WITH_UNIT (LENGTH_MEASURE( 1.000000000000000082E-05 ), #296, 'distance_accuracy_value', 'NONE');
#276 = AXIS2_PLACEMENT_3D ( 'NONE', #290, #24, #2 ) ;
#277 = DIMENSIONAL_EXPONENTS ( 1.000000000000000000, 0.000000000000000000, 0.000000000000000000, 0.000000000000000000, 0.000000000000000000, 0.000000000000000000, 0.000000000000000000 ) ;
#278 = SURFACE_SIDE_STYLE ('',( #186 ) ) ;
#279 = PRODUCT_DEFINITION_SHAPE ( 'NONE', 'NONE',  #173 ) ;
#280 = CLOSED_SHELL ( 'NONE', ( #12, #153, #71, #163 ) ) ;
#281 = FILL_AREA_STYLE ('',( #16 ) ) ;
#282 = CIRCLE ( 'NONE', #65, 0.09375000000000001388 ) ;
#283 = ORIENTED_EDGE ( 'NONE', *, *, #83, .F. ) ;
#284 = PLANE ( 'NONE',  #19 ) ;
#285 =( LENGTH_UNIT ( ) NAMED_UNIT ( * ) SI_UNIT ( $, .METRE. ) );
#286 = SURFACE_SIDE_STYLE ('',( #226 ) ) ;
#287 = DIRECTION ( 'NONE',  ( -1.000000000000000000, 0.000000000000000000, 0.000000000000000000 ) ) ;
#288 =( LENGTH_UNIT ( ) NAMED_UNIT ( * ) SI_UNIT ( $, .METRE. ) );
#289 = DIRECTION ( 'NONE',  ( -0.000000000000000000, -1.000000000000000000, -0.000000000000000000 ) ) ;
#290 = CARTESIAN_POINT ( 'NONE',  ( 0.000000000000000000, 0.5625000000000001110, 0.000000000000000000 ) ) ;
#291 = APPLICATION_CONTEXT ( 'automotive_design' ) ;
#292 = AXIS2_PLACEMENT_3D ( 'NONE', #174, #295, #31 ) ;
#293 = PRESENTATION_LAYER_ASSIGNMENT (  '', '', ( #20 ) ) ;
#294 = VERTEX_POINT ( 'NONE', #132 ) ;
#295 = DIRECTION ( 'NONE',  ( -0.000000000000000000, -1.000000000000000000, -0.000000000000000000 ) ) ;
#296 =( CONVERSION_BASED_UNIT ( 'INCH', #247 ) LENGTH_UNIT ( ) NAMED_UNIT ( #157 ) );
#297 = ORIENTED_EDGE ( 'NONE', *, *, #86, .T. ) ;
#298 = EDGE_LOOP ( 'NONE', ( #99, #304, #230, #245 ) ) ;
#299 =( NAMED_UNIT ( * ) PLANE_ANGLE_UNIT ( ) SI_UNIT ( $, .RADIAN. ) );
#300 = ORIENTED_EDGE ( 'NONE', *, *, #136, .T. ) ;
#301 = CARTESIAN_POINT ( 'NONE',  ( 0.000000000000000000, 0.000000000000000000, 0.000000000000000000 ) ) ;
#302 =( GEOMETRIC_REPRESENTATION_CONTEXT ( 3 ) GLOBAL_UNCERTAINTY_ASSIGNED_CONTEXT ( ( #61 ) ) GLOBAL_UNIT_ASSIGNED_CONTEXT ( ( #101, #9, #100 ) ) REPRESENTATION_CONTEXT ( 'NONE', 'WORKASPACE' ) );
#303 = CARTESIAN_POINT ( 'NONE',  ( 1.148106374200643401E-17, 0.5625000000000000000, 0.09374999999999998612 ) ) ;
#304 = ORIENTED_EDGE ( 'NONE', *, *, #59, .T. ) ;
#305 = PRESENTATION_LAYER_ASSIGNMENT (  '', '', ( #229 ) ) ;
#306 = LENGTH_MEASURE_WITH_UNIT ( LENGTH_MEASURE( 0.02539999999999999897 ), #23 );
#307 = SURFACE_SIDE_STYLE ('',( #109 ) ) ;
#308 = AXIS2_PLACEMENT_3D ( 'NONE', #78, #250, #273 ) ;
#309 =( GEOMETRIC_REPRESENTATION_CONTEXT ( 3 ) GLOBAL_UNCERTAINTY_ASSIGNED_CONTEXT ( ( #232 ) ) GLOBAL_UNIT_ASSIGNED_CONTEXT ( ( #154, #299, #34 ) ) REPRESENTATION_CONTEXT ( 'NONE', 'WORKASPACE' ) );
ENDSEC;
END-ISO-10303-21;
