ISO-10303-21;
HEADER;
FILE_DESCRIPTION (( 'STEP AP214' ),
    '1' );
FILE_NAME ('Micro_RTCM-060-2X.STEP',
    '2021-09-03T18:24:52',
    ( '' ),
    ( '' ),
    'SwSTEP 2.0',
    'SolidWorks 2020',
    '' );
FILE_SCHEMA (( 'AUTOMOTIVE_DESIGN' ));
ENDSEC;

DATA;
#1 = DIRECTION ( 'NONE',  ( -0.2588190451025216832, 3.169619151431776035E-17, 0.9659258262890679791 ) ) ;
#2 = CARTESIAN_POINT ( 'NONE',  ( 0.0000000000000000000, 0.0000000000000000000, 2.244094000000000033 ) ) ;
#3 = CIRCLE ( 'NONE', #140, 0.003936999999999995191 ) ;
#4 = DIRECTION ( 'NONE',  ( -1.000000000000000000, 0.0000000000000000000, 0.0000000000000000000 ) ) ;
#5 = LINE ( 'NONE', #139, #67 ) ;
#6 = SURFACE_SIDE_STYLE ('',( #220 ) ) ;
#7 = FILL_AREA_STYLE_COLOUR ( '', #48 ) ;
#8 = AXIS2_PLACEMENT_3D ( 'NONE', #235, #98, #58 ) ;
#9 = FILL_AREA_STYLE ('',( #7 ) ) ;
#10 = EDGE_LOOP ( 'NONE', ( #130, #150, #105, #133 ) ) ;
#11 = CARTESIAN_POINT ( 'NONE',  ( 0.0000000000000000000, 0.0000000000000000000, 2.244094000000000033 ) ) ;
#12 = ORIENTED_EDGE ( 'NONE', *, *, #68, .F. ) ;
#13 = ORIENTED_EDGE ( 'NONE', *, *, #222, .F. ) ;
#14 = CIRCLE ( 'NONE', #8, 0.003936999999999995191 ) ;
#15 = VERTEX_POINT ( 'NONE', #41 ) ;
#16 = ORIENTED_EDGE ( 'NONE', *, *, #207, .F. ) ;
#17 = CARTESIAN_POINT ( 'NONE',  ( 0.1181100000000000066, 1.446430334472939084E-17, 2.244094000000000033 ) ) ;
#18 = CONICAL_SURFACE ( 'NONE', #184, 0.003936999999999995191, 0.2617993877991502960 ) ;
#19 = DIRECTION ( 'NONE',  ( 1.000000000000000000, 0.0000000000000000000, 0.0000000000000000000 ) ) ;
#20 = FACE_OUTER_BOUND ( 'NONE', #69, .T. ) ;
#21 = EDGE_CURVE ( 'NONE', #47, #74, #228, .T. ) ;
#22 = DIRECTION ( 'NONE',  ( 0.0000000000000000000, 0.0000000000000000000, -1.000000000000000000 ) ) ;
#23 = LENGTH_MEASURE_WITH_UNIT ( LENGTH_MEASURE( 0.02539999999999999897 ), #211 );
#24 = CYLINDRICAL_SURFACE ( 'NONE', #114, 0.1181100000000000066 ) ;
#25 = FILL_AREA_STYLE ('',( #144 ) ) ;
#26 =( LENGTH_UNIT ( ) NAMED_UNIT ( * ) SI_UNIT ( $, .METRE. ) );
#27 = ORIENTED_EDGE ( 'NONE', *, *, #42, .F. ) ;
#28 =( CONVERSION_BASED_UNIT ( 'INCH', #165 ) LENGTH_UNIT ( ) NAMED_UNIT ( #198 ) );
#29 = AXIS2_PLACEMENT_3D ( 'NONE', #215, #35, #199 ) ;
#30 = EDGE_LOOP ( 'NONE', ( #12, #64, #240, #85 ) ) ;
#31 = CYLINDRICAL_SURFACE ( 'NONE', #57, 0.1181100000000000066 ) ;
#32 = EDGE_CURVE ( 'NONE', #15, #117, #124, .T. ) ;
#33 = ORIENTED_EDGE ( 'NONE', *, *, #247, .F. ) ;
#34 = PRESENTATION_LAYER_ASSIGNMENT (  '', '', ( #99 ) ) ;
#35 = DIRECTION ( 'NONE',  ( -0.0000000000000000000, -0.0000000000000000000, -1.000000000000000000 ) ) ;
#36 = LINE ( 'NONE', #174, #219 ) ;
#37 = PRODUCT_DEFINITION_SHAPE ( 'NONE', 'NONE',  #212 ) ;
#38 = VECTOR ( 'NONE', #148, 39.37007874015748143 ) ;
#39 = CONICAL_SURFACE ( 'NONE', #163, 0.003936999999999995191, 0.2617993877991502960 ) ;
#40 = DIRECTION ( 'NONE',  ( -1.000000000000000000, 0.0000000000000000000, 0.0000000000000000000 ) ) ;
#41 = CARTESIAN_POINT ( 'NONE',  ( -0.1181100000000000066, 0.0000000000000000000, 1.817994563147440124 ) ) ;
#42 = EDGE_CURVE ( 'NONE', #117, #213, #113, .T. ) ;
#43 = CONICAL_SURFACE ( 'NONE', #195, 0.003936999999999995191, 0.2617993877991502960 ) ;
#44 =( GEOMETRIC_REPRESENTATION_CONTEXT ( 3 ) GLOBAL_UNCERTAINTY_ASSIGNED_CONTEXT ( ( #106 ) ) GLOBAL_UNIT_ASSIGNED_CONTEXT ( ( #28, #92, #237 ) ) REPRESENTATION_CONTEXT ( 'NONE', 'WORKASPACE' ) );
#45 = DIMENSIONAL_EXPONENTS ( 1.000000000000000000, 0.0000000000000000000, 0.0000000000000000000, 0.0000000000000000000, 0.0000000000000000000, 0.0000000000000000000, 0.0000000000000000000 ) ;
#46 = ORIENTED_EDGE ( 'NONE', *, *, #244, .F. ) ;
#47 = VERTEX_POINT ( 'NONE', #87 ) ;
#48 = COLOUR_RGB ( '',0.7921568627450980005, 0.8196078431372548767, 0.9333333333333333481 ) ;
#49 = ORIENTED_EDGE ( 'NONE', *, *, #242, .F. ) ;
#50 = ORIENTED_EDGE ( 'NONE', *, *, #116, .T. ) ;
#51 = SHAPE_DEFINITION_REPRESENTATION ( #37, #245 ) ;
#52 = DIRECTION ( 'NONE',  ( 0.0000000000000000000, 0.0000000000000000000, -1.000000000000000000 ) ) ;
#53 = FACE_OUTER_BOUND ( 'NONE', #10, .T. ) ;
#54 = DIRECTION ( 'NONE',  ( -0.0000000000000000000, -0.0000000000000000000, -1.000000000000000000 ) ) ;
#55 = CARTESIAN_POINT ( 'NONE',  ( 0.0000000000000000000, 0.0000000000000000000, 0.0000000000000000000 ) ) ;
#56 = ORIENTED_EDGE ( 'NONE', *, *, #126, .T. ) ;
#57 = AXIS2_PLACEMENT_3D ( 'NONE', #146, #179, #194 ) ;
#58 = DIRECTION ( 'NONE',  ( -1.000000000000000000, 0.0000000000000000000, 0.0000000000000000000 ) ) ;
#59 = DIRECTION ( 'NONE',  ( -0.0000000000000000000, -0.0000000000000000000, -1.000000000000000000 ) ) ;
#60 = CARTESIAN_POINT ( 'NONE',  ( 0.0000000000000000000, 0.0000000000000000000, 2.244094000000000033 ) ) ;
#61 = DIRECTION ( 'NONE',  ( 0.0000000000000000000, 0.0000000000000000000, 1.000000000000000000 ) ) ;
#62 = PRODUCT ( 'Micro_RTCM-060-2X', 'Micro_RTCM-060-2X', '', ( #153 ) ) ;
#63 = ORIENTED_EDGE ( 'NONE', *, *, #207, .T. ) ;
#64 = ORIENTED_EDGE ( 'NONE', *, *, #222, .T. ) ;
#65 = EDGE_CURVE ( 'NONE', #186, #213, #101, .T. ) ;
#66 = EDGE_LOOP ( 'NONE', ( #210, #94 ) ) ;
#67 = VECTOR ( 'NONE', #86, 39.37007874015748143 ) ;
#68 = EDGE_CURVE ( 'NONE', #193, #186, #3, .T. ) ;
#69 = EDGE_LOOP ( 'NONE', ( #209, #142, #46, #49 ) ) ;
#70 = AXIS2_PLACEMENT_3D ( 'NONE', #200, #22, #156 ) ;
#71 = SURFACE_STYLE_USAGE ( .BOTH. , #129 ) ;
#72 = DIRECTION ( 'NONE',  ( -0.0000000000000000000, -0.0000000000000000000, -1.000000000000000000 ) ) ;
#73 = FACE_OUTER_BOUND ( 'NONE', #81, .T. ) ;
#74 = VERTEX_POINT ( 'NONE', #125 ) ;
#75 = CONICAL_SURFACE ( 'NONE', #70, 0.003936999999999995191, 0.2617993877991502960 ) ;
#76 = DIRECTION ( 'NONE',  ( -1.000000000000000000, 0.0000000000000000000, 0.0000000000000000000 ) ) ;
#77 = APPLICATION_PROTOCOL_DEFINITION ( 'draft international standard', 'automotive_design', 1998, #246 ) ;
#78 = LINE ( 'NONE', #154, #88 ) ;
#79 = DIRECTION ( 'NONE',  ( 0.0000000000000000000, 0.0000000000000000000, 1.000000000000000000 ) ) ;
#80 = MECHANICAL_DESIGN_GEOMETRIC_PRESENTATION_REPRESENTATION (  '', ( #192 ), #107 ) ;
#81 = EDGE_LOOP ( 'NONE', ( #27, #169, #63, #151 ) ) ;
#82 = FACE_OUTER_BOUND ( 'NONE', #230, .T. ) ;
#83 = DIRECTION ( 'NONE',  ( 1.000000000000000000, 0.0000000000000000000, 0.0000000000000000000 ) ) ;
#84 = DIRECTION ( 'NONE',  ( -0.0000000000000000000, -0.0000000000000000000, -1.000000000000000000 ) ) ;
#85 = ORIENTED_EDGE ( 'NONE', *, *, #65, .F. ) ;
#86 = DIRECTION ( 'NONE',  ( -0.2588190451025216832, -3.169619151431776035E-17, -0.9659258262890679791 ) ) ;
#87 = CARTESIAN_POINT ( 'NONE',  ( 0.003936999999999995191, 0.0000000000000000000, 2.244094000000000033 ) ) ;
#88 = VECTOR ( 'NONE', #233, 39.37007874015748143 ) ;
#89 = SURFACE_STYLE_FILL_AREA ( #9 ) ;
#90 = ADVANCED_FACE ( 'NONE', ( #202 ), #43, .T. ) ;
#91 = UNCERTAINTY_MEASURE_WITH_UNIT (LENGTH_MEASURE( 1.000000000000000082E-05 ), #175, 'distance_accuracy_value', 'NONE');
#92 =( NAMED_UNIT ( * ) PLANE_ANGLE_UNIT ( ) SI_UNIT ( $, .RADIAN. ) );
#93 = DIRECTION ( 'NONE',  ( -1.000000000000000000, 0.0000000000000000000, 0.0000000000000000000 ) ) ;
#94 = ORIENTED_EDGE ( 'NONE', *, *, #205, .F. ) ;
#95 = CLOSED_SHELL ( 'NONE', ( #159, #149, #96, #120, #90, #203, #187, #137 ) ) ;
#96 = ADVANCED_FACE ( 'NONE', ( #158 ), #24, .T. ) ;
#97 = AXIS2_PLACEMENT_3D ( 'NONE', #225, #72, #170 ) ;
#98 = DIRECTION ( 'NONE',  ( 0.0000000000000000000, 0.0000000000000000000, -1.000000000000000000 ) ) ;
#99 = STYLED_ITEM ( 'NONE', ( #104 ), #109 ) ;
#100 = LENGTH_MEASURE_WITH_UNIT ( LENGTH_MEASURE( 0.02539999999999999897 ), #201 );
#101 = LINE ( 'NONE', #182, #118 ) ;
#102 =( NAMED_UNIT ( * ) SI_UNIT ( $, .STERADIAN. ) SOLID_ANGLE_UNIT ( ) );
#103 = FACE_OUTER_BOUND ( 'NONE', #30, .T. ) ;
#104 = PRESENTATION_STYLE_ASSIGNMENT (( #161 ) ) ;
#105 = ORIENTED_EDGE ( 'NONE', *, *, #242, .T. ) ;
#106 = UNCERTAINTY_MEASURE_WITH_UNIT (LENGTH_MEASURE( 1.000000000000000082E-05 ), #28, 'distance_accuracy_value', 'NONE');
#107 =( GEOMETRIC_REPRESENTATION_CONTEXT ( 3 ) GLOBAL_UNCERTAINTY_ASSIGNED_CONTEXT ( ( #91 ) ) GLOBAL_UNIT_ASSIGNED_CONTEXT ( ( #175, #180, #102 ) ) REPRESENTATION_CONTEXT ( 'NONE', 'WORKASPACE' ) );
#108 = APPLICATION_CONTEXT ( 'automotive_design' ) ;
#109 = MANIFOLD_SOLID_BREP ( 'Mirror1', #95 ) ;
#110 = ORIENTED_EDGE ( 'NONE', *, *, #65, .T. ) ;
#111 = EDGE_LOOP ( 'NONE', ( #188, #191, #33, #16 ) ) ;
#112 = PLANE ( 'NONE',  #173 ) ;
#113 = LINE ( 'NONE', #17, #38 ) ;
#114 = AXIS2_PLACEMENT_3D ( 'NONE', #218, #59, #40 ) ;
#115 = DIMENSIONAL_EXPONENTS ( 1.000000000000000000, 0.0000000000000000000, 0.0000000000000000000, 0.0000000000000000000, 0.0000000000000000000, 0.0000000000000000000, 0.0000000000000000000 ) ;
#116 = EDGE_CURVE ( 'NONE', #213, #132, #241, .T. ) ;
#117 = VERTEX_POINT ( 'NONE', #226 ) ;
#118 = VECTOR ( 'NONE', #204, 39.37007874015748143 ) ;
#119 = CIRCLE ( 'NONE', #29, 0.1181100000000000066 ) ;
#120 = ADVANCED_FACE ( 'NONE', ( #73 ), #31, .T. ) ;
#121 = CARTESIAN_POINT ( 'NONE',  ( 0.0000000000000000000, 0.0000000000000000000, 1.817994563147440124 ) ) ;
#122 = DIRECTION ( 'NONE',  ( 0.0000000000000000000, 0.0000000000000000000, 1.000000000000000000 ) ) ;
#123 = CARTESIAN_POINT ( 'NONE',  ( 0.1181100000000000066, 1.446430334472939084E-17, 0.4260994368525598541 ) ) ;
#124 = CIRCLE ( 'NONE', #147, 0.1181100000000000066 ) ;
#125 = CARTESIAN_POINT ( 'NONE',  ( -0.003936999999999995191, -7.473223394776848033E-18, 2.244094000000000033 ) ) ;
#126 = EDGE_CURVE ( 'NONE', #186, #193, #128, .T. ) ;
#127 =( NAMED_UNIT ( * ) SI_UNIT ( $, .STERADIAN. ) SOLID_ANGLE_UNIT ( ) );
#128 = CIRCLE ( 'NONE', #196, 0.003936999999999995191 ) ;
#129 = SURFACE_SIDE_STYLE ('',( #89 ) ) ;
#130 = ORIENTED_EDGE ( 'NONE', *, *, #155, .F. ) ;
#131 = AXIS2_PLACEMENT_3D ( 'NONE', #217, #79, #238 ) ;
#132 = VERTEX_POINT ( 'NONE', #152 ) ;
#133 = ORIENTED_EDGE ( 'NONE', *, *, #32, .F. ) ;
#134 = DIRECTION ( 'NONE',  ( 1.000000000000000000, 0.0000000000000000000, -0.0000000000000000000 ) ) ;
#135 = VECTOR ( 'NONE', #1, 39.37007874015748143 ) ;
#136 = CARTESIAN_POINT ( 'NONE',  ( 0.0000000000000000000, 0.0000000000000000000, 1.817994563147440124 ) ) ;
#137 = ADVANCED_FACE ( 'NONE', ( #231 ), #112, .T. ) ;
#138 = DIRECTION ( 'NONE',  ( -1.000000000000000000, 0.0000000000000000000, 0.0000000000000000000 ) ) ;
#139 = CARTESIAN_POINT ( 'NONE',  ( -0.003936999999999995191, -4.821434448243123477E-19, 2.244094000000000033 ) ) ;
#140 = AXIS2_PLACEMENT_3D ( 'NONE', #55, #84, #4 ) ;
#141 = CARTESIAN_POINT ( 'NONE',  ( 0.0000000000000000000, 0.0000000000000000000, 0.0000000000000000000 ) ) ;
#142 = ORIENTED_EDGE ( 'NONE', *, *, #155, .T. ) ;
#143 = PRESENTATION_LAYER_ASSIGNMENT (  '', '', ( #192 ) ) ;
#144 = FILL_AREA_STYLE_COLOUR ( '', #223 ) ;
#145 = DIRECTION ( 'NONE',  ( -1.000000000000000000, 0.0000000000000000000, 0.0000000000000000000 ) ) ;
#146 = CARTESIAN_POINT ( 'NONE',  ( 0.0000000000000000000, 0.0000000000000000000, 2.244094000000000033 ) ) ;
#147 = AXIS2_PLACEMENT_3D ( 'NONE', #121, #206, #145 ) ;
#148 = DIRECTION ( 'NONE',  ( -0.0000000000000000000, -0.0000000000000000000, -1.000000000000000000 ) ) ;
#149 = ADVANCED_FACE ( 'NONE', ( #103 ), #18, .T. ) ;
#150 = ORIENTED_EDGE ( 'NONE', *, *, #205, .T. ) ;
#151 = ORIENTED_EDGE ( 'NONE', *, *, #116, .F. ) ;
#152 = CARTESIAN_POINT ( 'NONE',  ( -0.1181100000000000066, 0.0000000000000000000, 0.4260994368525598541 ) ) ;
#153 = PRODUCT_CONTEXT ( 'NONE', #246, 'mechanical' ) ;
#154 = CARTESIAN_POINT ( 'NONE',  ( 0.003936999999999995191, 0.0000000000000000000, 2.244094000000000033 ) ) ;
#155 = EDGE_CURVE ( 'NONE', #74, #15, #5, .T. ) ;
#156 = DIRECTION ( 'NONE',  ( 1.000000000000000000, 0.0000000000000000000, 0.0000000000000000000 ) ) ;
#157 = PLANE ( 'NONE',  #131 ) ;
#158 = FACE_OUTER_BOUND ( 'NONE', #111, .T. ) ;
#159 = ADVANCED_FACE ( 'NONE', ( #20 ), #75, .T. ) ;
#160 = CARTESIAN_POINT ( 'NONE',  ( 0.003936999999999995191, 0.0000000000000000000, 0.0000000000000000000 ) ) ;
#161 = SURFACE_STYLE_USAGE ( .BOTH. , #6 ) ;
#162 = EDGE_LOOP ( 'NONE', ( #13, #185, #110, #50 ) ) ;
#163 = AXIS2_PLACEMENT_3D ( 'NONE', #2, #52, #19 ) ;
#164 = UNCERTAINTY_MEASURE_WITH_UNIT (LENGTH_MEASURE( 1.000000000000000082E-05 ), #181, 'distance_accuracy_value', 'NONE');
#165 = LENGTH_MEASURE_WITH_UNIT ( LENGTH_MEASURE( 0.02539999999999999897 ), #26 );
#166 = PRODUCT_RELATED_PRODUCT_CATEGORY ( 'part', '', ( #62 ) ) ;
#167 = CARTESIAN_POINT ( 'NONE',  ( 0.0000000000000000000, 0.0000000000000000000, 0.0000000000000000000 ) ) ;
#168 = PRODUCT_DEFINITION_FORMATION_WITH_SPECIFIED_SOURCE ( 'ANY', '', #62, .NOT_KNOWN. ) ;
#169 = ORIENTED_EDGE ( 'NONE', *, *, #244, .T. ) ;
#170 = DIRECTION ( 'NONE',  ( -1.000000000000000000, 0.0000000000000000000, 0.0000000000000000000 ) ) ;
#171 = ORIENTED_EDGE ( 'NONE', *, *, #68, .T. ) ;
#172 = CARTESIAN_POINT ( 'NONE',  ( 0.0000000000000000000, 0.0000000000000000000, 0.0000000000000000000 ) ) ;
#173 = AXIS2_PLACEMENT_3D ( 'NONE', #11, #122, #134 ) ;
#174 = CARTESIAN_POINT ( 'NONE',  ( -0.1181100000000000066, 0.0000000000000000000, 2.244094000000000033 ) ) ;
#175 =( CONVERSION_BASED_UNIT ( 'INCH', #23 ) LENGTH_UNIT ( ) NAMED_UNIT ( #45 ) );
#176 = DIRECTION ( 'NONE',  ( 1.000000000000000000, 0.0000000000000000000, 0.0000000000000000000 ) ) ;
#177 = CARTESIAN_POINT ( 'NONE',  ( 0.0000000000000000000, 0.0000000000000000000, 0.0000000000000000000 ) ) ;
#178 = CARTESIAN_POINT ( 'NONE',  ( -0.003936999999999995191, 7.473223394776851115E-18, 0.0000000000000000000 ) ) ;
#179 = DIRECTION ( 'NONE',  ( -0.0000000000000000000, -0.0000000000000000000, -1.000000000000000000 ) ) ;
#180 =( NAMED_UNIT ( * ) PLANE_ANGLE_UNIT ( ) SI_UNIT ( $, .RADIAN. ) );
#181 =( CONVERSION_BASED_UNIT ( 'INCH', #100 ) LENGTH_UNIT ( ) NAMED_UNIT ( #115 ) );
#182 = CARTESIAN_POINT ( 'NONE',  ( 0.003936999999999995191, 0.0000000000000000000, 0.0000000000000000000 ) ) ;
#183 = DIRECTION ( 'NONE',  ( 1.000000000000000000, 0.0000000000000000000, 0.0000000000000000000 ) ) ;
#184 = AXIS2_PLACEMENT_3D ( 'NONE', #177, #197, #83 ) ;
#185 = ORIENTED_EDGE ( 'NONE', *, *, #126, .F. ) ;
#186 = VERTEX_POINT ( 'NONE', #160 ) ;
#187 = ADVANCED_FACE ( 'NONE', ( #53 ), #39, .T. ) ;
#188 = ORIENTED_EDGE ( 'NONE', *, *, #32, .T. ) ;
#189 = AXIS2_PLACEMENT_3D ( 'NONE', #60, #221, #93 ) ;
#190 = PRODUCT_DEFINITION_CONTEXT ( 'detailed design', #108, 'design' ) ;
#191 = ORIENTED_EDGE ( 'NONE', *, *, #42, .T. ) ;
#192 = STYLED_ITEM ( 'NONE', ( #227 ), #245 ) ;
#193 = VERTEX_POINT ( 'NONE', #178 ) ;
#194 = DIRECTION ( 'NONE',  ( -1.000000000000000000, 0.0000000000000000000, 0.0000000000000000000 ) ) ;
#195 = AXIS2_PLACEMENT_3D ( 'NONE', #141, #239, #183 ) ;
#196 = AXIS2_PLACEMENT_3D ( 'NONE', #172, #249, #76 ) ;
#197 = DIRECTION ( 'NONE',  ( 0.0000000000000000000, 0.0000000000000000000, 1.000000000000000000 ) ) ;
#198 = DIMENSIONAL_EXPONENTS ( 1.000000000000000000, 0.0000000000000000000, 0.0000000000000000000, 0.0000000000000000000, 0.0000000000000000000, 0.0000000000000000000, 0.0000000000000000000 ) ;
#199 = DIRECTION ( 'NONE',  ( -1.000000000000000000, 0.0000000000000000000, 0.0000000000000000000 ) ) ;
#200 = CARTESIAN_POINT ( 'NONE',  ( 0.0000000000000000000, 0.0000000000000000000, 2.244094000000000033 ) ) ;
#201 =( LENGTH_UNIT ( ) NAMED_UNIT ( * ) SI_UNIT ( $, .METRE. ) );
#202 = FACE_OUTER_BOUND ( 'NONE', #162, .T. ) ;
#203 = ADVANCED_FACE ( 'NONE', ( #82 ), #157, .F. ) ;
#204 = DIRECTION ( 'NONE',  ( 0.2588190451025216832, 0.0000000000000000000, 0.9659258262890679791 ) ) ;
#205 = EDGE_CURVE ( 'NONE', #74, #47, #14, .T. ) ;
#206 = DIRECTION ( 'NONE',  ( 0.0000000000000000000, 0.0000000000000000000, -1.000000000000000000 ) ) ;
#207 = EDGE_CURVE ( 'NONE', #15, #132, #36, .T. ) ;
#208 = MECHANICAL_DESIGN_GEOMETRIC_PRESENTATION_REPRESENTATION (  '', ( #99 ), #44 ) ;
#209 = ORIENTED_EDGE ( 'NONE', *, *, #21, .T. ) ;
#210 = ORIENTED_EDGE ( 'NONE', *, *, #21, .F. ) ;
#211 =( LENGTH_UNIT ( ) NAMED_UNIT ( * ) SI_UNIT ( $, .METRE. ) );
#212 = PRODUCT_DEFINITION ( 'UNKNOWN', '', #168, #190 ) ;
#213 = VERTEX_POINT ( 'NONE', #123 ) ;
#214 = DIRECTION ( 'NONE',  ( 0.0000000000000000000, 0.0000000000000000000, -1.000000000000000000 ) ) ;
#215 = CARTESIAN_POINT ( 'NONE',  ( 0.0000000000000000000, 0.0000000000000000000, 0.4260994368525598541 ) ) ;
#216 = LINE ( 'NONE', #234, #135 ) ;
#217 = CARTESIAN_POINT ( 'NONE',  ( 0.0000000000000000000, 0.0000000000000000000, 0.0000000000000000000 ) ) ;
#218 = CARTESIAN_POINT ( 'NONE',  ( 0.0000000000000000000, 0.0000000000000000000, 2.244094000000000033 ) ) ;
#219 = VECTOR ( 'NONE', #54, 39.37007874015748143 ) ;
#220 = SURFACE_STYLE_FILL_AREA ( #25 ) ;
#221 = DIRECTION ( 'NONE',  ( 0.0000000000000000000, 0.0000000000000000000, -1.000000000000000000 ) ) ;
#222 = EDGE_CURVE ( 'NONE', #193, #132, #216, .T. ) ;
#223 = COLOUR_RGB ( '',0.7921568627450980005, 0.8196078431372548767, 0.9333333333333333481 ) ;
#224 = CIRCLE ( 'NONE', #248, 0.1181100000000000066 ) ;
#225 = CARTESIAN_POINT ( 'NONE',  ( 0.0000000000000000000, 0.0000000000000000000, 0.4260994368525598541 ) ) ;
#226 = CARTESIAN_POINT ( 'NONE',  ( 0.1181100000000000066, 1.446430334472939084E-17, 1.817994563147440124 ) ) ;
#227 = PRESENTATION_STYLE_ASSIGNMENT (( #71 ) ) ;
#228 = CIRCLE ( 'NONE', #189, 0.003936999999999995191 ) ;
#229 =( GEOMETRIC_REPRESENTATION_CONTEXT ( 3 ) GLOBAL_UNCERTAINTY_ASSIGNED_CONTEXT ( ( #164 ) ) GLOBAL_UNIT_ASSIGNED_CONTEXT ( ( #181, #236, #127 ) ) REPRESENTATION_CONTEXT ( 'NONE', 'WORKASPACE' ) );
#230 = EDGE_LOOP ( 'NONE', ( #56, #171 ) ) ;
#231 = FACE_OUTER_BOUND ( 'NONE', #66, .T. ) ;
#232 = APPLICATION_PROTOCOL_DEFINITION ( 'draft international standard', 'automotive_design', 1998, #108 ) ;
#233 = DIRECTION ( 'NONE',  ( 0.2588190451025216832, 0.0000000000000000000, -0.9659258262890679791 ) ) ;
#234 = CARTESIAN_POINT ( 'NONE',  ( -0.003936999999999995191, 4.821434448243123477E-19, 0.0000000000000000000 ) ) ;
#235 = CARTESIAN_POINT ( 'NONE',  ( 0.0000000000000000000, 0.0000000000000000000, 2.244094000000000033 ) ) ;
#236 =( NAMED_UNIT ( * ) PLANE_ANGLE_UNIT ( ) SI_UNIT ( $, .RADIAN. ) );
#237 =( NAMED_UNIT ( * ) SI_UNIT ( $, .STERADIAN. ) SOLID_ANGLE_UNIT ( ) );
#238 = DIRECTION ( 'NONE',  ( 1.000000000000000000, 0.0000000000000000000, -0.0000000000000000000 ) ) ;
#239 = DIRECTION ( 'NONE',  ( 0.0000000000000000000, 0.0000000000000000000, 1.000000000000000000 ) ) ;
#240 = ORIENTED_EDGE ( 'NONE', *, *, #247, .T. ) ;
#241 = CIRCLE ( 'NONE', #97, 0.1181100000000000066 ) ;
#242 = EDGE_CURVE ( 'NONE', #47, #117, #78, .T. ) ;
#243 = AXIS2_PLACEMENT_3D ( 'NONE', #167, #61, #176 ) ;
#244 = EDGE_CURVE ( 'NONE', #117, #15, #224, .T. ) ;
#245 = ADVANCED_BREP_SHAPE_REPRESENTATION ( 'Micro_RTCM-060-2X', ( #109, #243 ), #229 ) ;
#246 = APPLICATION_CONTEXT ( 'automotive_design' ) ;
#247 = EDGE_CURVE ( 'NONE', #132, #213, #119, .T. ) ;
#248 = AXIS2_PLACEMENT_3D ( 'NONE', #136, #214, #138 ) ;
#249 = DIRECTION ( 'NONE',  ( -0.0000000000000000000, -0.0000000000000000000, -1.000000000000000000 ) ) ;
ENDSEC;
END-ISO-10303-21;
