ISO-10303-21;
HEADER;
FILE_DESCRIPTION (( 'STEP AP214' ),
    '1' );
FILE_NAME ('Micro_AEMM-200-3X.STEP',
    '2022-03-15T14:34:25',
    ( '' ),
    ( '' ),
    'SwSTEP 2.0',
    'SolidWorks 2022',
    '' );
FILE_SCHEMA (( 'AUTOMOTIVE_DESIGN' ));
ENDSEC;

DATA;
#1 = ADVANCED_FACE ( 'NONE', ( #289 ), #55, .T. ) ;
#2 = CARTESIAN_POINT ( 'NONE',  ( 0.000000000000000000, 0.000000000000000000, 0.000000000000000000 ) ) ;
#3 = PRODUCT_RELATED_PRODUCT_CATEGORY ( 'part', '', ( #90 ) ) ;
#4 = ORIENTED_EDGE ( 'NONE', *, *, #227, .F. ) ;
#5 = AXIS2_PLACEMENT_3D ( 'NONE', #268, #223, #203 ) ;
#6 = SURFACE_SIDE_STYLE ('',( #171 ) ) ;
#7 = EDGE_CURVE ( 'NONE', #158, #269, #11, .T. ) ;
#8 = DIRECTION ( 'NONE',  ( 0.000000000000000000, 0.000000000000000000, -1.000000000000000000 ) ) ;
#9 = EDGE_LOOP ( 'NONE', ( #54, #134, #177, #46 ) ) ;
#10 = DIRECTION ( 'NONE',  ( -1.000000000000000000, 0.000000000000000000, 1.224646799147353207E-16 ) ) ;
#11 = LINE ( 'NONE', #17, #185 ) ;
#12 = CARTESIAN_POINT ( 'NONE',  ( 0.000000000000000000, 0.000000000000000000, 4.094488000000000127 ) ) ;
#13 = ORIENTED_EDGE ( 'NONE', *, *, #258, .F. ) ;
#14 = AXIS2_PLACEMENT_3D ( 'NONE', #116, #157, #45 ) ;
#15 = DIRECTION ( 'NONE',  ( 1.000000000000000000, 0.000000000000000000, -0.000000000000000000 ) ) ;
#16 = DIRECTION ( 'NONE',  ( 0.000000000000000000, 0.000000000000000000, 1.000000000000000000 ) ) ;
#17 = CARTESIAN_POINT ( 'NONE',  ( -0.3937009999999999676, 0.000000000000000000, 4.094488000000000127 ) ) ;
#18 = PLANE ( 'NONE',  #230 ) ;
#19 =( LENGTH_UNIT ( ) NAMED_UNIT ( * ) SI_UNIT ( $, .METRE. ) );
#20 = CIRCLE ( 'NONE', #137, 0.3933072989999999991 ) ;
#21 =( CONVERSION_BASED_UNIT ( 'INCH', #273 ) LENGTH_UNIT ( ) NAMED_UNIT ( #146 ) );
#22 = EDGE_CURVE ( 'NONE', #38, #158, #105, .T. ) ;
#23 = AXIS2_PLACEMENT_3D ( 'NONE', #213, #106, #200 ) ;
#24 = UNCERTAINTY_MEASURE_WITH_UNIT (LENGTH_MEASURE( 1.000000000000000082E-05 ), #25, 'distance_accuracy_value', 'NONE');
#25 =( CONVERSION_BASED_UNIT ( 'INCH', #234 ) LENGTH_UNIT ( ) NAMED_UNIT ( #100 ) );
#26 =( GEOMETRIC_REPRESENTATION_CONTEXT ( 3 ) GLOBAL_UNCERTAINTY_ASSIGNED_CONTEXT ( ( #70 ) ) GLOBAL_UNIT_ASSIGNED_CONTEXT ( ( #21, #186, #179 ) ) REPRESENTATION_CONTEXT ( 'NONE', 'WORKASPACE' ) );
#27 = VERTEX_POINT ( 'NONE', #252 ) ;
#28 = ADVANCED_BREP_SHAPE_REPRESENTATION ( 'Micro_AEMM-200-3X', ( #209, #93 ), #26 ) ;
#29 = ADVANCED_FACE ( 'NONE', ( #99 ), #92, .T. ) ;
#30 = CYLINDRICAL_SURFACE ( 'NONE', #233, 0.3933072989999999991 ) ;
#31 = DIRECTION ( 'NONE',  ( -1.224646799147353207E-16, -0.000000000000000000, -1.000000000000000000 ) ) ;
#32 = PRODUCT_DEFINITION ( 'UNKNOWN', '', #108, #66 ) ;
#33 = MECHANICAL_DESIGN_GEOMETRIC_PRESENTATION_REPRESENTATION (  '', ( #255 ), #95 ) ;
#34 = LINE ( 'NONE', #266, #43 ) ;
#35 = FACE_OUTER_BOUND ( 'NONE', #141, .T. ) ;
#36 = CARTESIAN_POINT ( 'NONE',  ( 0.3933072989999999991, 4.816625248016410340E-17, -4.816625248016410340E-17 ) ) ;
#37 = CARTESIAN_POINT ( 'NONE',  ( 0.3937009999999999676, 4.821446694711121291E-17, 4.094488000000000127 ) ) ;
#38 = VERTEX_POINT ( 'NONE', #261 ) ;
#39 = CARTESIAN_POINT ( 'NONE',  ( 2.169650400296604887E-16, 0.000000000000000000, 1.771654000000000062 ) ) ;
#40 = FACE_OUTER_BOUND ( 'NONE', #248, .T. ) ;
#41 = FACE_OUTER_BOUND ( 'NONE', #295, .T. ) ;
#42 = VERTEX_POINT ( 'NONE', #147 ) ;
#43 = VECTOR ( 'NONE', #109, 39.37007874015748143 ) ;
#44 = FACE_OUTER_BOUND ( 'NONE', #129, .T. ) ;
#45 = DIRECTION ( 'NONE',  ( -1.000000000000000000, 0.000000000000000000, 0.000000000000000000 ) ) ;
#46 = ORIENTED_EDGE ( 'NONE', *, *, #7, .F. ) ;
#47 = AXIS2_PLACEMENT_3D ( 'NONE', #178, #287, #10 ) ;
#48 = CIRCLE ( 'NONE', #224, 0.3787010000000002319 ) ;
#49 = VERTEX_POINT ( 'NONE', #240 ) ;
#50 =( GEOMETRIC_REPRESENTATION_CONTEXT ( 3 ) GLOBAL_UNCERTAINTY_ASSIGNED_CONTEXT ( ( #117 ) ) GLOBAL_UNIT_ASSIGNED_CONTEXT ( ( #283, #53, #61 ) ) REPRESENTATION_CONTEXT ( 'NONE', 'WORKASPACE' ) );
#51 = CARTESIAN_POINT ( 'NONE',  ( 0.000000000000000000, 0.000000000000000000, 0.000000000000000000 ) ) ;
#52 = APPLICATION_PROTOCOL_DEFINITION ( 'draft international standard', 'automotive_design', 1998, #294 ) ;
#53 =( NAMED_UNIT ( * ) PLANE_ANGLE_UNIT ( ) SI_UNIT ( $, .RADIAN. ) );
#54 = ORIENTED_EDGE ( 'NONE', *, *, #163, .T. ) ;
#55 = CONICAL_SURFACE ( 'NONE', #181, 0.3933072989999999991, 0.1745329251994338915 ) ;
#56 = CIRCLE ( 'NONE', #277, 0.3937009999999999676 ) ;
#57 = ORIENTED_EDGE ( 'NONE', *, *, #278, .T. ) ;
#58 = CYLINDRICAL_SURFACE ( 'NONE', #290, 0.3937009999999999676 ) ;
#59 = DIRECTION ( 'NONE',  ( -0.000000000000000000, -0.000000000000000000, -1.000000000000000000 ) ) ;
#60 = LINE ( 'NONE', #36, #191 ) ;
#61 =( NAMED_UNIT ( * ) SI_UNIT ( $, .STERADIAN. ) SOLID_ANGLE_UNIT ( ) );
#62 = ORIENTED_EDGE ( 'NONE', *, *, #72, .F. ) ;
#63 = CARTESIAN_POINT ( 'NONE',  ( 5.898664692675622805E-33, 0.000000000000000000, 4.816625248016410340E-17 ) ) ;
#64 = DIRECTION ( 'NONE',  ( 1.000000000000000000, 0.000000000000000000, 0.000000000000000000 ) ) ;
#65 = CIRCLE ( 'NONE', #264, 0.3787010000000002319 ) ;
#66 = PRODUCT_DEFINITION_CONTEXT ( 'detailed design', #294, 'design' ) ;
#67 = ADVANCED_FACE ( 'NONE', ( #35 ), #299, .T. ) ;
#68 = VECTOR ( 'NONE', #239, 39.37007874015748143 ) ;
#69 = SURFACE_STYLE_FILL_AREA ( #184 ) ;
#70 = UNCERTAINTY_MEASURE_WITH_UNIT (LENGTH_MEASURE( 1.000000000000000082E-05 ), #21, 'distance_accuracy_value', 'NONE');
#71 = ADVANCED_FACE ( 'NONE', ( #40 ), #18, .F. ) ;
#72 = EDGE_CURVE ( 'NONE', #75, #121, #60, .T. ) ;
#73 = STYLED_ITEM ( 'NONE', ( #98 ), #209 ) ;
#74 = DIRECTION ( 'NONE',  ( 0.000000000000000000, 0.000000000000000000, -1.000000000000000000 ) ) ;
#75 = VERTEX_POINT ( 'NONE', #148 ) ;
#76 = FILL_AREA_STYLE ('',( #166 ) ) ;
#77 = ORIENTED_EDGE ( 'NONE', *, *, #190, .F. ) ;
#78 = DIRECTION ( 'NONE',  ( -1.224646799147353207E-16, -0.000000000000000000, -1.000000000000000000 ) ) ;
#79 = EDGE_CURVE ( 'NONE', #38, #27, #65, .T. ) ;
#80 = AXIS2_PLACEMENT_3D ( 'NONE', #201, #8, #153 ) ;
#81 = DIRECTION ( 'NONE',  ( 1.000000000000000000, 0.000000000000000000, 0.000000000000000000 ) ) ;
#82 = VERTEX_POINT ( 'NONE', #249 ) ;
#83 = DIRECTION ( 'NONE',  ( 0.7071067811865491270, 8.659560562354952580E-17, -0.7071067811865459074 ) ) ;
#84 = CARTESIAN_POINT ( 'NONE',  ( 0.000000000000000000, 0.000000000000000000, 4.079488000000000447 ) ) ;
#85 = ORIENTED_EDGE ( 'NONE', *, *, #251, .T. ) ;
#86 = CARTESIAN_POINT ( 'NONE',  ( 2.169650400296604887E-16, 0.000000000000000000, 1.771654000000000062 ) ) ;
#87 = DIRECTION ( 'NONE',  ( -1.000000000000000000, 0.000000000000000000, 1.224646799147353207E-16 ) ) ;
#88 = CARTESIAN_POINT ( 'NONE',  ( -0.3937009999999998011, 0.000000000000000000, 1.773886789323665392 ) ) ;
#89 = ADVANCED_FACE ( 'NONE', ( #44 ), #150, .T. ) ;
#90 = PRODUCT ( 'Micro_AEMM-200-3X', 'Micro_AEMM-200-3X', '', ( #164 ) ) ;
#91 = DIRECTION ( 'NONE',  ( -1.000000000000000000, 0.000000000000000000, 0.000000000000000000 ) ) ;
#92 = CONICAL_SURFACE ( 'NONE', #94, 0.3933072989999999991, 0.1745329251994338915 ) ;
#93 = AXIS2_PLACEMENT_3D ( 'NONE', #2, #167, #144 ) ;
#94 = AXIS2_PLACEMENT_3D ( 'NONE', #39, #194, #284 ) ;
#95 =( GEOMETRIC_REPRESENTATION_CONTEXT ( 3 ) GLOBAL_UNCERTAINTY_ASSIGNED_CONTEXT ( ( #24 ) ) GLOBAL_UNIT_ASSIGNED_CONTEXT ( ( #25, #120, #143 ) ) REPRESENTATION_CONTEXT ( 'NONE', 'WORKASPACE' ) );
#96 = AXIS2_PLACEMENT_3D ( 'NONE', #176, #130, #296 ) ;
#97 = VECTOR ( 'NONE', #83, 39.37007874015748143 ) ;
#98 = PRESENTATION_STYLE_ASSIGNMENT (( #262 ) ) ;
#99 = FACE_OUTER_BOUND ( 'NONE', #133, .T. ) ;
#100 = DIMENSIONAL_EXPONENTS ( 1.000000000000000000, 0.000000000000000000, 0.000000000000000000, 0.000000000000000000, 0.000000000000000000, 0.000000000000000000, 0.000000000000000000 ) ;
#101 = DIRECTION ( 'NONE',  ( 1.000000000000000000, 0.000000000000000000, 0.000000000000000000 ) ) ;
#102 = ORIENTED_EDGE ( 'NONE', *, *, #79, .F. ) ;
#103 = EDGE_CURVE ( 'NONE', #49, #121, #156, .T. ) ;
#104 = DIRECTION ( 'NONE',  ( 0.000000000000000000, 0.000000000000000000, -1.000000000000000000 ) ) ;
#105 = LINE ( 'NONE', #267, #173 ) ;
#106 = DIRECTION ( 'NONE',  ( 0.000000000000000000, 0.000000000000000000, -1.000000000000000000 ) ) ;
#107 = CLOSED_SHELL ( 'NONE', ( #243, #1, #128, #257, #205, #89, #219, #29, #67, #71 ) ) ;
#108 = PRODUCT_DEFINITION_FORMATION_WITH_SPECIFIED_SOURCE ( 'ANY', '', #90, .NOT_KNOWN. ) ;
#109 = DIRECTION ( 'NONE',  ( -1.224646799147353207E-16, -0.000000000000000000, -1.000000000000000000 ) ) ;
#110 = DIRECTION ( 'NONE',  ( 1.224646799147353207E-16, 0.000000000000000000, 1.000000000000000000 ) ) ;
#111 = CARTESIAN_POINT ( 'NONE',  ( 0.3933072990000002211, 0.000000000000000000, 1.771654000000000062 ) ) ;
#112 = ORIENTED_EDGE ( 'NONE', *, *, #163, .F. ) ;
#113 = CYLINDRICAL_SURFACE ( 'NONE', #14, 0.3937009999999999676 ) ;
#114 = DIRECTION ( 'NONE',  ( 1.000000000000000000, 0.000000000000000000, 0.000000000000000000 ) ) ;
#115 = COLOUR_RGB ( '',0.7921568627450980005, 0.8196078431372548767, 0.9333333333333333481 ) ;
#116 = CARTESIAN_POINT ( 'NONE',  ( 0.000000000000000000, 0.000000000000000000, 4.094488000000000127 ) ) ;
#117 = UNCERTAINTY_MEASURE_WITH_UNIT (LENGTH_MEASURE( 1.000000000000000082E-05 ), #283, 'distance_accuracy_value', 'NONE');
#118 = DIRECTION ( 'NONE',  ( 1.000000000000000000, 0.000000000000000000, 0.000000000000000000 ) ) ;
#119 = PRESENTATION_LAYER_ASSIGNMENT (  '', '', ( #73 ) ) ;
#120 =( NAMED_UNIT ( * ) PLANE_ANGLE_UNIT ( ) SI_UNIT ( $, .RADIAN. ) );
#121 = VERTEX_POINT ( 'NONE', #271 ) ;
#122 = DIRECTION ( 'NONE',  ( -1.224646799147353207E-16, -0.000000000000000000, -1.000000000000000000 ) ) ;
#123 = FACE_OUTER_BOUND ( 'NONE', #154, .T. ) ;
#124 = PRESENTATION_LAYER_ASSIGNMENT (  '', '', ( #255 ) ) ;
#125 = DIRECTION ( 'NONE',  ( -1.000000000000000000, 0.000000000000000000, 0.000000000000000000 ) ) ;
#126 = EDGE_LOOP ( 'NONE', ( #180, #197, #279, #139 ) ) ;
#127 = ORIENTED_EDGE ( 'NONE', *, *, #7, .T. ) ;
#128 = ADVANCED_FACE ( 'NONE', ( #123 ), #165, .T. ) ;
#129 = EDGE_LOOP ( 'NONE', ( #293, #236 ) ) ;
#130 = DIRECTION ( 'NONE',  ( 0.000000000000000000, 0.000000000000000000, 1.000000000000000000 ) ) ;
#131 = CIRCLE ( 'NONE', #214, 0.3937009999999999676 ) ;
#132 = CARTESIAN_POINT ( 'NONE',  ( -0.3933072989999998326, 4.816625248016410340E-17, 1.771654000000000062 ) ) ;
#133 = EDGE_LOOP ( 'NONE', ( #270, #212, #222, #199 ) ) ;
#134 = ORIENTED_EDGE ( 'NONE', *, *, #190, .T. ) ;
#135 = DIRECTION ( 'NONE',  ( -1.224646799147353207E-16, -0.000000000000000000, -1.000000000000000000 ) ) ;
#136 = DIRECTION ( 'NONE',  ( -1.000000000000000000, 0.000000000000000000, 1.224646799147353207E-16 ) ) ;
#137 = AXIS2_PLACEMENT_3D ( 'NONE', #63, #276, #183 ) ;
#138 = EDGE_CURVE ( 'NONE', #27, #42, #291, .T. ) ;
#139 = ORIENTED_EDGE ( 'NONE', *, *, #188, .F. ) ;
#140 = PRESENTATION_STYLE_ASSIGNMENT (( #256 ) ) ;
#141 = EDGE_LOOP ( 'NONE', ( #62, #216, #245, #172 ) ) ;
#142 = EDGE_CURVE ( 'NONE', #75, #82, #189, .T. ) ;
#143 =( NAMED_UNIT ( * ) SI_UNIT ( $, .STERADIAN. ) SOLID_ANGLE_UNIT ( ) );
#144 = DIRECTION ( 'NONE',  ( 1.000000000000000000, 0.000000000000000000, 0.000000000000000000 ) ) ;
#145 = CARTESIAN_POINT ( 'NONE',  ( 0.3937010000000001897, 4.821446694711123140E-17, 1.773886789323665392 ) ) ;
#146 = DIMENSIONAL_EXPONENTS ( 1.000000000000000000, 0.000000000000000000, 0.000000000000000000, 0.000000000000000000, 0.000000000000000000, 0.000000000000000000, 0.000000000000000000 ) ;
#147 = CARTESIAN_POINT ( 'NONE',  ( 0.3937009999999999676, 4.821446694711121291E-17, 4.079488000000000447 ) ) ;
#148 = CARTESIAN_POINT ( 'NONE',  ( 0.3933072990000002211, 0.000000000000000000, 1.771654000000000062 ) ) ;
#149 = ORIENTED_EDGE ( 'NONE', *, *, #220, .T. ) ;
#150 = PLANE ( 'NONE',  #96 ) ;
#151 = CARTESIAN_POINT ( 'NONE',  ( 0.000000000000000000, 0.000000000000000000, 4.094488000000000127 ) ) ;
#152 = DIRECTION ( 'NONE',  ( -0.7071067811865491270, 0.000000000000000000, -0.7071067811865459074 ) ) ;
#153 = DIRECTION ( 'NONE',  ( 1.000000000000000000, 0.000000000000000000, 0.000000000000000000 ) ) ;
#154 = EDGE_LOOP ( 'NONE', ( #4, #286, #112, #281 ) ) ;
#155 = CARTESIAN_POINT ( 'NONE',  ( 0.000000000000000000, 0.000000000000000000, 0.000000000000000000 ) ) ;
#156 = CIRCLE ( 'NONE', #208, 0.3933072989999999991 ) ;
#157 = DIRECTION ( 'NONE',  ( -0.000000000000000000, -0.000000000000000000, -1.000000000000000000 ) ) ;
#158 = VERTEX_POINT ( 'NONE', #221 ) ;
#159 = VECTOR ( 'NONE', #288, 39.37007874015747433 ) ;
#160 = SURFACE_SIDE_STYLE ('',( #69 ) ) ;
#161 = CIRCLE ( 'NONE', #231, 0.3937009999999999676 ) ;
#162 = SHAPE_DEFINITION_REPRESENTATION ( #198, #28 ) ;
#163 = EDGE_CURVE ( 'NONE', #158, #42, #56, .T. ) ;
#164 = PRODUCT_CONTEXT ( 'NONE', #254, 'mechanical' ) ;
#165 = CONICAL_SURFACE ( 'NONE', #23, 0.3787010000000002319, 0.7853981633974506105 ) ;
#166 = FILL_AREA_STYLE_COLOUR ( '', #206 ) ;
#167 = DIRECTION ( 'NONE',  ( 0.000000000000000000, 0.000000000000000000, 1.000000000000000000 ) ) ;
#168 = FACE_OUTER_BOUND ( 'NONE', #263, .T. ) ;
#169 = ORIENTED_EDGE ( 'NONE', *, *, #237, .F. ) ;
#170 = DIMENSIONAL_EXPONENTS ( 1.000000000000000000, 0.000000000000000000, 0.000000000000000000, 0.000000000000000000, 0.000000000000000000, 0.000000000000000000, 0.000000000000000000 ) ;
#171 = SURFACE_STYLE_FILL_AREA ( #76 ) ;
#172 = ORIENTED_EDGE ( 'NONE', *, *, #251, .F. ) ;
#173 = VECTOR ( 'NONE', #152, 39.37007874015748143 ) ;
#174 = LINE ( 'NONE', #111, #68 ) ;
#175 = ORIENTED_EDGE ( 'NONE', *, *, #22, .T. ) ;
#176 = CARTESIAN_POINT ( 'NONE',  ( 0.000000000000000000, 0.000000000000000000, 4.094488000000000127 ) ) ;
#177 = ORIENTED_EDGE ( 'NONE', *, *, #278, .F. ) ;
#178 = CARTESIAN_POINT ( 'NONE',  ( 0.000000000000000000, 0.000000000000000000, 0.000000000000000000 ) ) ;
#179 =( NAMED_UNIT ( * ) SI_UNIT ( $, .STERADIAN. ) SOLID_ANGLE_UNIT ( ) );
#180 = ORIENTED_EDGE ( 'NONE', *, *, #258, .T. ) ;
#181 = AXIS2_PLACEMENT_3D ( 'NONE', #86, #110, #64 ) ;
#182 = AXIS2_PLACEMENT_3D ( 'NONE', #253, #297, #91 ) ;
#183 = DIRECTION ( 'NONE',  ( -1.000000000000000000, 0.000000000000000000, 1.224646799147353207E-16 ) ) ;
#184 = FILL_AREA_STYLE ('',( #275 ) ) ;
#185 = VECTOR ( 'NONE', #59, 39.37007874015748143 ) ;
#186 =( NAMED_UNIT ( * ) PLANE_ANGLE_UNIT ( ) SI_UNIT ( $, .RADIAN. ) );
#187 = EDGE_CURVE ( 'NONE', #42, #158, #282, .T. ) ;
#188 = EDGE_CURVE ( 'NONE', #82, #49, #34, .T. ) ;
#189 = CIRCLE ( 'NONE', #5, 0.3933072989999999991 ) ;
#190 = EDGE_CURVE ( 'NONE', #42, #202, #196, .T. ) ;
#191 = VECTOR ( 'NONE', #78, 39.37007874015748143 ) ;
#192 = MECHANICAL_DESIGN_GEOMETRIC_PRESENTATION_REPRESENTATION (  '', ( #73 ), #50 ) ;
#193 = LENGTH_MEASURE_WITH_UNIT ( LENGTH_MEASURE( 0.02539999999999999897 ), #292 );
#194 = DIRECTION ( 'NONE',  ( 1.224646799147353207E-16, 0.000000000000000000, 1.000000000000000000 ) ) ;
#195 = CARTESIAN_POINT ( 'NONE',  ( 5.898664692675622805E-33, 0.000000000000000000, 4.816625248016410340E-17 ) ) ;
#196 = LINE ( 'NONE', #37, #250 ) ;
#197 = ORIENTED_EDGE ( 'NONE', *, *, #72, .T. ) ;
#198 = PRODUCT_DEFINITION_SHAPE ( 'NONE', 'NONE',  #32 ) ;
#199 = ORIENTED_EDGE ( 'NONE', *, *, #298, .T. ) ;
#200 = DIRECTION ( 'NONE',  ( -1.000000000000000000, 0.000000000000000000, 0.000000000000000000 ) ) ;
#201 = CARTESIAN_POINT ( 'NONE',  ( 0.000000000000000000, 0.000000000000000000, 4.079488000000000447 ) ) ;
#202 = VERTEX_POINT ( 'NONE', #145 ) ;
#203 = DIRECTION ( 'NONE',  ( -1.000000000000000000, 0.000000000000000000, 0.000000000000000000 ) ) ;
#204 = ORIENTED_EDGE ( 'NONE', *, *, #187, .T. ) ;
#205 = ADVANCED_FACE ( 'NONE', ( #41 ), #58, .T. ) ;
#206 = COLOUR_RGB ( '',0.7921568627450980005, 0.8196078431372548767, 0.9333333333333333481 ) ;
#207 = CARTESIAN_POINT ( 'NONE',  ( 2.172384778595001935E-16, 0.000000000000000000, 1.773886789323665392 ) ) ;
#208 = AXIS2_PLACEMENT_3D ( 'NONE', #195, #31, #87 ) ;
#209 = MANIFOLD_SOLID_BREP ( 'Cut-Revolve1', #107 ) ;
#210 = AXIS2_PLACEMENT_3D ( 'NONE', #151, #74, #215 ) ;
#211 = APPLICATION_PROTOCOL_DEFINITION ( 'draft international standard', 'automotive_design', 1998, #254 ) ;
#212 = ORIENTED_EDGE ( 'NONE', *, *, #142, .F. ) ;
#213 = CARTESIAN_POINT ( 'NONE',  ( 0.000000000000000000, 0.000000000000000000, 4.094488000000000127 ) ) ;
#214 = AXIS2_PLACEMENT_3D ( 'NONE', #207, #135, #118 ) ;
#215 = DIRECTION ( 'NONE',  ( -1.000000000000000000, 0.000000000000000000, 0.000000000000000000 ) ) ;
#216 = ORIENTED_EDGE ( 'NONE', *, *, #142, .T. ) ;
#217 = EDGE_LOOP ( 'NONE', ( #13, #149, #57, #169 ) ) ;
#218 = DIRECTION ( 'NONE',  ( 0.000000000000000000, 0.000000000000000000, 1.000000000000000000 ) ) ;
#219 = ADVANCED_FACE ( 'NONE', ( #168 ), #272, .T. ) ;
#220 = EDGE_CURVE ( 'NONE', #82, #269, #247, .T. ) ;
#221 = CARTESIAN_POINT ( 'NONE',  ( -0.3937009999999999676, 0.000000000000000000, 4.079488000000000447 ) ) ;
#222 = ORIENTED_EDGE ( 'NONE', *, *, #237, .T. ) ;
#223 = DIRECTION ( 'NONE',  ( -1.224646799147353207E-16, -0.000000000000000000, -1.000000000000000000 ) ) ;
#224 = AXIS2_PLACEMENT_3D ( 'NONE', #244, #16, #81 ) ;
#225 = CARTESIAN_POINT ( 'NONE',  ( 0.000000000000000000, 0.000000000000000000, 4.094488000000000127 ) ) ;
#226 = ORIENTED_EDGE ( 'NONE', *, *, #187, .F. ) ;
#227 = EDGE_CURVE ( 'NONE', #27, #38, #48, .T. ) ;
#228 = ORIENTED_EDGE ( 'NONE', *, *, #138, .F. ) ;
#229 = CARTESIAN_POINT ( 'NONE',  ( 2.172384778595001935E-16, 0.000000000000000000, 1.773886789323665392 ) ) ;
#230 = AXIS2_PLACEMENT_3D ( 'NONE', #155, #218, #15 ) ;
#231 = AXIS2_PLACEMENT_3D ( 'NONE', #229, #232, #114 ) ;
#232 = DIRECTION ( 'NONE',  ( -1.224646799147353207E-16, -0.000000000000000000, -1.000000000000000000 ) ) ;
#233 = AXIS2_PLACEMENT_3D ( 'NONE', #51, #122, #136 ) ;
#234 = LENGTH_MEASURE_WITH_UNIT ( LENGTH_MEASURE( 0.02539999999999999897 ), #238 );
#235 = CIRCLE ( 'NONE', #182, 0.3933072989999999991 ) ;
#236 = ORIENTED_EDGE ( 'NONE', *, *, #227, .T. ) ;
#237 = EDGE_CURVE ( 'NONE', #75, #202, #174, .T. ) ;
#238 =( LENGTH_UNIT ( ) NAMED_UNIT ( * ) SI_UNIT ( $, .METRE. ) );
#239 = DIRECTION ( 'NONE',  ( 0.1736481776669313859, 0.000000000000000000, 0.9848077530122077983 ) ) ;
#240 = CARTESIAN_POINT ( 'NONE',  ( -0.3933072989999999991, 0.000000000000000000, 9.633250496032820680E-17 ) ) ;
#241 = CARTESIAN_POINT ( 'NONE',  ( 0.3787010000000002319, 4.637749674839021182E-17, 4.094488000000000127 ) ) ;
#242 = ORIENTED_EDGE ( 'NONE', *, *, #298, .F. ) ;
#243 = ADVANCED_FACE ( 'NONE', ( #259 ), #30, .T. ) ;
#244 = CARTESIAN_POINT ( 'NONE',  ( 0.000000000000000000, 0.000000000000000000, 4.094488000000000127 ) ) ;
#245 = ORIENTED_EDGE ( 'NONE', *, *, #188, .T. ) ;
#246 = DIRECTION ( 'NONE',  ( 0.000000000000000000, 0.000000000000000000, 1.000000000000000000 ) ) ;
#247 = LINE ( 'NONE', #132, #159 ) ;
#248 = EDGE_LOOP ( 'NONE', ( #280, #85 ) ) ;
#249 = CARTESIAN_POINT ( 'NONE',  ( -0.3933072989999998326, 4.819035971363765199E-17, 1.771654000000000062 ) ) ;
#250 = VECTOR ( 'NONE', #285, 39.37007874015748143 ) ;
#251 = EDGE_CURVE ( 'NONE', #121, #49, #20, .T. ) ;
#252 = CARTESIAN_POINT ( 'NONE',  ( 0.3787010000000002319, 4.729598184775070620E-17, 4.094488000000000127 ) ) ;
#253 = CARTESIAN_POINT ( 'NONE',  ( 2.169650400296604887E-16, 0.000000000000000000, 1.771654000000000062 ) ) ;
#254 = APPLICATION_CONTEXT ( 'automotive_design' ) ;
#255 = STYLED_ITEM ( 'NONE', ( #140 ), #28 ) ;
#256 = SURFACE_STYLE_USAGE ( .BOTH. , #160 ) ;
#257 = ADVANCED_FACE ( 'NONE', ( #274 ), #113, .T. ) ;
#258 = EDGE_CURVE ( 'NONE', #82, #75, #235, .T. ) ;
#259 = FACE_OUTER_BOUND ( 'NONE', #126, .T. ) ;
#260 = DIRECTION ( 'NONE',  ( -0.000000000000000000, -0.000000000000000000, -1.000000000000000000 ) ) ;
#261 = CARTESIAN_POINT ( 'NONE',  ( -0.3787010000000002319, 0.000000000000000000, 4.094488000000000127 ) ) ;
#262 = SURFACE_STYLE_USAGE ( .BOTH. , #6 ) ;
#263 = EDGE_LOOP ( 'NONE', ( #228, #102, #175, #226 ) ) ;
#264 = AXIS2_PLACEMENT_3D ( 'NONE', #12, #246, #265 ) ;
#265 = DIRECTION ( 'NONE',  ( 1.000000000000000000, 0.000000000000000000, 0.000000000000000000 ) ) ;
#266 = CARTESIAN_POINT ( 'NONE',  ( -0.3933072989999999991, 0.000000000000000000, 4.816625248016410340E-17 ) ) ;
#267 = CARTESIAN_POINT ( 'NONE',  ( -0.3787010000000002319, 0.000000000000000000, 4.094488000000000127 ) ) ;
#268 = CARTESIAN_POINT ( 'NONE',  ( 2.169650400296604887E-16, 0.000000000000000000, 1.771654000000000062 ) ) ;
#269 = VERTEX_POINT ( 'NONE', #88 ) ;
#270 = ORIENTED_EDGE ( 'NONE', *, *, #220, .F. ) ;
#271 = CARTESIAN_POINT ( 'NONE',  ( 0.3933072989999999991, 4.816625248016410340E-17, 0.000000000000000000 ) ) ;
#272 = CONICAL_SURFACE ( 'NONE', #210, 0.3787010000000002319, 0.7853981633974506105 ) ;
#273 = LENGTH_MEASURE_WITH_UNIT ( LENGTH_MEASURE( 0.02539999999999999897 ), #19 );
#274 = FACE_OUTER_BOUND ( 'NONE', #9, .T. ) ;
#275 = FILL_AREA_STYLE_COLOUR ( '', #115 ) ;
#276 = DIRECTION ( 'NONE',  ( -1.224646799147353207E-16, -0.000000000000000000, -1.000000000000000000 ) ) ;
#277 = AXIS2_PLACEMENT_3D ( 'NONE', #84, #104, #101 ) ;
#278 = EDGE_CURVE ( 'NONE', #269, #202, #131, .T. ) ;
#279 = ORIENTED_EDGE ( 'NONE', *, *, #103, .F. ) ;
#280 = ORIENTED_EDGE ( 'NONE', *, *, #103, .T. ) ;
#281 = ORIENTED_EDGE ( 'NONE', *, *, #22, .F. ) ;
#282 = CIRCLE ( 'NONE', #80, 0.3937009999999999676 ) ;
#283 =( CONVERSION_BASED_UNIT ( 'INCH', #193 ) LENGTH_UNIT ( ) NAMED_UNIT ( #170 ) );
#284 = DIRECTION ( 'NONE',  ( 1.000000000000000000, 0.000000000000000000, 0.000000000000000000 ) ) ;
#285 = DIRECTION ( 'NONE',  ( -0.000000000000000000, -0.000000000000000000, -1.000000000000000000 ) ) ;
#286 = ORIENTED_EDGE ( 'NONE', *, *, #138, .T. ) ;
#287 = DIRECTION ( 'NONE',  ( -1.224646799147353207E-16, -0.000000000000000000, -1.000000000000000000 ) ) ;
#288 = DIRECTION ( 'NONE',  ( -0.1736481776669311916, 2.126576849575783316E-17, 0.9848077530122080203 ) ) ;
#289 = FACE_OUTER_BOUND ( 'NONE', #217, .T. ) ;
#290 = AXIS2_PLACEMENT_3D ( 'NONE', #225, #260, #125 ) ;
#291 = LINE ( 'NONE', #241, #97 ) ;
#292 =( LENGTH_UNIT ( ) NAMED_UNIT ( * ) SI_UNIT ( $, .METRE. ) );
#293 = ORIENTED_EDGE ( 'NONE', *, *, #79, .T. ) ;
#294 = APPLICATION_CONTEXT ( 'automotive_design' ) ;
#295 = EDGE_LOOP ( 'NONE', ( #77, #204, #127, #242 ) ) ;
#296 = DIRECTION ( 'NONE',  ( 1.000000000000000000, 0.000000000000000000, -0.000000000000000000 ) ) ;
#297 = DIRECTION ( 'NONE',  ( -1.224646799147353207E-16, -0.000000000000000000, -1.000000000000000000 ) ) ;
#298 = EDGE_CURVE ( 'NONE', #202, #269, #161, .T. ) ;
#299 = CYLINDRICAL_SURFACE ( 'NONE', #47, 0.3933072989999999991 ) ;
ENDSEC;
END-ISO-10303-21;
