ISO-10303-21;
HEADER;
FILE_DESCRIPTION (( 'STEP AP214' ),
    '1' );
FILE_NAME ('81849.STEP',
    '2023-06-23T03:43:34',
    ( '' ),
    ( '' ),
    'SwSTEP 2.0',
    'SolidWorks 2023',
    '' );
FILE_SCHEMA (( 'AUTOMOTIVE_DESIGN' ));
ENDSEC;

DATA;
#1 = FILL_AREA_STYLE_COLOUR ( '', #187 ) ;
#2 = CARTESIAN_POINT ( 'NONE',  ( -6.123233995736759873E-17, 5.000000000000000000, 0.000000000000000000 ) ) ;
#3 = PRESENTATION_LAYER_ASSIGNMENT (  '', '', ( #151 ) ) ;
#4 = DIRECTION ( 'NONE',  ( -0.000000000000000000, -1.000000000000000000, -0.000000000000000000 ) ) ;
#5 = LENGTH_MEASURE_WITH_UNIT ( LENGTH_MEASURE( 0.02539999999999999897 ), #216 );
#6 = DIRECTION ( 'NONE',  ( -0.000000000000000000, -1.000000000000000000, -0.000000000000000000 ) ) ;
#7 = MECHANICAL_DESIGN_GEOMETRIC_PRESENTATION_REPRESENTATION (  '', ( #186 ), #103 ) ;
#8 = LENGTH_MEASURE_WITH_UNIT ( LENGTH_MEASURE( 0.02539999999999999897 ), #298 );
#9 = CARTESIAN_POINT ( 'NONE',  ( -0.5000000000000001110, 5.000000000000000000, 0.000000000000000000 ) ) ;
#10 = ORIENTED_EDGE ( 'NONE', *, *, #47, .T. ) ;
#11 = CIRCLE ( 'NONE', #78, 0.5000000000000000000 ) ;
#12 = PRESENTATION_STYLE_ASSIGNMENT (( #271 ) ) ;
#13 = DIMENSIONAL_EXPONENTS ( 1.000000000000000000, 0.000000000000000000, 0.000000000000000000, 0.000000000000000000, 0.000000000000000000, 0.000000000000000000, 0.000000000000000000 ) ;
#14 = VERTEX_POINT ( 'NONE', #16 ) ;
#15 = FILL_AREA_STYLE ('',( #1 ) ) ;
#16 = CARTESIAN_POINT ( 'NONE',  ( -0.5000000000000001110, 5.000000000000000000, 0.000000000000000000 ) ) ;
#17 = VECTOR ( 'NONE', #80, 39.37007874015748143 ) ;
#18 = ADVANCED_FACE ( 'NONE', ( #178 ), #179, .T. ) ;
#19 = ORIENTED_EDGE ( 'NONE', *, *, #139, .T. ) ;
#20 = SURFACE_SIDE_STYLE ('',( #21 ) ) ;
#21 = SURFACE_STYLE_FILL_AREA ( #201 ) ;
#22 = AXIS2_PLACEMENT_3D ( 'NONE', #133, #280, #227 ) ;
#23 =( CONVERSION_BASED_UNIT ( 'INCH', #119 ) LENGTH_UNIT ( ) NAMED_UNIT ( #273 ) );
#24 = SURFACE_STYLE_USAGE ( .BOTH. , #142 ) ;
#25 = UNCERTAINTY_MEASURE_WITH_UNIT (LENGTH_MEASURE( 1.000000000000000082E-05 ), #23, 'distance_accuracy_value', 'NONE');
#26 = CIRCLE ( 'NONE', #217, 0.5000000000000000000 ) ;
#27 = LINE ( 'NONE', #199, #17 ) ;
#28 = UNCERTAINTY_MEASURE_WITH_UNIT (LENGTH_MEASURE( 1.000000000000000082E-05 ), #274, 'distance_accuracy_value', 'NONE');
#29 = FILL_AREA_STYLE ('',( #238 ) ) ;
#30 = PRODUCT_DEFINITION ( 'UNKNOWN', '', #155, #99 ) ;
#31 = FACE_OUTER_BOUND ( 'NONE', #116, .T. ) ;
#32 = CARTESIAN_POINT ( 'NONE',  ( 1.661783692700115704E-34, 2.625000000000000000, 0.000000000000000000 ) ) ;
#33 =( NAMED_UNIT ( * ) PLANE_ANGLE_UNIT ( ) SI_UNIT ( $, .RADIAN. ) );
#34 = DIRECTION ( 'NONE',  ( -0.000000000000000000, -1.000000000000000000, -0.000000000000000000 ) ) ;
#35 = STYLED_ITEM ( 'NONE', ( #121 ), #305 ) ;
#36 = ORIENTED_EDGE ( 'NONE', *, *, #291, .F. ) ;
#37 = FILL_AREA_STYLE ('',( #49 ) ) ;
#38 = VERTEX_POINT ( 'NONE', #59 ) ;
#39 = CARTESIAN_POINT ( 'NONE',  ( 6.123233995736766036E-17, 2.625000000000000000, 0.5000000000000000000 ) ) ;
#40 = STYLED_ITEM ( 'NONE', ( #91 ), #18 ) ;
#41 = COLOUR_RGB ( '',0.7921568627450980005, 0.8196078431372548767, 0.9333333333333333481 ) ;
#42 = EDGE_LOOP ( 'NONE', ( #137, #254, #150, #36 ) ) ;
#43 = ORIENTED_EDGE ( 'NONE', *, *, #292, .T. ) ;
#44 =( NAMED_UNIT ( * ) SI_UNIT ( $, .STERADIAN. ) SOLID_ANGLE_UNIT ( ) );
#45 = SURFACE_SIDE_STYLE ('',( #281 ) ) ;
#46 =( GEOMETRIC_REPRESENTATION_CONTEXT ( 3 ) GLOBAL_UNCERTAINTY_ASSIGNED_CONTEXT ( ( #261 ) ) GLOBAL_UNIT_ASSIGNED_CONTEXT ( ( #65, #88, #93 ) ) REPRESENTATION_CONTEXT ( 'NONE', 'WORKASPACE' ) );
#47 = EDGE_CURVE ( 'NONE', #38, #156, #296, .T. ) ;
#48 = LENGTH_MEASURE_WITH_UNIT ( LENGTH_MEASURE( 0.02539999999999999897 ), #63 );
#49 = FILL_AREA_STYLE_COLOUR ( '', #304 ) ;
#50 =( CONVERSION_BASED_UNIT ( 'INCH', #5 ) LENGTH_UNIT ( ) NAMED_UNIT ( #56 ) );
#51 = PRODUCT_CONTEXT ( 'NONE', #153, 'mechanical' ) ;
#52 = CIRCLE ( 'NONE', #223, 0.5000000000000000000 ) ;
#53 = CARTESIAN_POINT ( 'NONE',  ( 0.000000000000000000, 2.625000000000000000, 0.000000000000000000 ) ) ;
#54 = ORIENTED_EDGE ( 'NONE', *, *, #139, .F. ) ;
#55 = CARTESIAN_POINT ( 'NONE',  ( -6.123233995736759873E-17, 5.000000000000000000, 0.000000000000000000 ) ) ;
#56 = DIMENSIONAL_EXPONENTS ( 1.000000000000000000, 0.000000000000000000, 0.000000000000000000, 0.000000000000000000, 0.000000000000000000, 0.000000000000000000, 0.000000000000000000 ) ;
#57 = CARTESIAN_POINT ( 'NONE',  ( 0.000000000000000000, 2.625000000000000000, 0.000000000000000000 ) ) ;
#58 = EDGE_CURVE ( 'NONE', #64, #249, #200, .T. ) ;
#59 = CARTESIAN_POINT ( 'NONE',  ( 6.123233995736766036E-17, 0.000000000000000000, 0.5000000000000000000 ) ) ;
#60 = FACE_OUTER_BOUND ( 'NONE', #232, .T. ) ;
#61 = VECTOR ( 'NONE', #105, 39.37007874015748143 ) ;
#62 = VERTEX_POINT ( 'NONE', #39 ) ;
#63 =( LENGTH_UNIT ( ) NAMED_UNIT ( * ) SI_UNIT ( $, .METRE. ) );
#64 = VERTEX_POINT ( 'NONE', #86 ) ;
#65 =( CONVERSION_BASED_UNIT ( 'INCH', #48 ) LENGTH_UNIT ( ) NAMED_UNIT ( #111 ) );
#66 = ORIENTED_EDGE ( 'NONE', *, *, #47, .F. ) ;
#67 = CLOSED_SHELL ( 'NONE', ( #260, #308, #94, #18 ) ) ;
#68 = AXIS2_PLACEMENT_3D ( 'NONE', #300, #209, #277 ) ;
#69 =( LENGTH_UNIT ( ) NAMED_UNIT ( * ) SI_UNIT ( $, .METRE. ) );
#70 = CARTESIAN_POINT ( 'NONE',  ( -6.123233995736759873E-17, 5.000000000000000000, 0.000000000000000000 ) ) ;
#71 = DIRECTION ( 'NONE',  ( -1.000000000000000000, 0.000000000000000000, 0.000000000000000000 ) ) ;
#72 =( NAMED_UNIT ( * ) PLANE_ANGLE_UNIT ( ) SI_UNIT ( $, .RADIAN. ) );
#73 = STYLED_ITEM ( 'NONE', ( #309 ), #183 ) ;
#74 = SURFACE_SIDE_STYLE ('',( #188 ) ) ;
#75 = APPLICATION_PROTOCOL_DEFINITION ( 'draft international standard', 'automotive_design', 1998, #153 ) ;
#76 = DIRECTION ( 'NONE',  ( 0.000000000000000000, 0.000000000000000000, -1.000000000000000000 ) ) ;
#77 = ORIENTED_EDGE ( 'NONE', *, *, #245, .F. ) ;
#78 = AXIS2_PLACEMENT_3D ( 'NONE', #198, #34, #76 ) ;
#79 = APPLICATION_CONTEXT ( 'automotive_design' ) ;
#80 = DIRECTION ( 'NONE',  ( -0.000000000000000000, -1.000000000000000000, -0.000000000000000000 ) ) ;
#81 = DIMENSIONAL_EXPONENTS ( 1.000000000000000000, 0.000000000000000000, 0.000000000000000000, 0.000000000000000000, 0.000000000000000000, 0.000000000000000000, 0.000000000000000000 ) ;
#82 = CARTESIAN_POINT ( 'NONE',  ( 0.000000000000000000, 2.625000000000000000, 0.000000000000000000 ) ) ;
#83 = AXIS2_PLACEMENT_3D ( 'NONE', #70, #166, #262 ) ;
#84 =( GEOMETRIC_REPRESENTATION_CONTEXT ( 3 ) GLOBAL_UNCERTAINTY_ASSIGNED_CONTEXT ( ( #25 ) ) GLOBAL_UNIT_ASSIGNED_CONTEXT ( ( #23, #92, #158 ) ) REPRESENTATION_CONTEXT ( 'NONE', 'WORKASPACE' ) );
#85 =( CONVERSION_BASED_UNIT ( 'INCH', #138 ) LENGTH_UNIT ( ) NAMED_UNIT ( #13 ) );
#86 = CARTESIAN_POINT ( 'NONE',  ( 0.5000000000000000000, 2.625000000000000000, 6.123233995736766036E-17 ) ) ;
#87 = EDGE_LOOP ( 'NONE', ( #43, #157 ) ) ;
#88 =( NAMED_UNIT ( * ) PLANE_ANGLE_UNIT ( ) SI_UNIT ( $, .RADIAN. ) );
#89 =( GEOMETRIC_REPRESENTATION_CONTEXT ( 3 ) GLOBAL_UNCERTAINTY_ASSIGNED_CONTEXT ( ( #190 ) ) GLOBAL_UNIT_ASSIGNED_CONTEXT ( ( #50, #72, #123 ) ) REPRESENTATION_CONTEXT ( 'NONE', 'WORKASPACE' ) );
#90 = MECHANICAL_DESIGN_GEOMETRIC_PRESENTATION_REPRESENTATION (  '', ( #230 ), #46 ) ;
#91 = PRESENTATION_STYLE_ASSIGNMENT (( #301 ) ) ;
#92 =( NAMED_UNIT ( * ) PLANE_ANGLE_UNIT ( ) SI_UNIT ( $, .RADIAN. ) );
#93 =( NAMED_UNIT ( * ) SI_UNIT ( $, .STERADIAN. ) SOLID_ANGLE_UNIT ( ) );
#94 = ADVANCED_FACE ( 'NONE', ( #60 ), #154, .T. ) ;
#95 = DIRECTION ( 'NONE',  ( 0.000000000000000000, 1.000000000000000000, 0.000000000000000000 ) ) ;
#96 = MECHANICAL_DESIGN_GEOMETRIC_PRESENTATION_REPRESENTATION (  '', ( #40 ), #248 ) ;
#97 = CARTESIAN_POINT ( 'NONE',  ( -6.123233995736759873E-17, 5.000000000000000000, 0.000000000000000000 ) ) ;
#98 = VECTOR ( 'NONE', #251, 39.37007874015748143 ) ;
#99 = PRODUCT_DEFINITION_CONTEXT ( 'detailed design', #79, 'design' ) ;
#100 = CARTESIAN_POINT ( 'NONE',  ( 0.000000000000000000, 2.625000000000000000, -0.5000000000000000000 ) ) ;
#101 = DIRECTION ( 'NONE',  ( 2.578203787678635185E-17, -1.000000000000000000, 0.000000000000000000 ) ) ;
#102 = PLANE ( 'NONE',  #237 ) ;
#103 =( GEOMETRIC_REPRESENTATION_CONTEXT ( 3 ) GLOBAL_UNCERTAINTY_ASSIGNED_CONTEXT ( ( #246 ) ) GLOBAL_UNIT_ASSIGNED_CONTEXT ( ( #104, #290, #145 ) ) REPRESENTATION_CONTEXT ( 'NONE', 'WORKASPACE' ) );
#104 =( CONVERSION_BASED_UNIT ( 'INCH', #8 ) LENGTH_UNIT ( ) NAMED_UNIT ( #131 ) );
#105 = DIRECTION ( 'NONE',  ( -2.578203787678635185E-17, 1.000000000000000000, -0.000000000000000000 ) ) ;
#106 = ADVANCED_FACE ( 'NONE', ( #163 ), #141, .T. ) ;
#107 = CYLINDRICAL_SURFACE ( 'NONE', #167, 0.5000000000000000000 ) ;
#108 = AXIS2_PLACEMENT_3D ( 'NONE', #212, #4, #213 ) ;
#109 = PRESENTATION_LAYER_ASSIGNMENT (  '', '', ( #230 ) ) ;
#110 = DIRECTION ( 'NONE',  ( -1.000000000000000000, 0.000000000000000000, 0.000000000000000000 ) ) ;
#111 = DIMENSIONAL_EXPONENTS ( 1.000000000000000000, 0.000000000000000000, 0.000000000000000000, 0.000000000000000000, 0.000000000000000000, 0.000000000000000000, 0.000000000000000000 ) ;
#112 = ORIENTED_EDGE ( 'NONE', *, *, #241, .T. ) ;
#113 =( NAMED_UNIT ( * ) SI_UNIT ( $, .STERADIAN. ) SOLID_ANGLE_UNIT ( ) );
#114 = CLOSED_SHELL ( 'NONE', ( #168, #265, #106, #172 ) ) ;
#115 =( GEOMETRIC_REPRESENTATION_CONTEXT ( 3 ) GLOBAL_UNCERTAINTY_ASSIGNED_CONTEXT ( ( #293 ) ) GLOBAL_UNIT_ASSIGNED_CONTEXT ( ( #247, #33, #132 ) ) REPRESENTATION_CONTEXT ( 'NONE', 'WORKASPACE' ) );
#116 = EDGE_LOOP ( 'NONE', ( #136, #77 ) ) ;
#117 = ORIENTED_EDGE ( 'NONE', *, *, #225, .F. ) ;
#118 = AXIS2_PLACEMENT_3D ( 'NONE', #173, #218, #128 ) ;
#119 = LENGTH_MEASURE_WITH_UNIT ( LENGTH_MEASURE( 0.02539999999999999897 ), #235 );
#120 =( LENGTH_UNIT ( ) NAMED_UNIT ( * ) SI_UNIT ( $, .METRE. ) );
#121 = PRESENTATION_STYLE_ASSIGNMENT (( #162 ) ) ;
#122 = PRESENTATION_LAYER_ASSIGNMENT (  '', '', ( #186 ) ) ;
#123 =( NAMED_UNIT ( * ) SI_UNIT ( $, .STERADIAN. ) SOLID_ANGLE_UNIT ( ) );
#124 = SHAPE_DEFINITION_REPRESENTATION ( #204, #206 ) ;
#125 = SURFACE_SIDE_STYLE ('',( #169 ) ) ;
#126 = CIRCLE ( 'NONE', #197, 0.5000000000000001110 ) ;
#127 = DIRECTION ( 'NONE',  ( -1.000000000000000000, -2.578203787678635185E-17, 0.000000000000000000 ) ) ;
#128 = DIRECTION ( 'NONE',  ( -1.000000000000000000, 0.000000000000000000, 0.000000000000000000 ) ) ;
#129 = EDGE_CURVE ( 'NONE', #62, #148, #299, .T. ) ;
#130 = AXIS2_PLACEMENT_3D ( 'NONE', #55, #294, #297 ) ;
#131 = DIMENSIONAL_EXPONENTS ( 1.000000000000000000, 0.000000000000000000, 0.000000000000000000, 0.000000000000000000, 0.000000000000000000, 0.000000000000000000, 0.000000000000000000 ) ;
#132 =( NAMED_UNIT ( * ) SI_UNIT ( $, .STERADIAN. ) SOLID_ANGLE_UNIT ( ) );
#133 = CARTESIAN_POINT ( 'NONE',  ( 0.000000000000000000, 0.000000000000000000, 0.000000000000000000 ) ) ;
#134 = COLOUR_RGB ( '',1.000000000000000000, 0.000000000000000000, 0.000000000000000000 ) ;
#135 = AXIS2_PLACEMENT_3D ( 'NONE', #32, #196, #127 ) ;
#136 = ORIENTED_EDGE ( 'NONE', *, *, #250, .F. ) ;
#137 = ORIENTED_EDGE ( 'NONE', *, *, #250, .T. ) ;
#138 = LENGTH_MEASURE_WITH_UNIT ( LENGTH_MEASURE( 0.02539999999999999897 ), #278 );
#139 = EDGE_CURVE ( 'NONE', #148, #62, #26, .T. ) ;
#140 = DIRECTION ( 'NONE',  ( 0.000000000000000000, 0.000000000000000000, -1.000000000000000000 ) ) ;
#141 = CYLINDRICAL_SURFACE ( 'NONE', #83, 0.5000000000000000000 ) ;
#142 = SURFACE_SIDE_STYLE ('',( #264 ) ) ;
#143 = PRESENTATION_STYLE_ASSIGNMENT (( #24 ) ) ;
#144 = CYLINDRICAL_SURFACE ( 'NONE', #289, 0.5000000000000000000 ) ;
#145 =( NAMED_UNIT ( * ) SI_UNIT ( $, .STERADIAN. ) SOLID_ANGLE_UNIT ( ) );
#146 = PLANE ( 'NONE',  #135 ) ;
#147 = COLOUR_RGB ( '',1.000000000000000000, 0.000000000000000000, 0.000000000000000000 ) ;
#148 = VERTEX_POINT ( 'NONE', #100 ) ;
#149 = CARTESIAN_POINT ( 'NONE',  ( -0.5000000000000000000, 2.625000000000000000, 0.000000000000000000 ) ) ;
#150 = ORIENTED_EDGE ( 'NONE', *, *, #292, .F. ) ;
#151 = STYLED_ITEM ( 'NONE', ( #143 ), #94 ) ;
#152 = CARTESIAN_POINT ( 'NONE',  ( 0.4999999999999999445, 5.000000000000000000, 6.123233995736766036E-17 ) ) ;
#153 = APPLICATION_CONTEXT ( 'automotive_design' ) ;
#154 = CYLINDRICAL_SURFACE ( 'NONE', #181, 0.5000000000000000000 ) ;
#155 = PRODUCT_DEFINITION_FORMATION_WITH_SPECIFIED_SOURCE ( 'ANY', '', #236, .NOT_KNOWN. ) ;
#156 = VERTEX_POINT ( 'NONE', #258 ) ;
#157 = ORIENTED_EDGE ( 'NONE', *, *, #180, .T. ) ;
#158 =( NAMED_UNIT ( * ) SI_UNIT ( $, .STERADIAN. ) SOLID_ANGLE_UNIT ( ) );
#159 = EDGE_LOOP ( 'NONE', ( #112, #10 ) ) ;
#160 = MECHANICAL_DESIGN_GEOMETRIC_PRESENTATION_REPRESENTATION (  '', ( #73 ), #115 ) ;
#161 = DIRECTION ( 'NONE',  ( -0.000000000000000000, -1.000000000000000000, -0.000000000000000000 ) ) ;
#162 = SURFACE_STYLE_USAGE ( .BOTH. , #45 ) ;
#163 = FACE_OUTER_BOUND ( 'NONE', #228, .T. ) ;
#164 = DIRECTION ( 'NONE',  ( 0.000000000000000000, 0.000000000000000000, 1.000000000000000000 ) ) ;
#165 = CARTESIAN_POINT ( 'NONE',  ( 0.5000000000000000000, 5.000000000000000000, 0.000000000000000000 ) ) ;
#166 = DIRECTION ( 'NONE',  ( -2.578203787678635493E-17, 1.000000000000000000, -0.000000000000000000 ) ) ;
#167 = AXIS2_PLACEMENT_3D ( 'NONE', #170, #272, #268 ) ;
#168 = ADVANCED_FACE ( 'NONE', ( #184 ), #144, .T. ) ;
#169 = SURFACE_STYLE_FILL_AREA ( #221 ) ;
#170 = CARTESIAN_POINT ( 'NONE',  ( 0.000000000000000000, 0.000000000000000000, 0.000000000000000000 ) ) ;
#171 = CIRCLE ( 'NONE', #130, 0.5000000000000001110 ) ;
#172 = ADVANCED_FACE ( 'NONE', ( #282 ), #102, .F. ) ;
#173 = CARTESIAN_POINT ( 'NONE',  ( 0.000000000000000000, 2.625000000000000000, 0.000000000000000000 ) ) ;
#174 = DIMENSIONAL_EXPONENTS ( 1.000000000000000000, 0.000000000000000000, 0.000000000000000000, 0.000000000000000000, 0.000000000000000000, 0.000000000000000000, 0.000000000000000000 ) ;
#175 = MECHANICAL_DESIGN_GEOMETRIC_PRESENTATION_REPRESENTATION (  '', ( #35 ), #84 ) ;
#176 = AXIS2_PLACEMENT_3D ( 'NONE', #82, #95, #285 ) ;
#177 =( NAMED_UNIT ( * ) PLANE_ANGLE_UNIT ( ) SI_UNIT ( $, .RADIAN. ) );
#178 = FACE_OUTER_BOUND ( 'NONE', #159, .T. ) ;
#179 = PLANE ( 'NONE',  #68 ) ;
#180 = EDGE_CURVE ( 'NONE', #249, #14, #126, .T. ) ;
#181 = AXIS2_PLACEMENT_3D ( 'NONE', #210, #161, #140 ) ;
#182 = SURFACE_STYLE_FILL_AREA ( #15 ) ;
#183 = MANIFOLD_SOLID_BREP ( 'Revolve - Cutting Edge', #67 ) ;
#184 = FACE_OUTER_BOUND ( 'NONE', #42, .T. ) ;
#185 = EDGE_CURVE ( 'NONE', #148, #156, #224, .T. ) ;
#186 = STYLED_ITEM ( 'NONE', ( #12 ), #260 ) ;
#187 = COLOUR_RGB ( '',1.000000000000000000, 0.000000000000000000, 0.000000000000000000 ) ;
#188 = SURFACE_STYLE_FILL_AREA ( #192 ) ;
#189 = DIRECTION ( 'NONE',  ( -2.578203787678635493E-17, 1.000000000000000000, -0.000000000000000000 ) ) ;
#190 = UNCERTAINTY_MEASURE_WITH_UNIT (LENGTH_MEASURE( 1.000000000000000082E-05 ), #50, 'distance_accuracy_value', 'NONE');
#191 = DIRECTION ( 'NONE',  ( -1.000000000000000000, 0.000000000000000000, 0.000000000000000000 ) ) ;
#192 = FILL_AREA_STYLE ('',( #239 ) ) ;
#193 = CARTESIAN_POINT ( 'NONE',  ( 0.5000000000000000000, 5.000000000000000000, 6.123233995736766036E-17 ) ) ;
#194 = FACE_OUTER_BOUND ( 'NONE', #307, .T. ) ;
#195 = ORIENTED_EDGE ( 'NONE', *, *, #241, .F. ) ;
#196 = DIRECTION ( 'NONE',  ( -2.578203787678635185E-17, 1.000000000000000000, 0.000000000000000000 ) ) ;
#197 = AXIS2_PLACEMENT_3D ( 'NONE', #97, #233, #191 ) ;
#198 = CARTESIAN_POINT ( 'NONE',  ( 0.000000000000000000, 0.000000000000000000, 0.000000000000000000 ) ) ;
#199 = CARTESIAN_POINT ( 'NONE',  ( 6.123233995736766036E-17, 0.000000000000000000, 0.5000000000000000000 ) ) ;
#200 = LINE ( 'NONE', #152, #98 ) ;
#201 = FILL_AREA_STYLE ('',( #231 ) ) ;
#202 = ORIENTED_EDGE ( 'NONE', *, *, #180, .F. ) ;
#203 = LENGTH_MEASURE_WITH_UNIT ( LENGTH_MEASURE( 0.02539999999999999897 ), #69 );
#204 = PRODUCT_DEFINITION_SHAPE ( 'NONE', 'NONE',  #30 ) ;
#205 = ORIENTED_EDGE ( 'NONE', *, *, #129, .T. ) ;
#206 = ADVANCED_BREP_SHAPE_REPRESENTATION ( '81849', ( #183, #305, #306 ), #208 ) ;
#207 = PRESENTATION_LAYER_ASSIGNMENT (  '', '', ( #35 ) ) ;
#208 =( GEOMETRIC_REPRESENTATION_CONTEXT ( 3 ) GLOBAL_UNCERTAINTY_ASSIGNED_CONTEXT ( ( #28 ) ) GLOBAL_UNIT_ASSIGNED_CONTEXT ( ( #274, #302, #44 ) ) REPRESENTATION_CONTEXT ( 'NONE', 'WORKASPACE' ) );
#209 = DIRECTION ( 'NONE',  ( 0.000000000000000000, -1.000000000000000000, -0.000000000000000000 ) ) ;
#210 = CARTESIAN_POINT ( 'NONE',  ( 0.000000000000000000, 0.000000000000000000, 0.000000000000000000 ) ) ;
#211 = PRESENTATION_LAYER_ASSIGNMENT (  '', '', ( #73 ) ) ;
#212 = CARTESIAN_POINT ( 'NONE',  ( 0.000000000000000000, 2.625000000000000000, 0.000000000000000000 ) ) ;
#213 = DIRECTION ( 'NONE',  ( 0.000000000000000000, 0.000000000000000000, -1.000000000000000000 ) ) ;
#214 = PRODUCT_RELATED_PRODUCT_CATEGORY ( 'part', '', ( #236 ) ) ;
#215 = UNCERTAINTY_MEASURE_WITH_UNIT (LENGTH_MEASURE( 1.000000000000000082E-05 ), #85, 'distance_accuracy_value', 'NONE');
#216 =( LENGTH_UNIT ( ) NAMED_UNIT ( * ) SI_UNIT ( $, .METRE. ) );
#217 = AXIS2_PLACEMENT_3D ( 'NONE', #53, #6, #234 ) ;
#218 = DIRECTION ( 'NONE',  ( -2.578203787678635493E-17, 1.000000000000000000, -0.000000000000000000 ) ) ;
#219 = LINE ( 'NONE', #9, #61 ) ;
#220 = ORIENTED_EDGE ( 'NONE', *, *, #291, .T. ) ;
#221 = FILL_AREA_STYLE ('',( #222 ) ) ;
#222 = FILL_AREA_STYLE_COLOUR ( '', #229 ) ;
#223 = AXIS2_PLACEMENT_3D ( 'NONE', #57, #240, #110 ) ;
#224 = LINE ( 'NONE', #244, #284 ) ;
#225 = EDGE_CURVE ( 'NONE', #62, #38, #27, .T. ) ;
#226 = PRESENTATION_STYLE_ASSIGNMENT (( #256 ) ) ;
#227 = DIRECTION ( 'NONE',  ( 0.000000000000000000, 0.000000000000000000, -1.000000000000000000 ) ) ;
#228 = EDGE_LOOP ( 'NONE', ( #252, #276, #220, #202 ) ) ;
#229 = COLOUR_RGB ( '',1.000000000000000000, 0.000000000000000000, 0.000000000000000000 ) ;
#230 = STYLED_ITEM ( 'NONE', ( #226 ), #308 ) ;
#231 = FILL_AREA_STYLE_COLOUR ( '', #134 ) ;
#232 = EDGE_LOOP ( 'NONE', ( #117, #205, #269, #66 ) ) ;
#233 = DIRECTION ( 'NONE',  ( -2.578203787678635493E-17, 1.000000000000000000, -0.000000000000000000 ) ) ;
#234 = DIRECTION ( 'NONE',  ( 0.000000000000000000, 0.000000000000000000, -1.000000000000000000 ) ) ;
#235 =( LENGTH_UNIT ( ) NAMED_UNIT ( * ) SI_UNIT ( $, .METRE. ) );
#236 = PRODUCT ( '81849', '81849', '', ( #51 ) ) ;
#237 = AXIS2_PLACEMENT_3D ( 'NONE', #165, #101, #263 ) ;
#238 = FILL_AREA_STYLE_COLOUR ( '', #147 ) ;
#239 = FILL_AREA_STYLE_COLOUR ( '', #41 ) ;
#240 = DIRECTION ( 'NONE',  ( -2.578203787678635493E-17, 1.000000000000000000, -0.000000000000000000 ) ) ;
#241 = EDGE_CURVE ( 'NONE', #156, #38, #11, .T. ) ;
#242 = EDGE_LOOP ( 'NONE', ( #54, #270 ) ) ;
#243 = ORIENTED_EDGE ( 'NONE', *, *, #225, .T. ) ;
#244 = CARTESIAN_POINT ( 'NONE',  ( 0.000000000000000000, 0.000000000000000000, -0.5000000000000000000 ) ) ;
#245 = EDGE_CURVE ( 'NONE', #64, #295, #52, .T. ) ;
#246 = UNCERTAINTY_MEASURE_WITH_UNIT (LENGTH_MEASURE( 1.000000000000000082E-05 ), #104, 'distance_accuracy_value', 'NONE');
#247 =( CONVERSION_BASED_UNIT ( 'INCH', #286 ) LENGTH_UNIT ( ) NAMED_UNIT ( #81 ) );
#248 =( GEOMETRIC_REPRESENTATION_CONTEXT ( 3 ) GLOBAL_UNCERTAINTY_ASSIGNED_CONTEXT ( ( #215 ) ) GLOBAL_UNIT_ASSIGNED_CONTEXT ( ( #85, #177, #113 ) ) REPRESENTATION_CONTEXT ( 'NONE', 'WORKASPACE' ) );
#249 = VERTEX_POINT ( 'NONE', #193 ) ;
#250 = EDGE_CURVE ( 'NONE', #295, #64, #253, .T. ) ;
#251 = DIRECTION ( 'NONE',  ( -2.578203787678635185E-17, 1.000000000000000000, -0.000000000000000000 ) ) ;
#252 = ORIENTED_EDGE ( 'NONE', *, *, #58, .F. ) ;
#253 = CIRCLE ( 'NONE', #118, 0.5000000000000000000 ) ;
#254 = ORIENTED_EDGE ( 'NONE', *, *, #58, .T. ) ;
#255 = PLANE ( 'NONE',  #176 ) ;
#256 = SURFACE_STYLE_USAGE ( .BOTH. , #279 ) ;
#257 = SURFACE_STYLE_USAGE ( .BOTH. , #74 ) ;
#258 = CARTESIAN_POINT ( 'NONE',  ( 0.000000000000000000, 0.000000000000000000, -0.5000000000000000000 ) ) ;
#259 = FACE_OUTER_BOUND ( 'NONE', #242, .T. ) ;
#260 = ADVANCED_FACE ( 'NONE', ( #194 ), #107, .T. ) ;
#261 = UNCERTAINTY_MEASURE_WITH_UNIT (LENGTH_MEASURE( 1.000000000000000082E-05 ), #65, 'distance_accuracy_value', 'NONE');
#262 = DIRECTION ( 'NONE',  ( -1.000000000000000000, 0.000000000000000000, 0.000000000000000000 ) ) ;
#263 = DIRECTION ( 'NONE',  ( 1.000000000000000000, 2.578203787678635185E-17, 0.000000000000000000 ) ) ;
#264 = SURFACE_STYLE_FILL_AREA ( #29 ) ;
#265 = ADVANCED_FACE ( 'NONE', ( #31 ), #146, .F. ) ;
#266 = DIRECTION ( 'NONE',  ( -0.000000000000000000, -1.000000000000000000, -0.000000000000000000 ) ) ;
#267 = DIRECTION ( 'NONE',  ( 1.000000000000000000, 0.000000000000000000, 0.000000000000000000 ) ) ;
#268 = DIRECTION ( 'NONE',  ( 0.000000000000000000, 0.000000000000000000, -1.000000000000000000 ) ) ;
#269 = ORIENTED_EDGE ( 'NONE', *, *, #185, .T. ) ;
#270 = ORIENTED_EDGE ( 'NONE', *, *, #129, .F. ) ;
#271 = SURFACE_STYLE_USAGE ( .BOTH. , #125 ) ;
#272 = DIRECTION ( 'NONE',  ( -0.000000000000000000, -1.000000000000000000, -0.000000000000000000 ) ) ;
#273 = DIMENSIONAL_EXPONENTS ( 1.000000000000000000, 0.000000000000000000, 0.000000000000000000, 0.000000000000000000, 0.000000000000000000, 0.000000000000000000, 0.000000000000000000 ) ;
#274 =( CONVERSION_BASED_UNIT ( 'INCH', #203 ) LENGTH_UNIT ( ) NAMED_UNIT ( #174 ) );
#275 = MECHANICAL_DESIGN_GEOMETRIC_PRESENTATION_REPRESENTATION (  '', ( #151 ), #89 ) ;
#276 = ORIENTED_EDGE ( 'NONE', *, *, #245, .T. ) ;
#277 = DIRECTION ( 'NONE',  ( 0.000000000000000000, 0.000000000000000000, -1.000000000000000000 ) ) ;
#278 =( LENGTH_UNIT ( ) NAMED_UNIT ( * ) SI_UNIT ( $, .METRE. ) );
#279 = SURFACE_SIDE_STYLE ('',( #182 ) ) ;
#280 = DIRECTION ( 'NONE',  ( -0.000000000000000000, -1.000000000000000000, -0.000000000000000000 ) ) ;
#281 = SURFACE_STYLE_FILL_AREA ( #37 ) ;
#282 = FACE_OUTER_BOUND ( 'NONE', #87, .T. ) ;
#283 = PRESENTATION_LAYER_ASSIGNMENT (  '', '', ( #40 ) ) ;
#284 = VECTOR ( 'NONE', #266, 39.37007874015748143 ) ;
#285 = DIRECTION ( 'NONE',  ( 0.000000000000000000, -0.000000000000000000, 1.000000000000000000 ) ) ;
#286 = LENGTH_MEASURE_WITH_UNIT ( LENGTH_MEASURE( 0.02539999999999999897 ), #120 );
#287 = APPLICATION_PROTOCOL_DEFINITION ( 'draft international standard', 'automotive_design', 1998, #79 ) ;
#288 = CARTESIAN_POINT ( 'NONE',  ( 0.000000000000000000, 0.000000000000000000, 0.000000000000000000 ) ) ;
#289 = AXIS2_PLACEMENT_3D ( 'NONE', #2, #189, #71 ) ;
#290 =( NAMED_UNIT ( * ) PLANE_ANGLE_UNIT ( ) SI_UNIT ( $, .RADIAN. ) );
#291 = EDGE_CURVE ( 'NONE', #295, #14, #219, .T. ) ;
#292 = EDGE_CURVE ( 'NONE', #14, #249, #171, .T. ) ;
#293 = UNCERTAINTY_MEASURE_WITH_UNIT (LENGTH_MEASURE( 1.000000000000000082E-05 ), #247, 'distance_accuracy_value', 'NONE');
#294 = DIRECTION ( 'NONE',  ( -2.578203787678635493E-17, 1.000000000000000000, -0.000000000000000000 ) ) ;
#295 = VERTEX_POINT ( 'NONE', #149 ) ;
#296 = CIRCLE ( 'NONE', #22, 0.5000000000000000000 ) ;
#297 = DIRECTION ( 'NONE',  ( -1.000000000000000000, 0.000000000000000000, 0.000000000000000000 ) ) ;
#298 =( LENGTH_UNIT ( ) NAMED_UNIT ( * ) SI_UNIT ( $, .METRE. ) );
#299 = CIRCLE ( 'NONE', #108, 0.5000000000000000000 ) ;
#300 = CARTESIAN_POINT ( 'NONE',  ( 0.000000000000000000, 0.000000000000000000, 0.000000000000000000 ) ) ;
#301 = SURFACE_STYLE_USAGE ( .BOTH. , #20 ) ;
#302 =( NAMED_UNIT ( * ) PLANE_ANGLE_UNIT ( ) SI_UNIT ( $, .RADIAN. ) );
#303 = ORIENTED_EDGE ( 'NONE', *, *, #185, .F. ) ;
#304 = COLOUR_RGB ( '',0.7921568627450980005, 0.8196078431372548767, 0.9333333333333333481 ) ;
#305 = MANIFOLD_SOLID_BREP ( 'Revolve - Tool Body (Straight Shanked)', #114 ) ;
#306 = AXIS2_PLACEMENT_3D ( 'NONE', #288, #164, #267 ) ;
#307 = EDGE_LOOP ( 'NONE', ( #19, #243, #195, #303 ) ) ;
#308 = ADVANCED_FACE ( 'NONE', ( #259 ), #255, .T. ) ;
#309 = PRESENTATION_STYLE_ASSIGNMENT (( #257 ) ) ;
ENDSEC;
END-ISO-10303-21;
