ISO-10303-21;
HEADER;
FILE_DESCRIPTION (( 'STEP AP214' ),
    '1' );
FILE_NAME ('Micro_SEM-328-04.STEP',
    '2021-09-02T03:00:39',
    ( '' ),
    ( '' ),
    'SwSTEP 2.0',
    'SolidWorks 2020',
    '' );
FILE_SCHEMA (( 'AUTOMOTIVE_DESIGN' ));
ENDSEC;

DATA;
#1 = PRODUCT_DEFINITION_SHAPE ( 'NONE', 'NONE',  #236 ) ;
#2 = LINE ( 'NONE', #135, #177 ) ;
#3 = VECTOR ( 'NONE', #88, 39.37007874015748143 ) ;
#4 = PRODUCT ( 'Micro_SEM-328-04', 'Micro_SEM-328-04', '', ( #289 ) ) ;
#5 = ADVANCED_FACE ( 'NONE', ( #131 ), #46, .T. ) ;
#6 = FILL_AREA_STYLE_COLOUR ( '', #208 ) ;
#7 = ORIENTED_EDGE ( 'NONE', *, *, #239, .F. ) ;
#8 = APPLICATION_CONTEXT ( 'automotive_design' ) ;
#9 =( NAMED_UNIT ( * ) SI_UNIT ( $, .STERADIAN. ) SOLID_ANGLE_UNIT ( ) );
#10 = PRODUCT_RELATED_PRODUCT_CATEGORY ( 'part', '', ( #4 ) ) ;
#11 = PLANE ( 'NONE',  #155 ) ;
#12 = EDGE_LOOP ( 'NONE', ( #283, #94, #266, #215 ) ) ;
#13 = CARTESIAN_POINT ( 'NONE',  ( 7.763304654873116999E-17, 0.0000000000000000000, 0.6339219324525432464 ) ) ;
#14 = DIRECTION ( 'NONE',  ( -1.224646799147353207E-16, -0.0000000000000000000, -1.000000000000000000 ) ) ;
#15 = EDGE_LOOP ( 'NONE', ( #45, #117, #145, #179 ) ) ;
#16 = COLOUR_RGB ( '',0.7921568627450980005, 0.8196078431372548767, 0.9333333333333333481 ) ;
#17 = AXIS2_PLACEMENT_3D ( 'NONE', #253, #275, #19 ) ;
#18 = CARTESIAN_POINT ( 'NONE',  ( 0.0000000000000000000, 0.0000000000000000000, 2.000000000000000000 ) ) ;
#19 = DIRECTION ( 'NONE',  ( 1.000000000000000000, 0.0000000000000000000, 0.0000000000000000000 ) ) ;
#20 = ORIENTED_EDGE ( 'NONE', *, *, #234, .T. ) ;
#21 = LINE ( 'NONE', #82, #28 ) ;
#22 = AXIS2_PLACEMENT_3D ( 'NONE', #292, #249, #268 ) ;
#23 =( CONVERSION_BASED_UNIT ( 'INCH', #274 ) LENGTH_UNIT ( ) NAMED_UNIT ( #118 ) );
#24 = AXIS2_PLACEMENT_3D ( 'NONE', #13, #140, #220 ) ;
#25 = ADVANCED_FACE ( 'NONE', ( #231 ), #296, .T. ) ;
#26 = ADVANCED_FACE ( 'NONE', ( #132 ), #104, .T. ) ;
#27 = UNCERTAINTY_MEASURE_WITH_UNIT (LENGTH_MEASURE( 1.000000000000000082E-05 ), #262, 'distance_accuracy_value', 'NONE');
#28 = VECTOR ( 'NONE', #101, 39.37007874015748143 ) ;
#29 = VECTOR ( 'NONE', #298, 39.37007874015748143 ) ;
#30 = CARTESIAN_POINT ( 'NONE',  ( 2.457895567533320651E-33, 0.0000000000000000000, 2.007024040927231763E-17 ) ) ;
#31 = LENGTH_MEASURE_WITH_UNIT ( LENGTH_MEASURE( 0.02539999999999999897 ), #191 );
#32 = PRODUCT_DEFINITION_CONTEXT ( 'detailed design', #8, 'design' ) ;
#33 = CARTESIAN_POINT ( 'NONE',  ( -0.1638859500000000025, 0.0000000000000000000, 4.014048081854463527E-17 ) ) ;
#34 = DIRECTION ( 'NONE',  ( -1.000000000000000000, 0.0000000000000000000, 1.224646799147353454E-16 ) ) ;
#35 = EDGE_LOOP ( 'NONE', ( #123, #172, #97, #199 ) ) ;
#36 = CARTESIAN_POINT ( 'NONE',  ( 6.123233995736766036E-17, 0.0000000000000000000, 0.5000000000000000000 ) ) ;
#37 = ORIENTED_EDGE ( 'NONE', *, *, #138, .T. ) ;
#38 = DIRECTION ( 'NONE',  ( 1.000000000000000000, 0.0000000000000000000, 0.0000000000000000000 ) ) ;
#39 = DIRECTION ( 'NONE',  ( -1.000000000000000000, 0.0000000000000000000, 1.224646799147353454E-16 ) ) ;
#40 = CONICAL_SURFACE ( 'NONE', #76, 0.1638859499999999469, 0.1745329251994338637 ) ;
#41 = VERTEX_POINT ( 'NONE', #128 ) ;
#42 = CARTESIAN_POINT ( 'NONE',  ( 0.1875000000000000278, 2.296212748401287726E-17, 2.000000000000000000 ) ) ;
#43 = CARTESIAN_POINT ( 'NONE',  ( 0.0000000000000000000, 0.0000000000000000000, 2.000000000000000000 ) ) ;
#44 = EDGE_LOOP ( 'NONE', ( #163, #210, #154, #205 ) ) ;
#45 = ORIENTED_EDGE ( 'NONE', *, *, #243, .F. ) ;
#46 = CONICAL_SURFACE ( 'NONE', #73, 0.1725000000000001532, 0.7853981633974357335 ) ;
#47 = EDGE_CURVE ( 'NONE', #129, #41, #107, .T. ) ;
#48 = DIRECTION ( 'NONE',  ( 1.224646799147353207E-16, 0.0000000000000000000, 1.000000000000000000 ) ) ;
#49 = CARTESIAN_POINT ( 'NONE',  ( 0.0000000000000000000, 0.0000000000000000000, 0.0000000000000000000 ) ) ;
#50 =( NAMED_UNIT ( * ) PLANE_ANGLE_UNIT ( ) SI_UNIT ( $, .RADIAN. ) );
#51 = AXIS2_PLACEMENT_3D ( 'NONE', #43, #84, #209 ) ;
#52 = AXIS2_PLACEMENT_3D ( 'NONE', #287, #78, #116 ) ;
#53 = PRESENTATION_STYLE_ASSIGNMENT (( #161 ) ) ;
#54 = ORIENTED_EDGE ( 'NONE', *, *, #47, .F. ) ;
#55 = PRESENTATION_LAYER_ASSIGNMENT (  '', '', ( #184 ) ) ;
#56 = ADVANCED_FACE ( 'NONE', ( #228 ), #295, .T. ) ;
#57 = SURFACE_STYLE_FILL_AREA ( #201 ) ;
#58 = CARTESIAN_POINT ( 'NONE',  ( 0.0000000000000000000, 0.0000000000000000000, 2.000000000000000000 ) ) ;
#59 = ORIENTED_EDGE ( 'NONE', *, *, #180, .T. ) ;
#60 = DIRECTION ( 'NONE',  ( -1.224646799147353207E-16, -0.0000000000000000000, -1.000000000000000000 ) ) ;
#61 = DIRECTION ( 'NONE',  ( -1.224646799147353207E-16, -0.0000000000000000000, -1.000000000000000000 ) ) ;
#62 = EDGE_LOOP ( 'NONE', ( #37, #81 ) ) ;
#63 = DIRECTION ( 'NONE',  ( -1.000000000000000000, 0.0000000000000000000, 1.224646799147353207E-16 ) ) ;
#64 = CIRCLE ( 'NONE', #200, 0.1725000000000001532 ) ;
#65 = ORIENTED_EDGE ( 'NONE', *, *, #257, .T. ) ;
#66 = ADVANCED_FACE ( 'NONE', ( #171 ), #114, .T. ) ;
#67 = DIRECTION ( 'NONE',  ( 1.000000000000000000, 0.0000000000000000000, 0.0000000000000000000 ) ) ;
#68 = CARTESIAN_POINT ( 'NONE',  ( 0.0000000000000000000, 0.0000000000000000000, 0.0000000000000000000 ) ) ;
#69 = ORIENTED_EDGE ( 'NONE', *, *, #75, .F. ) ;
#70 = ADVANCED_FACE ( 'NONE', ( #150 ), #254, .T. ) ;
#71 = SHAPE_DEFINITION_REPRESENTATION ( #1, #293 ) ;
#72 = AXIS2_PLACEMENT_3D ( 'NONE', #170, #263, #109 ) ;
#73 = AXIS2_PLACEMENT_3D ( 'NONE', #110, #133, #207 ) ;
#74 = SURFACE_SIDE_STYLE ('',( #281 ) ) ;
#75 = EDGE_CURVE ( 'NONE', #129, #250, #290, .T. ) ;
#76 = AXIS2_PLACEMENT_3D ( 'NONE', #103, #48, #235 ) ;
#77 = CIRCLE ( 'NONE', #149, 0.1638859500000000025 ) ;
#78 = DIRECTION ( 'NONE',  ( 0.0000000000000000000, 0.0000000000000000000, -1.000000000000000000 ) ) ;
#79 =( NAMED_UNIT ( * ) SI_UNIT ( $, .STERADIAN. ) SOLID_ANGLE_UNIT ( ) );
#80 = DIRECTION ( 'NONE',  ( 1.000000000000000000, 0.0000000000000000000, 0.0000000000000000000 ) ) ;
#81 = ORIENTED_EDGE ( 'NONE', *, *, #87, .T. ) ;
#82 = CARTESIAN_POINT ( 'NONE',  ( -0.1638859499999999469, 0.0000000000000000000, 2.007024040927231455E-17 ) ) ;
#83 = LENGTH_MEASURE_WITH_UNIT ( LENGTH_MEASURE( 0.02539999999999999897 ), #106 );
#84 = DIRECTION ( 'NONE',  ( -0.0000000000000000000, -0.0000000000000000000, -1.000000000000000000 ) ) ;
#85 = EDGE_LOOP ( 'NONE', ( #59, #221, #125, #7 ) ) ;
#86 = CYLINDRICAL_SURFACE ( 'NONE', #233, 0.1875000000000000278 ) ;
#87 = EDGE_CURVE ( 'NONE', #98, #102, #120, .T. ) ;
#88 = DIRECTION ( 'NONE',  ( 0.7071067811865386910, 8.659560562354824390E-17, -0.7071067811865563435 ) ) ;
#89 = CARTESIAN_POINT ( 'NONE',  ( 0.1638859500000000025, 2.007024040927231763E-17, 3.791200677927629740E-33 ) ) ;
#90 =( GEOMETRIC_REPRESENTATION_CONTEXT ( 3 ) GLOBAL_UNCERTAINTY_ASSIGNED_CONTEXT ( ( #259 ) ) GLOBAL_UNIT_ASSIGNED_CONTEXT ( ( #174, #212, #79 ) ) REPRESENTATION_CONTEXT ( 'NONE', 'WORKASPACE' ) );
#91 = MECHANICAL_DESIGN_GEOMETRIC_PRESENTATION_REPRESENTATION (  '', ( #241 ), #226 ) ;
#92 = UNCERTAINTY_MEASURE_WITH_UNIT (LENGTH_MEASURE( 1.000000000000000082E-05 ), #23, 'distance_accuracy_value', 'NONE');
#93 = FILL_AREA_STYLE ('',( #6 ) ) ;
#94 = ORIENTED_EDGE ( 'NONE', *, *, #138, .F. ) ;
#95 = FACE_OUTER_BOUND ( 'NONE', #44, .T. ) ;
#96 = DIMENSIONAL_EXPONENTS ( 1.000000000000000000, 0.0000000000000000000, 0.0000000000000000000, 0.0000000000000000000, 0.0000000000000000000, 0.0000000000000000000, 0.0000000000000000000 ) ;
#97 = ORIENTED_EDGE ( 'NONE', *, *, #239, .T. ) ;
#98 = VERTEX_POINT ( 'NONE', #141 ) ;
#99 = DIRECTION ( 'NONE',  ( 0.0000000000000000000, 0.0000000000000000000, 1.000000000000000000 ) ) ;
#100 = DIRECTION ( 'NONE',  ( -1.224646799147353207E-16, -0.0000000000000000000, -1.000000000000000000 ) ) ;
#101 = DIRECTION ( 'NONE',  ( -1.224646799147353207E-16, -0.0000000000000000000, -1.000000000000000000 ) ) ;
#102 = VERTEX_POINT ( 'NONE', #247 ) ;
#103 = CARTESIAN_POINT ( 'NONE',  ( 6.123233995736766036E-17, 0.0000000000000000000, 0.5000000000000000000 ) ) ;
#104 = PLANE ( 'NONE',  #273 ) ;
#105 = ORIENTED_EDGE ( 'NONE', *, *, #234, .F. ) ;
#106 =( LENGTH_UNIT ( ) NAMED_UNIT ( * ) SI_UNIT ( $, .METRE. ) );
#107 = LINE ( 'NONE', #204, #111 ) ;
#108 = ORIENTED_EDGE ( 'NONE', *, *, #160, .T. ) ;
#109 = DIRECTION ( 'NONE',  ( -1.000000000000000000, 0.0000000000000000000, 0.0000000000000000000 ) ) ;
#110 = CARTESIAN_POINT ( 'NONE',  ( 0.0000000000000000000, 0.0000000000000000000, 2.000000000000000000 ) ) ;
#111 = VECTOR ( 'NONE', #206, 39.37007874015747433 ) ;
#112 = APPLICATION_CONTEXT ( 'automotive_design' ) ;
#113 = PRODUCT_DEFINITION_FORMATION_WITH_SPECIFIED_SOURCE ( 'ANY', '', #4, .NOT_KNOWN. ) ;
#114 = CONICAL_SURFACE ( 'NONE', #22, 0.1638859499999999469, 0.1745329251994338637 ) ;
#115 = CARTESIAN_POINT ( 'NONE',  ( -0.1725000000000001532, 0.0000000000000000000, 2.000000000000000000 ) ) ;
#116 = DIRECTION ( 'NONE',  ( -1.000000000000000000, 0.0000000000000000000, 0.0000000000000000000 ) ) ;
#117 = ORIENTED_EDGE ( 'NONE', *, *, #182, .T. ) ;
#118 = DIMENSIONAL_EXPONENTS ( 1.000000000000000000, 0.0000000000000000000, 0.0000000000000000000, 0.0000000000000000000, 0.0000000000000000000, 0.0000000000000000000, 0.0000000000000000000 ) ;
#119 =( NAMED_UNIT ( * ) PLANE_ANGLE_UNIT ( ) SI_UNIT ( $, .RADIAN. ) );
#120 = CIRCLE ( 'NONE', #297, 0.1725000000000001532 ) ;
#121 = DIRECTION ( 'NONE',  ( 0.1736481776669313581, 0.0000000000000000000, 0.9848077530122077983 ) ) ;
#122 = SURFACE_SIDE_STYLE ('',( #57 ) ) ;
#123 = ORIENTED_EDGE ( 'NONE', *, *, #192, .F. ) ;
#124 = DIRECTION ( 'NONE',  ( 0.0000000000000000000, 0.0000000000000000000, 1.000000000000000000 ) ) ;
#125 = ORIENTED_EDGE ( 'NONE', *, *, #160, .F. ) ;
#126 = LINE ( 'NONE', #279, #29 ) ;
#127 = AXIS2_PLACEMENT_3D ( 'NONE', #157, #222, #284 ) ;
#128 = CARTESIAN_POINT ( 'NONE',  ( -0.1874999999999999445, 0.0000000000000000000, 0.6339219324525432464 ) ) ;
#129 = VERTEX_POINT ( 'NONE', #270 ) ;
#130 = ADVANCED_FACE ( 'NONE', ( #219 ), #11, .F. ) ;
#131 = FACE_OUTER_BOUND ( 'NONE', #12, .T. ) ;
#132 = FACE_OUTER_BOUND ( 'NONE', #62, .T. ) ;
#133 = DIRECTION ( 'NONE',  ( 0.0000000000000000000, 0.0000000000000000000, -1.000000000000000000 ) ) ;
#134 = EDGE_CURVE ( 'NONE', #129, #189, #21, .T. ) ;
#135 = CARTESIAN_POINT ( 'NONE',  ( 0.1638859499999999469, 2.007024040927231455E-17, -2.007024040927231455E-17 ) ) ;
#136 = ORIENTED_EDGE ( 'NONE', *, *, #186, .T. ) ;
#137 = VECTOR ( 'NONE', #223, 39.37007874015748143 ) ;
#138 = EDGE_CURVE ( 'NONE', #102, #98, #64, .T. ) ;
#139 = AXIS2_PLACEMENT_3D ( 'NONE', #146, #60, #169 ) ;
#140 = DIRECTION ( 'NONE',  ( -1.224646799147353207E-16, -0.0000000000000000000, -1.000000000000000000 ) ) ;
#141 = CARTESIAN_POINT ( 'NONE',  ( 0.1725000000000001532, 2.204364238465236130E-17, 2.000000000000000000 ) ) ;
#142 = DIRECTION ( 'NONE',  ( 1.000000000000000000, 0.0000000000000000000, -0.0000000000000000000 ) ) ;
#143 = APPLICATION_PROTOCOL_DEFINITION ( 'draft international standard', 'automotive_design', 1998, #8 ) ;
#144 = DIRECTION ( 'NONE',  ( 0.0000000000000000000, 0.0000000000000000000, 1.000000000000000000 ) ) ;
#145 = ORIENTED_EDGE ( 'NONE', *, *, #134, .T. ) ;
#146 = CARTESIAN_POINT ( 'NONE',  ( 7.763304654873116999E-17, 0.0000000000000000000, 0.6339219324525432464 ) ) ;
#147 = DIRECTION ( 'NONE',  ( 0.0000000000000000000, 0.0000000000000000000, -1.000000000000000000 ) ) ;
#148 = CIRCLE ( 'NONE', #127, 0.1875000000000000278 ) ;
#149 = AXIS2_PLACEMENT_3D ( 'NONE', #30, #100, #190 ) ;
#150 = FACE_OUTER_BOUND ( 'NONE', #35, .T. ) ;
#151 = EDGE_LOOP ( 'NONE', ( #20, #271 ) ) ;
#152 = CARTESIAN_POINT ( 'NONE',  ( 0.0000000000000000000, 0.0000000000000000000, 1.984999999999999654 ) ) ;
#153 = DIRECTION ( 'NONE',  ( -1.000000000000000000, 0.0000000000000000000, 0.0000000000000000000 ) ) ;
#154 = ORIENTED_EDGE ( 'NONE', *, *, #180, .F. ) ;
#155 = AXIS2_PLACEMENT_3D ( 'NONE', #291, #124, #142 ) ;
#156 = FACE_OUTER_BOUND ( 'NONE', #227, .T. ) ;
#157 = CARTESIAN_POINT ( 'NONE',  ( 0.0000000000000000000, 0.0000000000000000000, 1.984999999999999654 ) ) ;
#158 = CLOSED_SHELL ( 'NONE', ( #25, #66, #280, #217, #70, #26, #5, #196, #56, #130 ) ) ;
#159 = CIRCLE ( 'NONE', #139, 0.1875000000000000278 ) ;
#160 = EDGE_CURVE ( 'NONE', #41, #175, #159, .T. ) ;
#161 = SURFACE_STYLE_USAGE ( .BOTH. , #74 ) ;
#162 = FACE_OUTER_BOUND ( 'NONE', #85, .T. ) ;
#163 = ORIENTED_EDGE ( 'NONE', *, *, #87, .F. ) ;
#164 = PRESENTATION_LAYER_ASSIGNMENT (  '', '', ( #241 ) ) ;
#165 = DIRECTION ( 'NONE',  ( -1.224646799147353207E-16, -0.0000000000000000000, -1.000000000000000000 ) ) ;
#166 =( NAMED_UNIT ( * ) SI_UNIT ( $, .STERADIAN. ) SOLID_ANGLE_UNIT ( ) );
#167 = DIRECTION ( 'NONE',  ( -1.224646799147353207E-16, -0.0000000000000000000, -1.000000000000000000 ) ) ;
#168 = EDGE_CURVE ( 'NONE', #224, #189, #187, .T. ) ;
#169 = DIRECTION ( 'NONE',  ( 1.000000000000000000, 0.0000000000000000000, 0.0000000000000000000 ) ) ;
#170 = CARTESIAN_POINT ( 'NONE',  ( 6.123233995736766036E-17, 0.0000000000000000000, 0.5000000000000000000 ) ) ;
#171 = FACE_OUTER_BOUND ( 'NONE', #276, .T. ) ;
#172 = ORIENTED_EDGE ( 'NONE', *, *, #203, .T. ) ;
#173 = DIRECTION ( 'NONE',  ( -0.0000000000000000000, -0.0000000000000000000, -1.000000000000000000 ) ) ;
#174 =( CONVERSION_BASED_UNIT ( 'INCH', #83 ) LENGTH_UNIT ( ) NAMED_UNIT ( #282 ) );
#175 = VERTEX_POINT ( 'NONE', #248 ) ;
#176 = APPLICATION_PROTOCOL_DEFINITION ( 'draft international standard', 'automotive_design', 1998, #112 ) ;
#177 = VECTOR ( 'NONE', #165, 39.37007874015748143 ) ;
#178 = DIRECTION ( 'NONE',  ( -1.224646799147353207E-16, -0.0000000000000000000, -1.000000000000000000 ) ) ;
#179 = ORIENTED_EDGE ( 'NONE', *, *, #168, .F. ) ;
#180 = EDGE_CURVE ( 'NONE', #229, #299, #264, .T. ) ;
#181 = LINE ( 'NONE', #277, #3 ) ;
#182 = EDGE_CURVE ( 'NONE', #250, #129, #278, .T. ) ;
#183 = MECHANICAL_DESIGN_GEOMETRIC_PRESENTATION_REPRESENTATION (  '', ( #184 ), #90 ) ;
#184 = STYLED_ITEM ( 'NONE', ( #225 ), #194 ) ;
#185 = CONICAL_SURFACE ( 'NONE', #52, 0.1725000000000001532, 0.7853981633974357335 ) ;
#186 = EDGE_CURVE ( 'NONE', #175, #41, #238, .T. ) ;
#187 = CIRCLE ( 'NONE', #232, 0.1638859500000000025 ) ;
#188 = DIRECTION ( 'NONE',  ( -0.7071067811865386910, 0.0000000000000000000, -0.7071067811865563435 ) ) ;
#189 = VERTEX_POINT ( 'NONE', #33 ) ;
#190 = DIRECTION ( 'NONE',  ( -1.000000000000000000, 0.0000000000000000000, 1.224646799147353207E-16 ) ) ;
#191 =( LENGTH_UNIT ( ) NAMED_UNIT ( * ) SI_UNIT ( $, .METRE. ) );
#192 = EDGE_CURVE ( 'NONE', #299, #175, #288, .T. ) ;
#193 = ORIENTED_EDGE ( 'NONE', *, *, #257, .F. ) ;
#194 = MANIFOLD_SOLID_BREP ( 'Cut-Revolve1', #158 ) ;
#195 = LINE ( 'NONE', #115, #245 ) ;
#196 = ADVANCED_FACE ( 'NONE', ( #156 ), #40, .T. ) ;
#197 = ORIENTED_EDGE ( 'NONE', *, *, #75, .T. ) ;
#198 = EDGE_CURVE ( 'NONE', #98, #299, #181, .T. ) ;
#199 = ORIENTED_EDGE ( 'NONE', *, *, #186, .F. ) ;
#200 = AXIS2_PLACEMENT_3D ( 'NONE', #252, #99, #67 ) ;
#201 = FILL_AREA_STYLE ('',( #265 ) ) ;
#202 = CARTESIAN_POINT ( 'NONE',  ( 0.0000000000000000000, 0.0000000000000000000, 2.000000000000000000 ) ) ;
#203 = EDGE_CURVE ( 'NONE', #299, #229, #148, .T. ) ;
#204 = CARTESIAN_POINT ( 'NONE',  ( -0.1638859499999998914, 2.007024040927231455E-17, 0.5000000000000000000 ) ) ;
#205 = ORIENTED_EDGE ( 'NONE', *, *, #272, .F. ) ;
#206 = DIRECTION ( 'NONE',  ( -0.1736481776669311639, 2.126576849575783008E-17, 0.9848077530122080203 ) ) ;
#207 = DIRECTION ( 'NONE',  ( -1.000000000000000000, 0.0000000000000000000, 0.0000000000000000000 ) ) ;
#208 = COLOUR_RGB ( '',0.7921568627450980005, 0.8196078431372548767, 0.9333333333333333481 ) ;
#209 = DIRECTION ( 'NONE',  ( -1.000000000000000000, 0.0000000000000000000, 0.0000000000000000000 ) ) ;
#210 = ORIENTED_EDGE ( 'NONE', *, *, #198, .T. ) ;
#211 = AXIS2_PLACEMENT_3D ( 'NONE', #152, #147, #38 ) ;
#212 =( NAMED_UNIT ( * ) PLANE_ANGLE_UNIT ( ) SI_UNIT ( $, .RADIAN. ) );
#213 = CARTESIAN_POINT ( 'NONE',  ( -0.1875000000000000278, 0.0000000000000000000, 1.984999999999999654 ) ) ;
#214 = DIRECTION ( 'NONE',  ( -1.000000000000000000, 0.0000000000000000000, 0.0000000000000000000 ) ) ;
#215 = ORIENTED_EDGE ( 'NONE', *, *, #203, .F. ) ;
#216 = VECTOR ( 'NONE', #121, 39.37007874015748143 ) ;
#217 = ADVANCED_FACE ( 'NONE', ( #162 ), #86, .T. ) ;
#218 = AXIS2_PLACEMENT_3D ( 'NONE', #36, #178, #153 ) ;
#219 = FACE_OUTER_BOUND ( 'NONE', #151, .T. ) ;
#220 = DIRECTION ( 'NONE',  ( 1.000000000000000000, 0.0000000000000000000, 0.0000000000000000000 ) ) ;
#221 = ORIENTED_EDGE ( 'NONE', *, *, #192, .T. ) ;
#222 = DIRECTION ( 'NONE',  ( 0.0000000000000000000, 0.0000000000000000000, -1.000000000000000000 ) ) ;
#223 = DIRECTION ( 'NONE',  ( -0.0000000000000000000, -0.0000000000000000000, -1.000000000000000000 ) ) ;
#224 = VERTEX_POINT ( 'NONE', #89 ) ;
#225 = PRESENTATION_STYLE_ASSIGNMENT (( #267 ) ) ;
#226 =( GEOMETRIC_REPRESENTATION_CONTEXT ( 3 ) GLOBAL_UNCERTAINTY_ASSIGNED_CONTEXT ( ( #92 ) ) GLOBAL_UNIT_ASSIGNED_CONTEXT ( ( #23, #50, #166 ) ) REPRESENTATION_CONTEXT ( 'NONE', 'WORKASPACE' ) );
#227 = EDGE_LOOP ( 'NONE', ( #54, #269, #65, #136 ) ) ;
#228 = FACE_OUTER_BOUND ( 'NONE', #15, .T. ) ;
#229 = VERTEX_POINT ( 'NONE', #213 ) ;
#230 = DIRECTION ( 'NONE',  ( 1.000000000000000000, 0.0000000000000000000, -0.0000000000000000000 ) ) ;
#231 = FACE_OUTER_BOUND ( 'NONE', #240, .T. ) ;
#232 = AXIS2_PLACEMENT_3D ( 'NONE', #246, #167, #63 ) ;
#233 = AXIS2_PLACEMENT_3D ( 'NONE', #18, #173, #214 ) ;
#234 = EDGE_CURVE ( 'NONE', #189, #224, #77, .T. ) ;
#235 = DIRECTION ( 'NONE',  ( 1.000000000000000000, 0.0000000000000000000, 0.0000000000000000000 ) ) ;
#236 = PRODUCT_DEFINITION ( 'UNKNOWN', '', #113, #32 ) ;
#237 = CARTESIAN_POINT ( 'NONE',  ( 0.1875000000000000278, 2.296212748401287726E-17, 1.984999999999999654 ) ) ;
#238 = CIRCLE ( 'NONE', #24, 0.1875000000000000278 ) ;
#239 = EDGE_CURVE ( 'NONE', #229, #41, #126, .T. ) ;
#240 = EDGE_LOOP ( 'NONE', ( #197, #255, #105, #294 ) ) ;
#241 = STYLED_ITEM ( 'NONE', ( #53 ), #293 ) ;
#242 =( LENGTH_UNIT ( ) NAMED_UNIT ( * ) SI_UNIT ( $, .METRE. ) );
#243 = EDGE_CURVE ( 'NONE', #250, #224, #2, .T. ) ;
#244 = AXIS2_PLACEMENT_3D ( 'NONE', #68, #61, #39 ) ;
#245 = VECTOR ( 'NONE', #188, 39.37007874015748143 ) ;
#246 = CARTESIAN_POINT ( 'NONE',  ( 2.457895567533320651E-33, 0.0000000000000000000, 2.007024040927231763E-17 ) ) ;
#247 = CARTESIAN_POINT ( 'NONE',  ( -0.1725000000000001532, 0.0000000000000000000, 2.000000000000000000 ) ) ;
#248 = CARTESIAN_POINT ( 'NONE',  ( 0.1875000000000000833, 2.296212748401288650E-17, 0.6339219324525432464 ) ) ;
#249 = DIRECTION ( 'NONE',  ( 1.224646799147353207E-16, 0.0000000000000000000, 1.000000000000000000 ) ) ;
#250 = VERTEX_POINT ( 'NONE', #286 ) ;
#251 = ORIENTED_EDGE ( 'NONE', *, *, #47, .T. ) ;
#252 = CARTESIAN_POINT ( 'NONE',  ( 0.0000000000000000000, 0.0000000000000000000, 2.000000000000000000 ) ) ;
#253 = CARTESIAN_POINT ( 'NONE',  ( 0.0000000000000000000, 0.0000000000000000000, 0.0000000000000000000 ) ) ;
#254 = CYLINDRICAL_SURFACE ( 'NONE', #51, 0.1875000000000000278 ) ;
#255 = ORIENTED_EDGE ( 'NONE', *, *, #243, .T. ) ;
#256 = DIRECTION ( 'NONE',  ( 0.0000000000000000000, 0.0000000000000000000, 1.000000000000000000 ) ) ;
#257 = EDGE_CURVE ( 'NONE', #250, #175, #261, .T. ) ;
#258 = AXIS2_PLACEMENT_3D ( 'NONE', #49, #14, #34 ) ;
#259 = UNCERTAINTY_MEASURE_WITH_UNIT (LENGTH_MEASURE( 1.000000000000000082E-05 ), #174, 'distance_accuracy_value', 'NONE');
#260 = CARTESIAN_POINT ( 'NONE',  ( 0.1638859500000000302, 0.0000000000000000000, 0.5000000000000000000 ) ) ;
#261 = LINE ( 'NONE', #260, #216 ) ;
#262 =( CONVERSION_BASED_UNIT ( 'INCH', #31 ) LENGTH_UNIT ( ) NAMED_UNIT ( #96 ) );
#263 = DIRECTION ( 'NONE',  ( -1.224646799147353207E-16, -0.0000000000000000000, -1.000000000000000000 ) ) ;
#264 = CIRCLE ( 'NONE', #211, 0.1875000000000000278 ) ;
#265 = FILL_AREA_STYLE_COLOUR ( '', #16 ) ;
#266 = ORIENTED_EDGE ( 'NONE', *, *, #272, .T. ) ;
#267 = SURFACE_STYLE_USAGE ( .BOTH. , #122 ) ;
#268 = DIRECTION ( 'NONE',  ( 1.000000000000000000, 0.0000000000000000000, 0.0000000000000000000 ) ) ;
#269 = ORIENTED_EDGE ( 'NONE', *, *, #182, .F. ) ;
#270 = CARTESIAN_POINT ( 'NONE',  ( -0.1638859499999998914, 2.151618394664259590E-17, 0.5000000000000000000 ) ) ;
#271 = ORIENTED_EDGE ( 'NONE', *, *, #168, .T. ) ;
#272 = EDGE_CURVE ( 'NONE', #102, #229, #195, .T. ) ;
#273 = AXIS2_PLACEMENT_3D ( 'NONE', #58, #144, #230 ) ;
#274 = LENGTH_MEASURE_WITH_UNIT ( LENGTH_MEASURE( 0.02539999999999999897 ), #242 );
#275 = DIRECTION ( 'NONE',  ( 0.0000000000000000000, 0.0000000000000000000, 1.000000000000000000 ) ) ;
#276 = EDGE_LOOP ( 'NONE', ( #69, #251, #108, #193 ) ) ;
#277 = CARTESIAN_POINT ( 'NONE',  ( 0.1725000000000001532, 2.112515728529185460E-17, 2.000000000000000000 ) ) ;
#278 = CIRCLE ( 'NONE', #72, 0.1638859499999999469 ) ;
#279 = CARTESIAN_POINT ( 'NONE',  ( -0.1875000000000000278, 0.0000000000000000000, 2.000000000000000000 ) ) ;
#280 = ADVANCED_FACE ( 'NONE', ( #95 ), #185, .T. ) ;
#281 = SURFACE_STYLE_FILL_AREA ( #93 ) ;
#282 = DIMENSIONAL_EXPONENTS ( 1.000000000000000000, 0.0000000000000000000, 0.0000000000000000000, 0.0000000000000000000, 0.0000000000000000000, 0.0000000000000000000, 0.0000000000000000000 ) ;
#283 = ORIENTED_EDGE ( 'NONE', *, *, #198, .F. ) ;
#284 = DIRECTION ( 'NONE',  ( 1.000000000000000000, 0.0000000000000000000, 0.0000000000000000000 ) ) ;
#285 =( GEOMETRIC_REPRESENTATION_CONTEXT ( 3 ) GLOBAL_UNCERTAINTY_ASSIGNED_CONTEXT ( ( #27 ) ) GLOBAL_UNIT_ASSIGNED_CONTEXT ( ( #262, #119, #9 ) ) REPRESENTATION_CONTEXT ( 'NONE', 'WORKASPACE' ) );
#286 = CARTESIAN_POINT ( 'NONE',  ( 0.1638859500000000302, 0.0000000000000000000, 0.5000000000000000000 ) ) ;
#287 = CARTESIAN_POINT ( 'NONE',  ( 0.0000000000000000000, 0.0000000000000000000, 2.000000000000000000 ) ) ;
#288 = LINE ( 'NONE', #42, #137 ) ;
#289 = PRODUCT_CONTEXT ( 'NONE', #112, 'mechanical' ) ;
#290 = CIRCLE ( 'NONE', #218, 0.1638859499999999469 ) ;
#291 = CARTESIAN_POINT ( 'NONE',  ( 0.0000000000000000000, 0.0000000000000000000, 0.0000000000000000000 ) ) ;
#292 = CARTESIAN_POINT ( 'NONE',  ( 6.123233995736766036E-17, 0.0000000000000000000, 0.5000000000000000000 ) ) ;
#293 = ADVANCED_BREP_SHAPE_REPRESENTATION ( 'Micro_SEM-328-04', ( #194, #17 ), #285 ) ;
#294 = ORIENTED_EDGE ( 'NONE', *, *, #134, .F. ) ;
#295 = CYLINDRICAL_SURFACE ( 'NONE', #244, 0.1638859499999999469 ) ;
#296 = CYLINDRICAL_SURFACE ( 'NONE', #258, 0.1638859499999999469 ) ;
#297 = AXIS2_PLACEMENT_3D ( 'NONE', #202, #256, #80 ) ;
#298 = DIRECTION ( 'NONE',  ( -0.0000000000000000000, -0.0000000000000000000, -1.000000000000000000 ) ) ;
#299 = VERTEX_POINT ( 'NONE', #237 ) ;
ENDSEC;
END-ISO-10303-21;
