ISO-10303-21;
HEADER;
FILE_DESCRIPTION (( 'STEP AP214' ),
    '1' );
FILE_NAME ('Micro_RME-032-2.STEP',
    '2021-09-01T23:13:32',
    ( '' ),
    ( '' ),
    'SwSTEP 2.0',
    'SolidWorks 2020',
    '' );
FILE_SCHEMA (( 'AUTOMOTIVE_DESIGN' ));
ENDSEC;

DATA;
#1 = CARTESIAN_POINT ( 'NONE',  ( 1.175660927181459403E-17, 0.0000000000000000000, 0.09600000000000000200 ) ) ;
#2 = LINE ( 'NONE', #298, #68 ) ;
#3 = AXIS2_PLACEMENT_3D ( 'NONE', #232, #75, #183 ) ;
#4 = CARTESIAN_POINT ( 'NONE',  ( 0.0000000000000000000, 0.0000000000000000000, 1.500000000000000222 ) ) ;
#5 = EDGE_CURVE ( 'NONE', #115, #112, #197, .T. ) ;
#6 = DIRECTION ( 'NONE',  ( 1.000000000000000000, 0.0000000000000000000, 0.0000000000000000000 ) ) ;
#7 = DIRECTION ( 'NONE',  ( -0.7071067811865462405, 0.0000000000000000000, -0.7071067811865486830 ) ) ;
#8 = AXIS2_PLACEMENT_3D ( 'NONE', #157, #255, #48 ) ;
#9 = DIRECTION ( 'NONE',  ( -1.000000000000000000, 0.0000000000000000000, 1.224646799147353454E-16 ) ) ;
#10 = ORIENTED_EDGE ( 'NONE', *, *, #288, .T. ) ;
#11 = FILL_AREA_STYLE ('',( #217 ) ) ;
#12 =( NAMED_UNIT ( * ) PLANE_ANGLE_UNIT ( ) SI_UNIT ( $, .RADIAN. ) );
#13 = DIMENSIONAL_EXPONENTS ( 1.000000000000000000, 0.0000000000000000000, 0.0000000000000000000, 0.0000000000000000000, 0.0000000000000000000, 0.0000000000000000000, 0.0000000000000000000 ) ;
#14 = ORIENTED_EDGE ( 'NONE', *, *, #143, .F. ) ;
#15 = SURFACE_STYLE_USAGE ( .BOTH. , #35 ) ;
#16 = DIRECTION ( 'NONE',  ( 1.000000000000000000, 0.0000000000000000000, -0.0000000000000000000 ) ) ;
#17 = DIRECTION ( 'NONE',  ( -1.224646799147353454E-16, -0.0000000000000000000, -1.000000000000000000 ) ) ;
#18 = AXIS2_PLACEMENT_3D ( 'NONE', #185, #56, #215 ) ;
#19 = CARTESIAN_POINT ( 'NONE',  ( 2.397216036606714706E-34, 0.0000000000000000000, 1.957475443757130431E-18 ) ) ;
#20 = CARTESIAN_POINT ( 'NONE',  ( 0.01598400000000001556, 0.0000000000000000000, 0.09600000000000000200 ) ) ;
#21 = DIRECTION ( 'NONE',  ( -0.0000000000000000000, -0.0000000000000000000, -1.000000000000000000 ) ) ;
#22 = ADVANCED_FACE ( 'NONE', ( #194 ), #269, .F. ) ;
#23 = CIRCLE ( 'NONE', #26, 0.01598400000000000515 ) ;
#24 =( LENGTH_UNIT ( ) NAMED_UNIT ( * ) SI_UNIT ( $, .METRE. ) );
#25 = FACE_OUTER_BOUND ( 'NONE', #135, .T. ) ;
#26 = AXIS2_PLACEMENT_3D ( 'NONE', #133, #17, #263 ) ;
#27 = DIRECTION ( 'NONE',  ( 0.0000000000000000000, 0.0000000000000000000, -1.000000000000000000 ) ) ;
#28 = DIMENSIONAL_EXPONENTS ( 1.000000000000000000, 0.0000000000000000000, 0.0000000000000000000, 0.0000000000000000000, 0.0000000000000000000, 0.0000000000000000000, 0.0000000000000000000 ) ;
#29 = FACE_OUTER_BOUND ( 'NONE', #151, .T. ) ;
#30 = ORIENTED_EDGE ( 'NONE', *, *, #60, .T. ) ;
#31 =( NAMED_UNIT ( * ) PLANE_ANGLE_UNIT ( ) SI_UNIT ( $, .RADIAN. ) );
#32 = AXIS2_PLACEMENT_3D ( 'NONE', #202, #102, #208 ) ;
#33 = VERTEX_POINT ( 'NONE', #287 ) ;
#34 = AXIS2_PLACEMENT_3D ( 'NONE', #196, #41, #222 ) ;
#35 = SURFACE_SIDE_STYLE ('',( #83 ) ) ;
#36 = VERTEX_POINT ( 'NONE', #225 ) ;
#37 = EDGE_CURVE ( 'NONE', #115, #58, #200, .T. ) ;
#38 = AXIS2_PLACEMENT_3D ( 'NONE', #54, #27, #6 ) ;
#39 = VERTEX_POINT ( 'NONE', #167 ) ;
#40 = SURFACE_SIDE_STYLE ('',( #89 ) ) ;
#41 = DIRECTION ( 'NONE',  ( 0.0000000000000000000, 0.0000000000000000000, 1.000000000000000000 ) ) ;
#42 = ORIENTED_EDGE ( 'NONE', *, *, #264, .T. ) ;
#43 = ORIENTED_EDGE ( 'NONE', *, *, #184, .T. ) ;
#44 = CARTESIAN_POINT ( 'NONE',  ( 0.04750000000000064587, 6.735557395310483192E-18, 1.500000000000000222 ) ) ;
#45 = DIRECTION ( 'NONE',  ( -1.000000000000000000, 0.0000000000000000000, 0.0000000000000000000 ) ) ;
#46 = VECTOR ( 'NONE', #299, 39.37007874015748143 ) ;
#47 = FACE_OUTER_BOUND ( 'NONE', #214, .T. ) ;
#48 = DIRECTION ( 'NONE',  ( -1.000000000000000000, 0.0000000000000000000, 1.224646799147353454E-16 ) ) ;
#49 = LINE ( 'NONE', #137, #46 ) ;
#50 = DIRECTION ( 'NONE',  ( 0.0000000000000000000, 0.0000000000000000000, 1.000000000000000000 ) ) ;
#51 = EDGE_CURVE ( 'NONE', #58, #33, #177, .T. ) ;
#52 = MECHANICAL_DESIGN_GEOMETRIC_PRESENTATION_REPRESENTATION (  '', ( #164 ), #96 ) ;
#53 = EDGE_LOOP ( 'NONE', ( #242, #43, #152, #128 ) ) ;
#54 = CARTESIAN_POINT ( 'NONE',  ( 0.0000000000000000000, 0.0000000000000000000, 1.485000000000000764 ) ) ;
#55 = ORIENTED_EDGE ( 'NONE', *, *, #85, .T. ) ;
#56 = DIRECTION ( 'NONE',  ( 0.0000000000000000000, 0.0000000000000000000, -1.000000000000000000 ) ) ;
#57 = DIRECTION ( 'NONE',  ( 1.000000000000000000, 0.0000000000000000000, 0.0000000000000000000 ) ) ;
#58 = VERTEX_POINT ( 'NONE', #290 ) ;
#59 = CARTESIAN_POINT ( 'NONE',  ( -0.04750000000000064587, 0.0000000000000000000, 1.500000000000000222 ) ) ;
#60 = EDGE_CURVE ( 'NONE', #33, #58, #23, .T. ) ;
#61 = ORIENTED_EDGE ( 'NONE', *, *, #5, .F. ) ;
#62 = CARTESIAN_POINT ( 'NONE',  ( 1.175660927181459403E-17, 0.0000000000000000000, 0.09600000000000000200 ) ) ;
#63 = PRESENTATION_LAYER_ASSIGNMENT (  '', '', ( #126 ) ) ;
#64 = PRESENTATION_LAYER_ASSIGNMENT (  '', '', ( #164 ) ) ;
#65 = DIRECTION ( 'NONE',  ( 0.1736481776669313859, 0.0000000000000000000, 0.9848077530122077983 ) ) ;
#66 = ORIENTED_EDGE ( 'NONE', *, *, #270, .F. ) ;
#67 = EDGE_LOOP ( 'NONE', ( #201, #267, #268, #61 ) ) ;
#68 = VECTOR ( 'NONE', #21, 39.37007874015748143 ) ;
#69 = DIRECTION ( 'NONE',  ( -0.0000000000000000000, -0.0000000000000000000, -1.000000000000000000 ) ) ;
#70 = CARTESIAN_POINT ( 'NONE',  ( 0.0000000000000000000, 0.0000000000000000000, 1.500000000000000222 ) ) ;
#71 =( CONVERSION_BASED_UNIT ( 'INCH', #140 ) LENGTH_UNIT ( ) NAMED_UNIT ( #28 ) );
#72 = AXIS2_PLACEMENT_3D ( 'NONE', #70, #207, #252 ) ;
#73 = CARTESIAN_POINT ( 'NONE',  ( -0.06249999999999997918, 0.0000000000000000000, 0.3598053451213359955 ) ) ;
#74 = FACE_OUTER_BOUND ( 'NONE', #238, .T. ) ;
#75 = DIRECTION ( 'NONE',  ( -0.0000000000000000000, -0.0000000000000000000, -1.000000000000000000 ) ) ;
#76 = MECHANICAL_DESIGN_GEOMETRIC_PRESENTATION_REPRESENTATION (  '', ( #126 ), #243 ) ;
#77 = MANIFOLD_SOLID_BREP ( 'Cut-Revolve1', #168 ) ;
#78 = ADVANCED_FACE ( 'NONE', ( #154 ), #224, .T. ) ;
#79 = DIRECTION ( 'NONE',  ( 0.0000000000000000000, 0.0000000000000000000, -1.000000000000000000 ) ) ;
#80 = DIRECTION ( 'NONE',  ( 1.000000000000000000, 0.0000000000000000000, 0.0000000000000000000 ) ) ;
#81 =( CONVERSION_BASED_UNIT ( 'INCH', #211 ) LENGTH_UNIT ( ) NAMED_UNIT ( #13 ) );
#82 = AXIS2_PLACEMENT_3D ( 'NONE', #4, #50, #80 ) ;
#83 = SURFACE_STYLE_FILL_AREA ( #11 ) ;
#84 = ORIENTED_EDGE ( 'NONE', *, *, #282, .F. ) ;
#85 = EDGE_CURVE ( 'NONE', #39, #175, #2, .T. ) ;
#86 = PRODUCT_CONTEXT ( 'NONE', #93, 'mechanical' ) ;
#87 = DIMENSIONAL_EXPONENTS ( 1.000000000000000000, 0.0000000000000000000, 0.0000000000000000000, 0.0000000000000000000, 0.0000000000000000000, 0.0000000000000000000, 0.0000000000000000000 ) ;
#88 = ORIENTED_EDGE ( 'NONE', *, *, #85, .F. ) ;
#89 = SURFACE_STYLE_FILL_AREA ( #198 ) ;
#90 = CONICAL_SURFACE ( 'NONE', #199, 0.01598400000000000515, 0.1745329251994338915 ) ;
#91 = DIRECTION ( 'NONE',  ( -1.224646799147353454E-16, -0.0000000000000000000, -1.000000000000000000 ) ) ;
#92 = VERTEX_POINT ( 'NONE', #44 ) ;
#93 = APPLICATION_CONTEXT ( 'automotive_design' ) ;
#94 = DIRECTION ( 'NONE',  ( 1.224646799147353454E-16, 0.0000000000000000000, 1.000000000000000000 ) ) ;
#95 = CIRCLE ( 'NONE', #82, 0.04750000000000064587 ) ;
#96 =( GEOMETRIC_REPRESENTATION_CONTEXT ( 3 ) GLOBAL_UNCERTAINTY_ASSIGNED_CONTEXT ( ( #213 ) ) GLOBAL_UNIT_ASSIGNED_CONTEXT ( ( #289, #12, #111 ) ) REPRESENTATION_CONTEXT ( 'NONE', 'WORKASPACE' ) );
#97 = EDGE_CURVE ( 'NONE', #36, #112, #122, .T. ) ;
#98 = CARTESIAN_POINT ( 'NONE',  ( 0.01598400000000001556, 0.0000000000000000000, 0.09600000000000000200 ) ) ;
#99 = CYLINDRICAL_SURFACE ( 'NONE', #8, 0.01598400000000000515 ) ;
#100 = AXIS2_PLACEMENT_3D ( 'NONE', #1, #256, #45 ) ;
#101 = COLOUR_RGB ( '',0.7921568627450980005, 0.8196078431372548767, 0.9333333333333333481 ) ;
#102 = DIRECTION ( 'NONE',  ( 0.0000000000000000000, 0.0000000000000000000, 1.000000000000000000 ) ) ;
#103 = UNCERTAINTY_MEASURE_WITH_UNIT (LENGTH_MEASURE( 1.000000000000000082E-05 ), #81, 'distance_accuracy_value', 'NONE');
#104 = LINE ( 'NONE', #59, #123 ) ;
#105 = CARTESIAN_POINT ( 'NONE',  ( 4.406344642189529670E-17, 0.0000000000000000000, 0.3598053451213359955 ) ) ;
#106 = ORIENTED_EDGE ( 'NONE', *, *, #37, .F. ) ;
#107 = CYLINDRICAL_SURFACE ( 'NONE', #3, 0.06250000000000002776 ) ;
#108 = APPLICATION_CONTEXT ( 'automotive_design' ) ;
#109 = PRODUCT_RELATED_PRODUCT_CATEGORY ( 'part', '', ( #274 ) ) ;
#110 = ORIENTED_EDGE ( 'NONE', *, *, #37, .T. ) ;
#111 =( NAMED_UNIT ( * ) SI_UNIT ( $, .STERADIAN. ) SOLID_ANGLE_UNIT ( ) );
#112 = VERTEX_POINT ( 'NONE', #206 ) ;
#113 = SHAPE_DEFINITION_REPRESENTATION ( #277, #165 ) ;
#114 = VERTEX_POINT ( 'NONE', #276 ) ;
#115 = VERTEX_POINT ( 'NONE', #98 ) ;
#116 = FACE_OUTER_BOUND ( 'NONE', #67, .T. ) ;
#117 = ADVANCED_FACE ( 'NONE', ( #74 ), #171, .T. ) ;
#118 = DIRECTION ( 'NONE',  ( 1.000000000000000000, 0.0000000000000000000, 0.0000000000000000000 ) ) ;
#119 = VECTOR ( 'NONE', #69, 39.37007874015748143 ) ;
#120 = DIRECTION ( 'NONE',  ( 1.224646799147353454E-16, 0.0000000000000000000, 1.000000000000000000 ) ) ;
#121 = CARTESIAN_POINT ( 'NONE',  ( 0.0000000000000000000, 0.0000000000000000000, 1.500000000000000222 ) ) ;
#122 = LINE ( 'NONE', #181, #119 ) ;
#123 = VECTOR ( 'NONE', #7, 39.37007874015748854 ) ;
#124 = FACE_OUTER_BOUND ( 'NONE', #125, .T. ) ;
#125 = EDGE_LOOP ( 'NONE', ( #265, #170, #55, #66 ) ) ;
#126 = STYLED_ITEM ( 'NONE', ( #251 ), #77 ) ;
#127 = CARTESIAN_POINT ( 'NONE',  ( -0.04750000000000064587, 0.0000000000000000000, 1.500000000000000222 ) ) ;
#128 = ORIENTED_EDGE ( 'NONE', *, *, #264, .F. ) ;
#129 = AXIS2_PLACEMENT_3D ( 'NONE', #19, #132, #149 ) ;
#130 = ORIENTED_EDGE ( 'NONE', *, *, #97, .T. ) ;
#131 = ADVANCED_FACE ( 'NONE', ( #25 ), #230, .T. ) ;
#132 = DIRECTION ( 'NONE',  ( -1.224646799147353454E-16, -0.0000000000000000000, -1.000000000000000000 ) ) ;
#133 = CARTESIAN_POINT ( 'NONE',  ( 2.397216036606714706E-34, 0.0000000000000000000, 1.957475443757130431E-18 ) ) ;
#134 = DIRECTION ( 'NONE',  ( 0.0000000000000000000, 0.0000000000000000000, 1.000000000000000000 ) ) ;
#135 = EDGE_LOOP ( 'NONE', ( #153, #189 ) ) ;
#136 =( NAMED_UNIT ( * ) SI_UNIT ( $, .STERADIAN. ) SOLID_ANGLE_UNIT ( ) );
#137 = CARTESIAN_POINT ( 'NONE',  ( -0.01598400000000000515, 0.0000000000000000000, 1.957475443757130431E-18 ) ) ;
#138 = VECTOR ( 'NONE', #91, 39.37007874015748143 ) ;
#139 = LINE ( 'NONE', #145, #271 ) ;
#140 = LENGTH_MEASURE_WITH_UNIT ( LENGTH_MEASURE( 0.02539999999999999897 ), #24 );
#141 = DIRECTION ( 'NONE',  ( -1.224646799147353454E-16, -0.0000000000000000000, -1.000000000000000000 ) ) ;
#142 = DIRECTION ( 'NONE',  ( 0.0000000000000000000, 0.0000000000000000000, 1.000000000000000000 ) ) ;
#143 = EDGE_CURVE ( 'NONE', #175, #112, #218, .T. ) ;
#144 = ORIENTED_EDGE ( 'NONE', *, *, #51, .F. ) ;
#145 = CARTESIAN_POINT ( 'NONE',  ( 0.04750000000000064587, 5.817072295950006528E-18, 1.500000000000000222 ) ) ;
#146 = CIRCLE ( 'NONE', #18, 0.06250000000000002776 ) ;
#147 = APPLICATION_PROTOCOL_DEFINITION ( 'draft international standard', 'automotive_design', 1998, #93 ) ;
#148 = DIRECTION ( 'NONE',  ( -1.224646799147353454E-16, -0.0000000000000000000, -1.000000000000000000 ) ) ;
#149 = DIRECTION ( 'NONE',  ( -1.000000000000000000, 0.0000000000000000000, 1.224646799147353454E-16 ) ) ;
#150 = ORIENTED_EDGE ( 'NONE', *, *, #270, .T. ) ;
#151 = EDGE_LOOP ( 'NONE', ( #226, #110, #172, #236 ) ) ;
#152 = ORIENTED_EDGE ( 'NONE', *, *, #288, .F. ) ;
#153 = ORIENTED_EDGE ( 'NONE', *, *, #195, .T. ) ;
#154 = FACE_OUTER_BOUND ( 'NONE', #295, .T. ) ;
#155 =( NAMED_UNIT ( * ) PLANE_ANGLE_UNIT ( ) SI_UNIT ( $, .RADIAN. ) );
#156 = CIRCLE ( 'NONE', #254, 0.01598400000000000515 ) ;
#157 = CARTESIAN_POINT ( 'NONE',  ( 0.0000000000000000000, 0.0000000000000000000, 0.0000000000000000000 ) ) ;
#158 = DIRECTION ( 'NONE',  ( -1.000000000000000000, 0.0000000000000000000, 0.0000000000000000000 ) ) ;
#159 = ADVANCED_FACE ( 'NONE', ( #296 ), #204, .T. ) ;
#160 =( NAMED_UNIT ( * ) SI_UNIT ( $, .STERADIAN. ) SOLID_ANGLE_UNIT ( ) );
#161 = PRODUCT_DEFINITION_CONTEXT ( 'detailed design', #108, 'design' ) ;
#162 = ORIENTED_EDGE ( 'NONE', *, *, #5, .T. ) ;
#163 = DIRECTION ( 'NONE',  ( -1.000000000000000000, 0.0000000000000000000, 0.0000000000000000000 ) ) ;
#164 = STYLED_ITEM ( 'NONE', ( #173 ), #165 ) ;
#165 = ADVANCED_BREP_SHAPE_REPRESENTATION ( 'Micro_RME-032-2', ( #77, #34 ), #178 ) ;
#166 = APPLICATION_PROTOCOL_DEFINITION ( 'draft international standard', 'automotive_design', 1998, #108 ) ;
#167 = CARTESIAN_POINT ( 'NONE',  ( -0.06250000000000002776, 0.0000000000000000000, 1.485000000000000764 ) ) ;
#168 = CLOSED_SHELL ( 'NONE', ( #291, #180, #233, #159, #240, #131, #117, #78, #182, #22 ) ) ;
#169 = EDGE_CURVE ( 'NONE', #114, #115, #281, .T. ) ;
#170 = ORIENTED_EDGE ( 'NONE', *, *, #261, .T. ) ;
#171 = CONICAL_SURFACE ( 'NONE', #266, 0.04750000000000064587, 0.7853981633974466137 ) ;
#172 = ORIENTED_EDGE ( 'NONE', *, *, #60, .F. ) ;
#173 = PRESENTATION_STYLE_ASSIGNMENT (( #15 ) ) ;
#174 = EDGE_LOOP ( 'NONE', ( #30, #283 ) ) ;
#175 = VERTEX_POINT ( 'NONE', #73 ) ;
#176 = AXIS2_PLACEMENT_3D ( 'NONE', #258, #142, #57 ) ;
#177 = CIRCLE ( 'NONE', #129, 0.01598400000000000515 ) ;
#178 =( GEOMETRIC_REPRESENTATION_CONTEXT ( 3 ) GLOBAL_UNCERTAINTY_ASSIGNED_CONTEXT ( ( #103 ) ) GLOBAL_UNIT_ASSIGNED_CONTEXT ( ( #81, #31, #160 ) ) REPRESENTATION_CONTEXT ( 'NONE', 'WORKASPACE' ) );
#179 = EDGE_CURVE ( 'NONE', #114, #33, #49, .T. ) ;
#180 = ADVANCED_FACE ( 'NONE', ( #116 ), #90, .T. ) ;
#181 = CARTESIAN_POINT ( 'NONE',  ( 0.06250000000000002776, 7.654042494670959086E-18, 1.500000000000000222 ) ) ;
#182 = ADVANCED_FACE ( 'NONE', ( #47 ), #99, .T. ) ;
#183 = DIRECTION ( 'NONE',  ( -1.000000000000000000, 0.0000000000000000000, 0.0000000000000000000 ) ) ;
#184 = EDGE_CURVE ( 'NONE', #92, #36, #139, .T. ) ;
#185 = CARTESIAN_POINT ( 'NONE',  ( 0.0000000000000000000, 0.0000000000000000000, 1.485000000000000764 ) ) ;
#186 = AXIS2_PLACEMENT_3D ( 'NONE', #294, #134, #16 ) ;
#187 = COLOUR_RGB ( '',0.7921568627450980005, 0.8196078431372548767, 0.9333333333333333481 ) ;
#188 = CARTESIAN_POINT ( 'NONE',  ( 0.0000000000000000000, 0.0000000000000000000, 0.0000000000000000000 ) ) ;
#189 = ORIENTED_EDGE ( 'NONE', *, *, #203, .T. ) ;
#190 = FACE_OUTER_BOUND ( 'NONE', #53, .T. ) ;
#191 = DIRECTION ( 'NONE',  ( 1.000000000000000000, 0.0000000000000000000, 0.0000000000000000000 ) ) ;
#192 = AXIS2_PLACEMENT_3D ( 'NONE', #62, #120, #229 ) ;
#193 = LENGTH_MEASURE_WITH_UNIT ( LENGTH_MEASURE( 0.02539999999999999897 ), #247 );
#194 = FACE_OUTER_BOUND ( 'NONE', #174, .T. ) ;
#195 = EDGE_CURVE ( 'NONE', #250, #92, #209, .T. ) ;
#196 = CARTESIAN_POINT ( 'NONE',  ( 0.0000000000000000000, 0.0000000000000000000, 0.0000000000000000000 ) ) ;
#197 = LINE ( 'NONE', #20, #234 ) ;
#198 = FILL_AREA_STYLE ('',( #221 ) ) ;
#199 = AXIS2_PLACEMENT_3D ( 'NONE', #253, #94, #273 ) ;
#200 = LINE ( 'NONE', #245, #138 ) ;
#201 = ORIENTED_EDGE ( 'NONE', *, *, #169, .F. ) ;
#202 = CARTESIAN_POINT ( 'NONE',  ( 0.0000000000000000000, 0.0000000000000000000, 1.500000000000000222 ) ) ;
#203 = EDGE_CURVE ( 'NONE', #92, #250, #95, .T. ) ;
#204 = CYLINDRICAL_SURFACE ( 'NONE', #72, 0.06250000000000002776 ) ;
#205 = CIRCLE ( 'NONE', #228, 0.06250000000000002776 ) ;
#206 = CARTESIAN_POINT ( 'NONE',  ( 0.06250000000000006939, 7.654042494670963708E-18, 0.3598053451213359955 ) ) ;
#207 = DIRECTION ( 'NONE',  ( -0.0000000000000000000, -0.0000000000000000000, -1.000000000000000000 ) ) ;
#208 = DIRECTION ( 'NONE',  ( 1.000000000000000000, 0.0000000000000000000, -0.0000000000000000000 ) ) ;
#209 = CIRCLE ( 'NONE', #176, 0.04750000000000064587 ) ;
#210 = UNCERTAINTY_MEASURE_WITH_UNIT (LENGTH_MEASURE( 1.000000000000000082E-05 ), #71, 'distance_accuracy_value', 'NONE');
#211 = LENGTH_MEASURE_WITH_UNIT ( LENGTH_MEASURE( 0.02539999999999999897 ), #278 );
#212 = DIRECTION ( 'NONE',  ( -1.000000000000000000, 0.0000000000000000000, 0.0000000000000000000 ) ) ;
#213 = UNCERTAINTY_MEASURE_WITH_UNIT (LENGTH_MEASURE( 1.000000000000000082E-05 ), #289, 'distance_accuracy_value', 'NONE');
#214 = EDGE_LOOP ( 'NONE', ( #106, #279, #216, #144 ) ) ;
#215 = DIRECTION ( 'NONE',  ( 1.000000000000000000, 0.0000000000000000000, 0.0000000000000000000 ) ) ;
#216 = ORIENTED_EDGE ( 'NONE', *, *, #179, .T. ) ;
#217 = FILL_AREA_STYLE_COLOUR ( '', #101 ) ;
#218 = CIRCLE ( 'NONE', #293, 0.06250000000000002776 ) ;
#219 = PRODUCT_DEFINITION_FORMATION_WITH_SPECIFIED_SOURCE ( 'ANY', '', #274, .NOT_KNOWN. ) ;
#220 = ORIENTED_EDGE ( 'NONE', *, *, #195, .F. ) ;
#221 = FILL_AREA_STYLE_COLOUR ( '', #187 ) ;
#222 = DIRECTION ( 'NONE',  ( 1.000000000000000000, 0.0000000000000000000, 0.0000000000000000000 ) ) ;
#223 = SURFACE_STYLE_USAGE ( .BOTH. , #40 ) ;
#224 = CONICAL_SURFACE ( 'NONE', #192, 0.01598400000000000515, 0.1745329251994338915 ) ;
#225 = CARTESIAN_POINT ( 'NONE',  ( 0.06250000000000002776, 7.654042494670959086E-18, 1.485000000000000764 ) ) ;
#226 = ORIENTED_EDGE ( 'NONE', *, *, #169, .T. ) ;
#227 = DIRECTION ( 'NONE',  ( 0.0000000000000000000, 0.0000000000000000000, -1.000000000000000000 ) ) ;
#228 = AXIS2_PLACEMENT_3D ( 'NONE', #105, #148, #191 ) ;
#229 = DIRECTION ( 'NONE',  ( 1.000000000000000000, 0.0000000000000000000, 0.0000000000000000000 ) ) ;
#230 = PLANE ( 'NONE',  #32 ) ;
#231 = DIRECTION ( 'NONE',  ( -1.224646799147353454E-16, -0.0000000000000000000, -1.000000000000000000 ) ) ;
#232 = CARTESIAN_POINT ( 'NONE',  ( 0.0000000000000000000, 0.0000000000000000000, 1.500000000000000222 ) ) ;
#233 = ADVANCED_FACE ( 'NONE', ( #190 ), #275, .T. ) ;
#234 = VECTOR ( 'NONE', #65, 39.37007874015748143 ) ;
#235 = LINE ( 'NONE', #284, #239 ) ;
#236 = ORIENTED_EDGE ( 'NONE', *, *, #179, .F. ) ;
#237 = CARTESIAN_POINT ( 'NONE',  ( 1.175660927181459403E-17, 0.0000000000000000000, 0.09600000000000000200 ) ) ;
#238 = EDGE_LOOP ( 'NONE', ( #248, #220, #42, #259 ) ) ;
#239 = VECTOR ( 'NONE', #241, 39.37007874015747433 ) ;
#240 = ADVANCED_FACE ( 'NONE', ( #124 ), #107, .T. ) ;
#241 = DIRECTION ( 'NONE',  ( -0.1736481776669311916, 2.126576849575783316E-17, 0.9848077530122080203 ) ) ;
#242 = ORIENTED_EDGE ( 'NONE', *, *, #203, .F. ) ;
#243 =( GEOMETRIC_REPRESENTATION_CONTEXT ( 3 ) GLOBAL_UNCERTAINTY_ASSIGNED_CONTEXT ( ( #210 ) ) GLOBAL_UNIT_ASSIGNED_CONTEXT ( ( #71, #155, #136 ) ) REPRESENTATION_CONTEXT ( 'NONE', 'WORKASPACE' ) );
#244 = EDGE_LOOP ( 'NONE', ( #10, #130, #14, #88 ) ) ;
#245 = CARTESIAN_POINT ( 'NONE',  ( 0.01598400000000000515, 1.957475443757129660E-18, -1.957475443757130431E-18 ) ) ;
#246 = PRODUCT_DEFINITION ( 'UNKNOWN', '', #219, #161 ) ;
#247 =( LENGTH_UNIT ( ) NAMED_UNIT ( * ) SI_UNIT ( $, .METRE. ) );
#248 = ORIENTED_EDGE ( 'NONE', *, *, #184, .F. ) ;
#249 = AXIS2_PLACEMENT_3D ( 'NONE', #260, #79, #212 ) ;
#250 = VERTEX_POINT ( 'NONE', #127 ) ;
#251 = PRESENTATION_STYLE_ASSIGNMENT (( #223 ) ) ;
#252 = DIRECTION ( 'NONE',  ( -1.000000000000000000, 0.0000000000000000000, 0.0000000000000000000 ) ) ;
#253 = CARTESIAN_POINT ( 'NONE',  ( 1.175660927181459403E-17, 0.0000000000000000000, 0.09600000000000000200 ) ) ;
#254 = AXIS2_PLACEMENT_3D ( 'NONE', #237, #257, #163 ) ;
#255 = DIRECTION ( 'NONE',  ( -1.224646799147353454E-16, -0.0000000000000000000, -1.000000000000000000 ) ) ;
#256 = DIRECTION ( 'NONE',  ( -1.224646799147353454E-16, -0.0000000000000000000, -1.000000000000000000 ) ) ;
#257 = DIRECTION ( 'NONE',  ( -1.224646799147353454E-16, -0.0000000000000000000, -1.000000000000000000 ) ) ;
#258 = CARTESIAN_POINT ( 'NONE',  ( 0.0000000000000000000, 0.0000000000000000000, 1.500000000000000222 ) ) ;
#259 = ORIENTED_EDGE ( 'NONE', *, *, #261, .F. ) ;
#260 = CARTESIAN_POINT ( 'NONE',  ( 0.0000000000000000000, 0.0000000000000000000, 1.500000000000000222 ) ) ;
#261 = EDGE_CURVE ( 'NONE', #36, #39, #297, .T. ) ;
#262 = EDGE_CURVE ( 'NONE', #115, #114, #156, .T. ) ;
#263 = DIRECTION ( 'NONE',  ( -1.000000000000000000, 0.0000000000000000000, 1.224646799147353454E-16 ) ) ;
#264 = EDGE_CURVE ( 'NONE', #250, #39, #104, .T. ) ;
#265 = ORIENTED_EDGE ( 'NONE', *, *, #97, .F. ) ;
#266 = AXIS2_PLACEMENT_3D ( 'NONE', #121, #227, #158 ) ;
#267 = ORIENTED_EDGE ( 'NONE', *, *, #282, .T. ) ;
#268 = ORIENTED_EDGE ( 'NONE', *, *, #143, .T. ) ;
#269 = PLANE ( 'NONE',  #186 ) ;
#270 = EDGE_CURVE ( 'NONE', #112, #175, #205, .T. ) ;
#271 = VECTOR ( 'NONE', #285, 39.37007874015748854 ) ;
#272 = CARTESIAN_POINT ( 'NONE',  ( 4.406344642189529670E-17, 0.0000000000000000000, 0.3598053451213359955 ) ) ;
#273 = DIRECTION ( 'NONE',  ( 1.000000000000000000, 0.0000000000000000000, 0.0000000000000000000 ) ) ;
#274 = PRODUCT ( 'Micro_RME-032-2', 'Micro_RME-032-2', '', ( #86 ) ) ;
#275 = CONICAL_SURFACE ( 'NONE', #249, 0.04750000000000064587, 0.7853981633974466137 ) ;
#276 = CARTESIAN_POINT ( 'NONE',  ( -0.01598399999999999127, 4.805758969214044758E-18, 0.09600000000000000200 ) ) ;
#277 = PRODUCT_DEFINITION_SHAPE ( 'NONE', 'NONE',  #246 ) ;
#278 =( LENGTH_UNIT ( ) NAMED_UNIT ( * ) SI_UNIT ( $, .METRE. ) );
#279 = ORIENTED_EDGE ( 'NONE', *, *, #262, .T. ) ;
#280 = CYLINDRICAL_SURFACE ( 'NONE', #286, 0.01598400000000000515 ) ;
#281 = CIRCLE ( 'NONE', #100, 0.01598400000000000515 ) ;
#282 = EDGE_CURVE ( 'NONE', #114, #175, #235, .T. ) ;
#283 = ORIENTED_EDGE ( 'NONE', *, *, #51, .T. ) ;
#284 = CARTESIAN_POINT ( 'NONE',  ( -0.01598399999999999127, 1.957475443757129660E-18, 0.09600000000000000200 ) ) ;
#285 = DIRECTION ( 'NONE',  ( 0.7071067811865462405, 8.659560562354916834E-17, -0.7071067811865486830 ) ) ;
#286 = AXIS2_PLACEMENT_3D ( 'NONE', #188, #141, #9 ) ;
#287 = CARTESIAN_POINT ( 'NONE',  ( -0.01598400000000000515, 0.0000000000000000000, 3.914950887514260861E-18 ) ) ;
#288 = EDGE_CURVE ( 'NONE', #39, #36, #146, .T. ) ;
#289 =( CONVERSION_BASED_UNIT ( 'INCH', #193 ) LENGTH_UNIT ( ) NAMED_UNIT ( #87 ) );
#290 = CARTESIAN_POINT ( 'NONE',  ( 0.01598400000000000515, 1.957475443757129660E-18, 0.0000000000000000000 ) ) ;
#291 = ADVANCED_FACE ( 'NONE', ( #29 ), #280, .T. ) ;
#292 = ORIENTED_EDGE ( 'NONE', *, *, #262, .F. ) ;
#293 = AXIS2_PLACEMENT_3D ( 'NONE', #272, #231, #118 ) ;
#294 = CARTESIAN_POINT ( 'NONE',  ( 0.0000000000000000000, 0.0000000000000000000, 0.0000000000000000000 ) ) ;
#295 = EDGE_LOOP ( 'NONE', ( #84, #292, #162, #150 ) ) ;
#296 = FACE_OUTER_BOUND ( 'NONE', #244, .T. ) ;
#297 = CIRCLE ( 'NONE', #38, 0.06250000000000002776 ) ;
#298 = CARTESIAN_POINT ( 'NONE',  ( -0.06250000000000002776, 0.0000000000000000000, 1.500000000000000222 ) ) ;
#299 = DIRECTION ( 'NONE',  ( -1.224646799147353454E-16, -0.0000000000000000000, -1.000000000000000000 ) ) ;
ENDSEC;
END-ISO-10303-21;
