ISO-10303-21;
HEADER;
FILE_DESCRIPTION (( 'STEP AP214' ),
    '1' );
FILE_NAME ('Micro_SBMM-080-340X.STEP',
    '2021-09-02T17:18:00',
    ( '' ),
    ( '' ),
    'SwSTEP 2.0',
    'SolidWorks 2020',
    '' );
FILE_SCHEMA (( 'AUTOMOTIVE_DESIGN' ));
ENDSEC;

DATA;
#1 = CARTESIAN_POINT ( 'NONE',  ( 0.0000000000000000000, 0.0000000000000000000, 3.937007999999999619 ) ) ;
#2 = CARTESIAN_POINT ( 'NONE',  ( 0.1424805000000004540, 1.744882882659150076E-17, 3.937007999999999619 ) ) ;
#3 = CARTESIAN_POINT ( 'NONE',  ( 0.0000000000000000000, 0.0000000000000000000, 0.2736715358320045977 ) ) ;
#4 = DIRECTION ( 'NONE',  ( 1.000000000000000000, 0.0000000000000000000, 0.0000000000000000000 ) ) ;
#5 = AXIS2_PLACEMENT_3D ( 'NONE', #133, #104, #243 ) ;
#6 = PLANE ( 'NONE',  #139 ) ;
#7 = CARTESIAN_POINT ( 'NONE',  ( 0.0000000000000000000, 0.0000000000000000000, 0.1574800000000000089 ) ) ;
#8 = CONICAL_SURFACE ( 'NONE', #325, 0.1732285499999997869, 0.08645134638073893873 ) ;
#9 =( GEOMETRIC_REPRESENTATION_CONTEXT ( 3 ) GLOBAL_UNCERTAINTY_ASSIGNED_CONTEXT ( ( #242 ) ) GLOBAL_UNIT_ASSIGNED_CONTEXT ( ( #97, #19, #205 ) ) REPRESENTATION_CONTEXT ( 'NONE', 'WORKASPACE' ) );
#10 = FACE_OUTER_BOUND ( 'NONE', #259, .T. ) ;
#11 = DIRECTION ( 'NONE',  ( 0.0000000000000000000, 1.000000000000000000, 0.0000000000000000000 ) ) ;
#12 = ORIENTED_EDGE ( 'NONE', *, *, #18, .F. ) ;
#13 = SPHERICAL_SURFACE ( 'NONE', #106, 0.1574799999999999811 ) ;
#14 = ORIENTED_EDGE ( 'NONE', *, *, #295, .T. ) ;
#15 = AXIS2_PLACEMENT_3D ( 'NONE', #138, #114, #132 ) ;
#16 = CONICAL_SURFACE ( 'NONE', #334, 0.1424805000000004540, 0.7853981633974608245 ) ;
#17 = ORIENTED_EDGE ( 'NONE', *, *, #174, .T. ) ;
#18 = EDGE_CURVE ( 'NONE', #149, #126, #208, .T. ) ;
#19 =( NAMED_UNIT ( * ) PLANE_ANGLE_UNIT ( ) SI_UNIT ( $, .RADIAN. ) );
#20 = ORIENTED_EDGE ( 'NONE', *, *, #51, .T. ) ;
#21 = EDGE_LOOP ( 'NONE', ( #12, #20, #127, #17 ) ) ;
#22 = ORIENTED_EDGE ( 'NONE', *, *, #82, .F. ) ;
#23 = CONICAL_SURFACE ( 'NONE', #145, 0.1424805000000004540, 0.7853981633974608245 ) ;
#24 = VERTEX_POINT ( 'NONE', #130 ) ;
#25 = SURFACE_STYLE_FILL_AREA ( #27 ) ;
#26 = DIRECTION ( 'NONE',  ( -0.0000000000000000000, -0.0000000000000000000, -1.000000000000000000 ) ) ;
#27 = FILL_AREA_STYLE ('',( #184 ) ) ;
#28 = CYLINDRICAL_SURFACE ( 'NONE', #63, 0.1574804999999999955 ) ;
#29 = CIRCLE ( 'NONE', #223, 0.1062989999999998103 ) ;
#30 = CARTESIAN_POINT ( 'NONE',  ( 0.0000000000000000000, 0.0000000000000000000, 3.937007999999999619 ) ) ;
#31 = CARTESIAN_POINT ( 'NONE',  ( 0.1424805000000004540, 1.836731392595198898E-17, 3.937007999999999619 ) ) ;
#32 = CARTESIAN_POINT ( 'NONE',  ( 0.0000000000000000000, 0.0000000000000000000, 2.347060801784821571 ) ) ;
#33 = COLOUR_RGB ( '',0.7921568627450980005, 0.8196078431372548767, 0.9333333333333333481 ) ;
#34 =( NAMED_UNIT ( * ) PLANE_ANGLE_UNIT ( ) SI_UNIT ( $, .RADIAN. ) );
#35 = DIRECTION ( 'NONE',  ( -0.0000000000000000000, -0.0000000000000000000, -1.000000000000000000 ) ) ;
#36 = SPHERICAL_SURFACE ( 'NONE', #64, 0.1574799999999999811 ) ;
#37 = CARTESIAN_POINT ( 'NONE',  ( -0.1732285499999997869, 2.121437892784369688E-17, 2.347060801784821571 ) ) ;
#38 = APPLICATION_PROTOCOL_DEFINITION ( 'draft international standard', 'automotive_design', 1998, #157 ) ;
#39 = ORIENTED_EDGE ( 'NONE', *, *, #51, .F. ) ;
#40 = VECTOR ( 'NONE', #247, 39.37007874015748143 ) ;
#41 = CIRCLE ( 'NONE', #206, 0.1574804999999999955 ) ;
#42 = EDGE_LOOP ( 'NONE', ( #235, #254, #176, #285 ) ) ;
#43 = ORIENTED_EDGE ( 'NONE', *, *, #124, .T. ) ;
#44 = DIRECTION ( 'NONE',  ( 1.000000000000000000, 0.0000000000000000000, 0.0000000000000000000 ) ) ;
#45 = VERTEX_POINT ( 'NONE', #213 ) ;
#46 = COLOUR_RGB ( '',0.7921568627450980005, 0.8196078431372548767, 0.9333333333333333481 ) ;
#47 = ORIENTED_EDGE ( 'NONE', *, *, #295, .F. ) ;
#48 = LINE ( 'NONE', #2, #40 ) ;
#49 = PRESENTATION_STYLE_ASSIGNMENT (( #237 ) ) ;
#50 = CARTESIAN_POINT ( 'NONE',  ( 0.0000000000000000000, 0.0000000000000000000, 2.347060801784821571 ) ) ;
#51 = EDGE_CURVE ( 'NONE', #149, #73, #71, .T. ) ;
#52 = CARTESIAN_POINT ( 'NONE',  ( -0.1424805000000004540, 0.0000000000000000000, 3.937007999999999619 ) ) ;
#53 = VECTOR ( 'NONE', #238, 39.37007874015748143 ) ;
#54 = CONICAL_SURFACE ( 'NONE', #257, 0.1732285499999997869, 0.08645134638073893873 ) ;
#55 = CARTESIAN_POINT ( 'NONE',  ( 0.1574804999999999955, 1.928579902531247412E-17, 2.165354000000000223 ) ) ;
#56 = MANIFOLD_SOLID_BREP ( 'Cut-Revolve3', #236 ) ;
#57 = DIRECTION ( 'NONE',  ( -0.7071067811865563435, 0.0000000000000000000, -0.7071067811865386910 ) ) ;
#58 = PRODUCT_DEFINITION ( 'UNKNOWN', '', #341, #265 ) ;
#59 = CARTESIAN_POINT ( 'NONE',  ( 0.0000000000000000000, 0.0000000000000000000, 3.937007999999999619 ) ) ;
#60 = CARTESIAN_POINT ( 'NONE',  ( 1.301787301025644282E-17, -0.1062989999999999491, 0.2736715358320045977 ) ) ;
#61 = EDGE_CURVE ( 'NONE', #319, #105, #85, .T. ) ;
#62 = CARTESIAN_POINT ( 'NONE',  ( 0.0000000000000000000, 0.0000000000000000000, 0.2736715358320045977 ) ) ;
#63 = AXIS2_PLACEMENT_3D ( 'NONE', #30, #163, #272 ) ;
#64 = AXIS2_PLACEMENT_3D ( 'NONE', #7, #304, #11 ) ;
#65 =( LENGTH_UNIT ( ) NAMED_UNIT ( * ) SI_UNIT ( $, .METRE. ) );
#66 = ORIENTED_EDGE ( 'NONE', *, *, #61, .F. ) ;
#67 =( LENGTH_UNIT ( ) NAMED_UNIT ( * ) SI_UNIT ( $, .METRE. ) );
#68 = EDGE_CURVE ( 'NONE', #335, #173, #123, .T. ) ;
#69 = EDGE_LOOP ( 'NONE', ( #343, #203 ) ) ;
#70 = ORIENTED_EDGE ( 'NONE', *, *, #324, .F. ) ;
#71 = CIRCLE ( 'NONE', #276, 0.1574804999999999955 ) ;
#72 = SURFACE_SIDE_STYLE ('',( #336 ) ) ;
#73 = VERTEX_POINT ( 'NONE', #185 ) ;
#74 = VERTEX_POINT ( 'NONE', #270 ) ;
#75 = ADVANCED_FACE ( 'NONE', ( #297 ), #8, .T. ) ;
#76 = ORIENTED_EDGE ( 'NONE', *, *, #275, .F. ) ;
#77 =( GEOMETRIC_REPRESENTATION_CONTEXT ( 3 ) GLOBAL_UNCERTAINTY_ASSIGNED_CONTEXT ( ( #79 ) ) GLOBAL_UNIT_ASSIGNED_CONTEXT ( ( #327, #34, #231 ) ) REPRESENTATION_CONTEXT ( 'NONE', 'WORKASPACE' ) );
#78 = DIRECTION ( 'NONE',  ( -1.000000000000000000, 0.0000000000000000000, 0.0000000000000000000 ) ) ;
#79 = UNCERTAINTY_MEASURE_WITH_UNIT (LENGTH_MEASURE( 1.000000000000000082E-05 ), #327, 'distance_accuracy_value', 'NONE');
#80 = CARTESIAN_POINT ( 'NONE',  ( 0.0000000000000000000, 0.0000000000000000000, 3.922008000000000827 ) ) ;
#81 = FACE_OUTER_BOUND ( 'NONE', #309, .T. ) ;
#82 = EDGE_CURVE ( 'NONE', #337, #45, #318, .T. ) ;
#83 = DIRECTION ( 'NONE',  ( 0.0000000000000000000, 0.0000000000000000000, 1.000000000000000000 ) ) ;
#84 = LINE ( 'NONE', #162, #289 ) ;
#85 = CIRCLE ( 'NONE', #5, 0.1062989999999999768 ) ;
#86 = CIRCLE ( 'NONE', #228, 0.1062989999999998103 ) ;
#87 = DIRECTION ( 'NONE',  ( 0.08634369942813729937, 0.0000000000000000000, 0.9962654092003110362 ) ) ;
#88 = EDGE_CURVE ( 'NONE', #173, #149, #48, .T. ) ;
#89 = DIRECTION ( 'NONE',  ( -1.000000000000000000, 0.0000000000000000000, 0.0000000000000000000 ) ) ;
#90 = LINE ( 'NONE', #37, #218 ) ;
#91 = AXIS2_PLACEMENT_3D ( 'NONE', #137, #320, #267 ) ;
#92 = DIRECTION ( 'NONE',  ( -1.224646799147352961E-16, 1.000000000000000000, 0.0000000000000000000 ) ) ;
#93 = DIRECTION ( 'NONE',  ( -0.0000000000000000000, -0.0000000000000000000, -1.000000000000000000 ) ) ;
#94 = CARTESIAN_POINT ( 'NONE',  ( -0.1424805000000004540, 0.0000000000000000000, 3.937007999999999619 ) ) ;
#95 = ORIENTED_EDGE ( 'NONE', *, *, #268, .F. ) ;
#96 = AXIS2_PLACEMENT_3D ( 'NONE', #143, #253, #142 ) ;
#97 =( CONVERSION_BASED_UNIT ( 'INCH', #258 ) LENGTH_UNIT ( ) NAMED_UNIT ( #194 ) );
#98 = ORIENTED_EDGE ( 'NONE', *, *, #166, .F. ) ;
#99 = SURFACE_STYLE_USAGE ( .BOTH. , #72 ) ;
#100 = ORIENTED_EDGE ( 'NONE', *, *, #174, .F. ) ;
#101 = CIRCLE ( 'NONE', #140, 0.1062989999999999768 ) ;
#102 = EDGE_LOOP ( 'NONE', ( #232, #227, #128, #66, #76 ) ) ;
#103 = ADVANCED_FACE ( 'NONE', ( #217 ), #28, .T. ) ;
#104 = DIRECTION ( 'NONE',  ( -0.0000000000000000000, -0.0000000000000000000, -1.000000000000000000 ) ) ;
#105 = VERTEX_POINT ( 'NONE', #111 ) ;
#106 = AXIS2_PLACEMENT_3D ( 'NONE', #301, #115, #328 ) ;
#107 = FACE_OUTER_BOUND ( 'NONE', #108, .T. ) ;
#108 = EDGE_LOOP ( 'NONE', ( #150, #266, #204, #290 ) ) ;
#109 = LINE ( 'NONE', #216, #241 ) ;
#110 = DIRECTION ( 'NONE',  ( -1.000000000000000000, 0.0000000000000000000, 0.0000000000000000000 ) ) ;
#111 = CARTESIAN_POINT ( 'NONE',  ( -0.1062989999999999768, 0.0000000000000000000, 0.2736715358320045977 ) ) ;
#112 = CIRCLE ( 'NONE', #91, 0.1574804999999999955 ) ;
#113 = ADVANCED_FACE ( 'NONE', ( #300 ), #6, .T. ) ;
#114 = DIRECTION ( 'NONE',  ( -1.000000000000000000, 0.0000000000000000000, 0.0000000000000000000 ) ) ;
#115 = DIRECTION ( 'NONE',  ( 1.000000000000000000, 0.0000000000000000000, 0.0000000000000000000 ) ) ;
#116 = ADVANCED_FACE ( 'NONE', ( #190 ), #23, .T. ) ;
#117 = DIRECTION ( 'NONE',  ( -0.0000000000000000000, -0.0000000000000000000, -1.000000000000000000 ) ) ;
#118 = PRESENTATION_LAYER_ASSIGNMENT (  '', '', ( #189 ) ) ;
#119 = STYLED_ITEM ( 'NONE', ( #234 ), #302 ) ;
#120 = DIRECTION ( 'NONE',  ( -1.000000000000000000, 0.0000000000000000000, 0.0000000000000000000 ) ) ;
#121 = ORIENTED_EDGE ( 'NONE', *, *, #280, .T. ) ;
#122 = ORIENTED_EDGE ( 'NONE', *, *, #171, .T. ) ;
#123 = CIRCLE ( 'NONE', #164, 0.1424805000000004540 ) ;
#124 = EDGE_CURVE ( 'NONE', #73, #149, #170, .T. ) ;
#125 = AXIS2_PLACEMENT_3D ( 'NONE', #279, #35, #332 ) ;
#126 = VERTEX_POINT ( 'NONE', #55 ) ;
#127 = ORIENTED_EDGE ( 'NONE', *, *, #268, .T. ) ;
#128 = ORIENTED_EDGE ( 'NONE', *, *, #166, .T. ) ;
#129 = APPLICATION_PROTOCOL_DEFINITION ( 'draft international standard', 'automotive_design', 1998, #215 ) ;
#130 = CARTESIAN_POINT ( 'NONE',  ( -0.1062989999999998103, 1.615183601778445154E-17, 1.574802999999999953 ) ) ;
#131 =( CONVERSION_BASED_UNIT ( 'INCH', #264 ) LENGTH_UNIT ( ) NAMED_UNIT ( #141 ) );
#132 = DIRECTION ( 'NONE',  ( 0.0000000000000000000, 0.0000000000000000000, 1.000000000000000000 ) ) ;
#133 = CARTESIAN_POINT ( 'NONE',  ( 0.0000000000000000000, 0.0000000000000000000, 0.2736715358320045977 ) ) ;
#134 = VECTOR ( 'NONE', #57, 39.37007874015748143 ) ;
#135 = DIRECTION ( 'NONE',  ( 1.000000000000000000, 0.0000000000000000000, 0.0000000000000000000 ) ) ;
#136 = CARTESIAN_POINT ( 'NONE',  ( 0.0000000000000000000, 0.0000000000000000000, 0.0000000000000000000 ) ) ;
#137 = CARTESIAN_POINT ( 'NONE',  ( 0.0000000000000000000, 0.0000000000000000000, 2.165354000000000223 ) ) ;
#138 = CARTESIAN_POINT ( 'NONE',  ( 0.0000000000000000000, 0.0000000000000000000, 0.1574800000000000089 ) ) ;
#139 = AXIS2_PLACEMENT_3D ( 'NONE', #317, #344, #299 ) ;
#140 = AXIS2_PLACEMENT_3D ( 'NONE', #3, #26, #326 ) ;
#141 = DIMENSIONAL_EXPONENTS ( 1.000000000000000000, 0.0000000000000000000, 0.0000000000000000000, 0.0000000000000000000, 0.0000000000000000000, 0.0000000000000000000, 0.0000000000000000000 ) ;
#142 = DIRECTION ( 'NONE',  ( 1.000000000000000000, 0.0000000000000000000, 0.0000000000000000000 ) ) ;
#143 = CARTESIAN_POINT ( 'NONE',  ( 0.0000000000000000000, 0.0000000000000000000, 3.937007999999999619 ) ) ;
#144 = DIRECTION ( 'NONE',  ( -1.000000000000000000, 0.0000000000000000000, 0.0000000000000000000 ) ) ;
#145 = AXIS2_PLACEMENT_3D ( 'NONE', #294, #244, #110 ) ;
#146 = DIRECTION ( 'NONE',  ( -1.000000000000000000, 0.0000000000000000000, 0.0000000000000000000 ) ) ;
#147 = EDGE_LOOP ( 'NONE', ( #291, #292, #226, #39 ) ) ;
#148 = ADVANCED_FACE ( 'NONE', ( #107 ), #54, .T. ) ;
#149 = VERTEX_POINT ( 'NONE', #274 ) ;
#150 = ORIENTED_EDGE ( 'NONE', *, *, #280, .F. ) ;
#151 = EDGE_LOOP ( 'NONE', ( #43, #256, #288, #95 ) ) ;
#152 = ORIENTED_EDGE ( 'NONE', *, *, #286, .T. ) ;
#153 = VECTOR ( 'NONE', #221, 39.37007874015748143 ) ;
#154 = ADVANCED_FACE ( 'NONE', ( #81 ), #156, .T. ) ;
#155 = EDGE_LOOP ( 'NONE', ( #177, #70, #312, #100 ) ) ;
#156 = CYLINDRICAL_SURFACE ( 'NONE', #229, 0.1062989999999999075 ) ;
#157 = APPLICATION_CONTEXT ( 'automotive_design' ) ;
#158 = UNCERTAINTY_MEASURE_WITH_UNIT (LENGTH_MEASURE( 1.000000000000000082E-05 ), #131, 'distance_accuracy_value', 'NONE');
#159 = DIRECTION ( 'NONE',  ( 1.000000000000000000, 0.0000000000000000000, 0.0000000000000000000 ) ) ;
#160 = CIRCLE ( 'NONE', #293, 0.1574799999999999811 ) ;
#161 = CARTESIAN_POINT ( 'NONE',  ( -0.1574804999999999955, 0.0000000000000000000, 2.165354000000000223 ) ) ;
#162 = CARTESIAN_POINT ( 'NONE',  ( -0.1062989999999999075, 0.0000000000000000000, 0.0000000000000000000 ) ) ;
#163 = DIRECTION ( 'NONE',  ( -0.0000000000000000000, -0.0000000000000000000, -1.000000000000000000 ) ) ;
#164 = AXIS2_PLACEMENT_3D ( 'NONE', #1, #186, #262 ) ;
#165 = DIMENSIONAL_EXPONENTS ( 1.000000000000000000, 0.0000000000000000000, 0.0000000000000000000, 0.0000000000000000000, 0.0000000000000000000, 0.0000000000000000000, 0.0000000000000000000 ) ;
#166 = EDGE_CURVE ( 'NONE', #24, #105, #84, .T. ) ;
#167 = CARTESIAN_POINT ( 'NONE',  ( -0.1574804999999999955, 0.0000000000000000000, 3.937007999999999619 ) ) ;
#168 = DIRECTION ( 'NONE',  ( -1.000000000000000000, 0.0000000000000000000, 0.0000000000000000000 ) ) ;
#169 = CARTESIAN_POINT ( 'NONE',  ( 0.0000000000000000000, 0.1062989999999999491, 0.2736715358320045977 ) ) ;
#170 = CIRCLE ( 'NONE', #201, 0.1574804999999999955 ) ;
#171 = EDGE_CURVE ( 'NONE', #307, #74, #109, .T. ) ;
#172 = ORIENTED_EDGE ( 'NONE', *, *, #61, .T. ) ;
#173 = VERTEX_POINT ( 'NONE', #31 ) ;
#174 = EDGE_CURVE ( 'NONE', #200, #126, #112, .T. ) ;
#175 = CIRCLE ( 'NONE', #202, 0.1062989999999999768 ) ;
#176 = ORIENTED_EDGE ( 'NONE', *, *, #124, .F. ) ;
#177 = ORIENTED_EDGE ( 'NONE', *, *, #342, .F. ) ;
#178 = ORIENTED_EDGE ( 'NONE', *, *, #82, .T. ) ;
#179 = PRODUCT_CONTEXT ( 'NONE', #157, 'mechanical' ) ;
#180 = AXIS2_PLACEMENT_3D ( 'NONE', #211, #233, #44 ) ;
#181 = EDGE_CURVE ( 'NONE', #126, #200, #41, .T. ) ;
#182 = DIRECTION ( 'NONE',  ( 1.000000000000000000, 0.0000000000000000000, 0.0000000000000000000 ) ) ;
#183 = DIRECTION ( 'NONE',  ( 1.000000000000000000, 0.0000000000000000000, 0.0000000000000000000 ) ) ;
#184 = FILL_AREA_STYLE_COLOUR ( '', #46 ) ;
#185 = CARTESIAN_POINT ( 'NONE',  ( -0.1574804999999999955, 0.0000000000000000000, 3.922008000000000827 ) ) ;
#186 = DIRECTION ( 'NONE',  ( 0.0000000000000000000, 0.0000000000000000000, 1.000000000000000000 ) ) ;
#187 = LINE ( 'NONE', #298, #329 ) ;
#188 = EDGE_CURVE ( 'NONE', #337, #74, #101, .T. ) ;
#189 = STYLED_ITEM ( 'NONE', ( #49 ), #56 ) ;
#190 = FACE_OUTER_BOUND ( 'NONE', #42, .T. ) ;
#191 = LINE ( 'NONE', #52, #134 ) ;
#192 = EDGE_CURVE ( 'NONE', #307, #126, #187, .T. ) ;
#193 = CARTESIAN_POINT ( 'NONE',  ( 0.1062989999999998103, 0.0000000000000000000, 1.574802999999999953 ) ) ;
#194 = DIMENSIONAL_EXPONENTS ( 1.000000000000000000, 0.0000000000000000000, 0.0000000000000000000, 0.0000000000000000000, 0.0000000000000000000, 0.0000000000000000000, 0.0000000000000000000 ) ;
#195 = MECHANICAL_DESIGN_GEOMETRIC_PRESENTATION_REPRESENTATION (  '', ( #189 ), #313 ) ;
#196 = CYLINDRICAL_SURFACE ( 'NONE', #125, 0.1062989999999999075 ) ;
#197 = DIRECTION ( 'NONE',  ( -0.0000000000000000000, -0.0000000000000000000, -1.000000000000000000 ) ) ;
#198 = CARTESIAN_POINT ( 'NONE',  ( 0.0000000000000000000, 0.0000000000000000000, 1.574802999999999953 ) ) ;
#199 = EDGE_CURVE ( 'NONE', #335, #73, #191, .T. ) ;
#200 = VERTEX_POINT ( 'NONE', #161 ) ;
#201 = AXIS2_PLACEMENT_3D ( 'NONE', #219, #323, #159 ) ;
#202 = AXIS2_PLACEMENT_3D ( 'NONE', #331, #224, #144 ) ;
#203 = ORIENTED_EDGE ( 'NONE', *, *, #210, .T. ) ;
#204 = ORIENTED_EDGE ( 'NONE', *, *, #181, .F. ) ;
#205 =( NAMED_UNIT ( * ) SI_UNIT ( $, .STERADIAN. ) SOLID_ANGLE_UNIT ( ) );
#206 = AXIS2_PLACEMENT_3D ( 'NONE', #322, #246, #183 ) ;
#207 = ORIENTED_EDGE ( 'NONE', *, *, #188, .T. ) ;
#208 = LINE ( 'NONE', #239, #53 ) ;
#209 = SHAPE_DEFINITION_REPRESENTATION ( #255, #302 ) ;
#210 = EDGE_CURVE ( 'NONE', #173, #335, #212, .T. ) ;
#211 = CARTESIAN_POINT ( 'NONE',  ( 0.0000000000000000000, 0.0000000000000000000, 0.0000000000000000000 ) ) ;
#212 = CIRCLE ( 'NONE', #96, 0.1424805000000004540 ) ;
#213 = CARTESIAN_POINT ( 'NONE',  ( 0.0000000000000000000, 9.642868896486256968E-18, 3.414809992080329023E-17 ) ) ;
#214 = DIRECTION ( 'NONE',  ( -0.0000000000000000000, -0.0000000000000000000, -1.000000000000000000 ) ) ;
#215 = APPLICATION_CONTEXT ( 'automotive_design' ) ;
#216 = CARTESIAN_POINT ( 'NONE',  ( 0.1062989999999999075, 1.301787301025643820E-17, 0.0000000000000000000 ) ) ;
#217 = FACE_OUTER_BOUND ( 'NONE', #21, .T. ) ;
#218 = VECTOR ( 'NONE', #281, 39.37007874015748143 ) ;
#219 = CARTESIAN_POINT ( 'NONE',  ( 0.0000000000000000000, 0.0000000000000000000, 3.922008000000000827 ) ) ;
#220 = LENGTH_MEASURE_WITH_UNIT ( LENGTH_MEASURE( 0.02539999999999999897 ), #65 );
#221 = DIRECTION ( 'NONE',  ( -0.0000000000000000000, -0.0000000000000000000, -1.000000000000000000 ) ) ;
#222 = FACE_OUTER_BOUND ( 'NONE', #102, .T. ) ;
#223 = AXIS2_PLACEMENT_3D ( 'NONE', #249, #93, #120 ) ;
#224 = DIRECTION ( 'NONE',  ( -0.0000000000000000000, -0.0000000000000000000, -1.000000000000000000 ) ) ;
#225 = FACE_OUTER_BOUND ( 'NONE', #147, .T. ) ;
#226 = ORIENTED_EDGE ( 'NONE', *, *, #199, .T. ) ;
#227 = ORIENTED_EDGE ( 'NONE', *, *, #324, .T. ) ;
#228 = AXIS2_PLACEMENT_3D ( 'NONE', #198, #251, #89 ) ;
#229 = AXIS2_PLACEMENT_3D ( 'NONE', #136, #214, #78 ) ;
#230 = ADVANCED_FACE ( 'NONE', ( #10 ), #36, .T. ) ;
#231 =( NAMED_UNIT ( * ) SI_UNIT ( $, .STERADIAN. ) SOLID_ANGLE_UNIT ( ) );
#232 = ORIENTED_EDGE ( 'NONE', *, *, #171, .F. ) ;
#233 = DIRECTION ( 'NONE',  ( 0.0000000000000000000, 0.0000000000000000000, 1.000000000000000000 ) ) ;
#234 = PRESENTATION_STYLE_ASSIGNMENT (( #99 ) ) ;
#235 = ORIENTED_EDGE ( 'NONE', *, *, #210, .F. ) ;
#236 = CLOSED_SHELL ( 'NONE', ( #154, #333, #148, #116, #338, #103, #113, #261, #75, #230, #308 ) ) ;
#237 = SURFACE_STYLE_USAGE ( .BOTH. , #316 ) ;
#238 = DIRECTION ( 'NONE',  ( -0.0000000000000000000, -0.0000000000000000000, -1.000000000000000000 ) ) ;
#239 = CARTESIAN_POINT ( 'NONE',  ( 0.1574804999999999955, 1.928579902531247412E-17, 3.937007999999999619 ) ) ;
#240 = DIRECTION ( 'NONE',  ( 0.0000000000000000000, 0.0000000000000000000, 1.000000000000000000 ) ) ;
#241 = VECTOR ( 'NONE', #245, 39.37007874015748143 ) ;
#242 = UNCERTAINTY_MEASURE_WITH_UNIT (LENGTH_MEASURE( 1.000000000000000082E-05 ), #97, 'distance_accuracy_value', 'NONE');
#243 = DIRECTION ( 'NONE',  ( -1.000000000000000000, 0.0000000000000000000, 0.0000000000000000000 ) ) ;
#244 = DIRECTION ( 'NONE',  ( 0.0000000000000000000, 0.0000000000000000000, -1.000000000000000000 ) ) ;
#245 = DIRECTION ( 'NONE',  ( -0.0000000000000000000, -0.0000000000000000000, -1.000000000000000000 ) ) ;
#246 = DIRECTION ( 'NONE',  ( 0.0000000000000000000, 0.0000000000000000000, 1.000000000000000000 ) ) ;
#247 = DIRECTION ( 'NONE',  ( 0.7071067811865563435, 8.659560562355041327E-17, -0.7071067811865386910 ) ) ;
#248 = PRODUCT_RELATED_PRODUCT_CATEGORY ( 'part', '', ( #283 ) ) ;
#249 = CARTESIAN_POINT ( 'NONE',  ( 0.0000000000000000000, 0.0000000000000000000, 1.574802999999999953 ) ) ;
#250 = DIRECTION ( 'NONE',  ( 1.000000000000000000, 1.224646799147353207E-16, -0.0000000000000000000 ) ) ;
#251 = DIRECTION ( 'NONE',  ( -0.0000000000000000000, -0.0000000000000000000, -1.000000000000000000 ) ) ;
#252 = DIRECTION ( 'NONE',  ( -1.000000000000000000, 0.0000000000000000000, 0.0000000000000000000 ) ) ;
#253 = DIRECTION ( 'NONE',  ( 0.0000000000000000000, 0.0000000000000000000, 1.000000000000000000 ) ) ;
#254 = ORIENTED_EDGE ( 'NONE', *, *, #88, .T. ) ;
#255 = PRODUCT_DEFINITION_SHAPE ( 'NONE', 'NONE',  #58 ) ;
#256 = ORIENTED_EDGE ( 'NONE', *, *, #18, .T. ) ;
#257 = AXIS2_PLACEMENT_3D ( 'NONE', #50, #83, #135 ) ;
#258 = LENGTH_MEASURE_WITH_UNIT ( LENGTH_MEASURE( 0.02539999999999999897 ), #67 );
#259 = EDGE_LOOP ( 'NONE', ( #260, #172, #14, #178 ) ) ;
#260 = ORIENTED_EDGE ( 'NONE', *, *, #286, .F. ) ;
#261 = ADVANCED_FACE ( 'NONE', ( #225 ), #16, .T. ) ;
#262 = DIRECTION ( 'NONE',  ( 1.000000000000000000, 0.0000000000000000000, 0.0000000000000000000 ) ) ;
#263 = MECHANICAL_DESIGN_GEOMETRIC_PRESENTATION_REPRESENTATION (  '', ( #119 ), #9 ) ;
#264 = LENGTH_MEASURE_WITH_UNIT ( LENGTH_MEASURE( 0.02539999999999999897 ), #315 );
#265 = PRODUCT_DEFINITION_CONTEXT ( 'detailed design', #215, 'design' ) ;
#266 = ORIENTED_EDGE ( 'NONE', *, *, #342, .T. ) ;
#267 = DIRECTION ( 'NONE',  ( 1.000000000000000000, 0.0000000000000000000, 0.0000000000000000000 ) ) ;
#268 = EDGE_CURVE ( 'NONE', #73, #200, #305, .T. ) ;
#269 =( NAMED_UNIT ( * ) SI_UNIT ( $, .STERADIAN. ) SOLID_ANGLE_UNIT ( ) );
#270 = CARTESIAN_POINT ( 'NONE',  ( 0.1062989999999999768, 1.301787301025644745E-17, 0.2736715358320045977 ) ) ;
#271 = AXIS2_PLACEMENT_3D ( 'NONE', #59, #197, #168 ) ;
#272 = DIRECTION ( 'NONE',  ( -1.000000000000000000, 0.0000000000000000000, 0.0000000000000000000 ) ) ;
#273 = DIRECTION ( 'NONE',  ( -0.0000000000000000000, -0.0000000000000000000, -1.000000000000000000 ) ) ;
#274 = CARTESIAN_POINT ( 'NONE',  ( 0.1574804999999999955, 1.928579902531247412E-17, 3.922008000000000827 ) ) ;
#275 = EDGE_CURVE ( 'NONE', #74, #319, #175, .T. ) ;
#276 = AXIS2_PLACEMENT_3D ( 'NONE', #80, #296, #182 ) ;
#277 = AXIS2_PLACEMENT_3D ( 'NONE', #62, #117, #146 ) ;
#278 = DIRECTION ( 'NONE',  ( 0.0000000000000000000, 0.0000000000000000000, -1.000000000000000000 ) ) ;
#279 = CARTESIAN_POINT ( 'NONE',  ( 0.0000000000000000000, 0.0000000000000000000, 0.0000000000000000000 ) ) ;
#280 = EDGE_CURVE ( 'NONE', #24, #307, #29, .T. ) ;
#281 = DIRECTION ( 'NONE',  ( -0.08634369942813729937, 1.057405351312094953E-17, 0.9962654092003110362 ) ) ;
#282 = CYLINDRICAL_SURFACE ( 'NONE', #271, 0.1574804999999999955 ) ;
#283 = PRODUCT ( 'Micro_SBMM-080-340X', 'Micro_SBMM-080-340X', '', ( #179 ) ) ;
#284 = CARTESIAN_POINT ( 'NONE',  ( 0.0000000000000000000, 0.0000000000000000000, 3.937007999999999619 ) ) ;
#285 = ORIENTED_EDGE ( 'NONE', *, *, #199, .F. ) ;
#286 = EDGE_CURVE ( 'NONE', #319, #45, #160, .T. ) ;
#287 = FILL_AREA_STYLE ('',( #311 ) ) ;
#288 = ORIENTED_EDGE ( 'NONE', *, *, #181, .T. ) ;
#289 = VECTOR ( 'NONE', #273, 39.37007874015748143 ) ;
#290 = ORIENTED_EDGE ( 'NONE', *, *, #192, .F. ) ;
#291 = ORIENTED_EDGE ( 'NONE', *, *, #88, .F. ) ;
#292 = ORIENTED_EDGE ( 'NONE', *, *, #68, .F. ) ;
#293 = AXIS2_PLACEMENT_3D ( 'NONE', #303, #250, #92 ) ;
#294 = CARTESIAN_POINT ( 'NONE',  ( 0.0000000000000000000, 0.0000000000000000000, 3.937007999999999619 ) ) ;
#295 = EDGE_CURVE ( 'NONE', #105, #337, #314, .T. ) ;
#296 = DIRECTION ( 'NONE',  ( 0.0000000000000000000, 0.0000000000000000000, -1.000000000000000000 ) ) ;
#297 = FACE_OUTER_BOUND ( 'NONE', #155, .T. ) ;
#298 = CARTESIAN_POINT ( 'NONE',  ( 0.1732285499999997869, 0.0000000000000000000, 2.347060801784821571 ) ) ;
#299 = DIRECTION ( 'NONE',  ( 1.000000000000000000, 0.0000000000000000000, -0.0000000000000000000 ) ) ;
#300 = FACE_OUTER_BOUND ( 'NONE', #69, .T. ) ;
#301 = CARTESIAN_POINT ( 'NONE',  ( 0.0000000000000000000, 0.0000000000000000000, 0.1574800000000000089 ) ) ;
#302 = ADVANCED_BREP_SHAPE_REPRESENTATION ( 'Micro_SBMM-080-340X', ( #56, #180 ), #77 ) ;
#303 = CARTESIAN_POINT ( 'NONE',  ( 0.0000000000000000000, 0.0000000000000000000, 0.1574800000000000089 ) ) ;
#304 = DIRECTION ( 'NONE',  ( 1.000000000000000000, 0.0000000000000000000, 0.0000000000000000000 ) ) ;
#305 = LINE ( 'NONE', #167, #153 ) ;
#306 = FACE_OUTER_BOUND ( 'NONE', #151, .T. ) ;
#307 = VERTEX_POINT ( 'NONE', #193 ) ;
#308 = ADVANCED_FACE ( 'NONE', ( #222 ), #196, .T. ) ;
#309 = EDGE_LOOP ( 'NONE', ( #121, #122, #340, #47, #98 ) ) ;
#310 = ORIENTED_EDGE ( 'NONE', *, *, #275, .T. ) ;
#311 = FILL_AREA_STYLE_COLOUR ( '', #33 ) ;
#312 = ORIENTED_EDGE ( 'NONE', *, *, #192, .T. ) ;
#313 =( GEOMETRIC_REPRESENTATION_CONTEXT ( 3 ) GLOBAL_UNCERTAINTY_ASSIGNED_CONTEXT ( ( #158 ) ) GLOBAL_UNIT_ASSIGNED_CONTEXT ( ( #131, #321, #269 ) ) REPRESENTATION_CONTEXT ( 'NONE', 'WORKASPACE' ) );
#314 = CIRCLE ( 'NONE', #277, 0.1062989999999999768 ) ;
#315 =( LENGTH_UNIT ( ) NAMED_UNIT ( * ) SI_UNIT ( $, .METRE. ) );
#316 = SURFACE_SIDE_STYLE ('',( #25 ) ) ;
#317 = CARTESIAN_POINT ( 'NONE',  ( 0.0000000000000000000, 0.0000000000000000000, 3.937007999999999619 ) ) ;
#318 = CIRCLE ( 'NONE', #15, 0.1574799999999999256 ) ;
#319 = VERTEX_POINT ( 'NONE', #60 ) ;
#320 = DIRECTION ( 'NONE',  ( 0.0000000000000000000, 0.0000000000000000000, 1.000000000000000000 ) ) ;
#321 =( NAMED_UNIT ( * ) PLANE_ANGLE_UNIT ( ) SI_UNIT ( $, .RADIAN. ) );
#322 = CARTESIAN_POINT ( 'NONE',  ( 0.0000000000000000000, 0.0000000000000000000, 2.165354000000000223 ) ) ;
#323 = DIRECTION ( 'NONE',  ( 0.0000000000000000000, 0.0000000000000000000, -1.000000000000000000 ) ) ;
#324 = EDGE_CURVE ( 'NONE', #307, #24, #86, .T. ) ;
#325 = AXIS2_PLACEMENT_3D ( 'NONE', #32, #240, #4 ) ;
#326 = DIRECTION ( 'NONE',  ( -1.000000000000000000, 0.0000000000000000000, 0.0000000000000000000 ) ) ;
#327 =( CONVERSION_BASED_UNIT ( 'INCH', #220 ) LENGTH_UNIT ( ) NAMED_UNIT ( #165 ) );
#328 = DIRECTION ( 'NONE',  ( 0.0000000000000000000, 1.000000000000000000, 0.0000000000000000000 ) ) ;
#329 = VECTOR ( 'NONE', #87, 39.37007874015748143 ) ;
#330 = FACE_OUTER_BOUND ( 'NONE', #339, .T. ) ;
#331 = CARTESIAN_POINT ( 'NONE',  ( 0.0000000000000000000, 0.0000000000000000000, 0.2736715358320045977 ) ) ;
#332 = DIRECTION ( 'NONE',  ( -1.000000000000000000, 0.0000000000000000000, 0.0000000000000000000 ) ) ;
#333 = ADVANCED_FACE ( 'NONE', ( #330 ), #13, .T. ) ;
#334 = AXIS2_PLACEMENT_3D ( 'NONE', #284, #278, #252 ) ;
#335 = VERTEX_POINT ( 'NONE', #94 ) ;
#336 = SURFACE_STYLE_FILL_AREA ( #287 ) ;
#337 = VERTEX_POINT ( 'NONE', #169 ) ;
#338 = ADVANCED_FACE ( 'NONE', ( #306 ), #282, .T. ) ;
#339 = EDGE_LOOP ( 'NONE', ( #207, #310, #152, #22 ) ) ;
#340 = ORIENTED_EDGE ( 'NONE', *, *, #188, .F. ) ;
#341 = PRODUCT_DEFINITION_FORMATION_WITH_SPECIFIED_SOURCE ( 'ANY', '', #283, .NOT_KNOWN. ) ;
#342 = EDGE_CURVE ( 'NONE', #24, #200, #90, .T. ) ;
#343 = ORIENTED_EDGE ( 'NONE', *, *, #68, .T. ) ;
#344 = DIRECTION ( 'NONE',  ( 0.0000000000000000000, 0.0000000000000000000, 1.000000000000000000 ) ) ;
#345 = PRESENTATION_LAYER_ASSIGNMENT (  '', '', ( #119 ) ) ;
ENDSEC;
END-ISO-10303-21;
