ISO-10303-21;
HEADER;
FILE_DESCRIPTION (( 'STEP AP214' ),
    '1' );
FILE_NAME ('59813.STEP',
    '2023-07-12T13:05:54',
    ( '' ),
    ( '' ),
    'SwSTEP 2.0',
    'SolidWorks 2023',
    '' );
FILE_SCHEMA (( 'AUTOMOTIVE_DESIGN' ));
ENDSEC;

DATA;
#1 =( NAMED_UNIT ( * ) PLANE_ANGLE_UNIT ( ) SI_UNIT ( $, .RADIAN. ) );
#2 = UNCERTAINTY_MEASURE_WITH_UNIT (LENGTH_MEASURE( 1.000000000000000082E-05 ), #89, 'distance_accuracy_value', 'NONE');
#3 = FILL_AREA_STYLE ('',( #256 ) ) ;
#4 = CIRCLE ( 'NONE', #253, 0.1874999999999999722 ) ;
#5 = DIMENSIONAL_EXPONENTS ( 1.000000000000000000, 0.000000000000000000, 0.000000000000000000, 0.000000000000000000, 0.000000000000000000, 0.000000000000000000, 0.000000000000000000 ) ;
#6 = ORIENTED_EDGE ( 'NONE', *, *, #156, .T. ) ;
#7 = CARTESIAN_POINT ( 'NONE',  ( 2.296212748401286493E-17, 0.1279626937545346732, -0.1874999999999999722 ) ) ;
#8 = SURFACE_STYLE_USAGE ( .BOTH. , #236 ) ;
#9 = CARTESIAN_POINT ( 'NONE',  ( 0.000000000000000000, 0.000000000000000000, 0.03500000000000000333 ) ) ;
#10 = LENGTH_MEASURE_WITH_UNIT ( LENGTH_MEASURE( 0.02539999999999999897 ), #82 );
#11 = CARTESIAN_POINT ( 'NONE',  ( 6.123233995736772199E-17, 2.500000000000000000, 0.000000000000000000 ) ) ;
#12 = VERTEX_POINT ( 'NONE', #53 ) ;
#13 = DIRECTION ( 'NONE',  ( 0.000000000000000000, 1.000000000000000000, 0.000000000000000000 ) ) ;
#14 = ADVANCED_FACE ( 'NONE', ( #91 ), #194, .T. ) ;
#15 = CARTESIAN_POINT ( 'NONE',  ( 0.000000000000000000, 0.000000000000000000, 0.03500000000000000333 ) ) ;
#16 = ADVANCED_BREP_SHAPE_REPRESENTATION ( '59813', ( #85, #183, #265 ), #177 ) ;
#17 = AXIS2_PLACEMENT_3D ( 'NONE', #199, #79, #298 ) ;
#18 = DIRECTION ( 'NONE',  ( -9.554239632590802510E-17, 1.000000000000000000, -0.000000000000000000 ) ) ;
#19 = DIRECTION ( 'NONE',  ( -0.000000000000000000, -1.000000000000000000, -0.000000000000000000 ) ) ;
#20 = FACE_OUTER_BOUND ( 'NONE', #283, .T. ) ;
#21 = LENGTH_MEASURE_WITH_UNIT ( LENGTH_MEASURE( 0.02539999999999999897 ), #292 );
#22 = AXIS2_PLACEMENT_3D ( 'NONE', #26, #54, #232 ) ;
#23 =( CONVERSION_BASED_UNIT ( 'INCH', #63 ) LENGTH_UNIT ( ) NAMED_UNIT ( #291 ) );
#24 = EDGE_CURVE ( 'NONE', #55, #297, #4, .T. ) ;
#25 = SURFACE_STYLE_USAGE ( .BOTH. , #27 ) ;
#26 = CARTESIAN_POINT ( 'NONE',  ( 0.000000000000000000, 0.000000000000000000, 0.000000000000000000 ) ) ;
#27 = SURFACE_SIDE_STYLE ('',( #138 ) ) ;
#28 = FACE_OUTER_BOUND ( 'NONE', #279, .T. ) ;
#29 = PLANE ( 'NONE',  #80 ) ;
#30 = CYLINDRICAL_SURFACE ( 'NONE', #32, 0.1874999999999998057 ) ;
#31 = ORIENTED_EDGE ( 'NONE', *, *, #117, .T. ) ;
#32 = AXIS2_PLACEMENT_3D ( 'NONE', #164, #214, #100 ) ;
#33 = SURFACE_STYLE_USAGE ( .BOTH. , #240 ) ;
#34 = UNCERTAINTY_MEASURE_WITH_UNIT (LENGTH_MEASURE( 1.000000000000000082E-05 ), #301, 'distance_accuracy_value', 'NONE');
#35 = ORIENTED_EDGE ( 'NONE', *, *, #200, .T. ) ;
#36 =( LENGTH_UNIT ( ) NAMED_UNIT ( * ) SI_UNIT ( $, .METRE. ) );
#37 = PRODUCT ( '59813', '59813', '', ( #233 ) ) ;
#38 = UNCERTAINTY_MEASURE_WITH_UNIT (LENGTH_MEASURE( 1.000000000000000082E-05 ), #75, 'distance_accuracy_value', 'NONE');
#39 =( GEOMETRIC_REPRESENTATION_CONTEXT ( 3 ) GLOBAL_UNCERTAINTY_ASSIGNED_CONTEXT ( ( #38 ) ) GLOBAL_UNIT_ASSIGNED_CONTEXT ( ( #75, #166, #159 ) ) REPRESENTATION_CONTEXT ( 'NONE', 'WORKASPACE' ) );
#40 = CARTESIAN_POINT ( 'NONE',  ( 2.878624683705112206E-16, 0.1279626937545346732, 0.000000000000000000 ) ) ;
#41 = DIRECTION ( 'NONE',  ( -9.554239632590802510E-17, 1.000000000000000000, -0.000000000000000000 ) ) ;
#42 = CARTESIAN_POINT ( 'NONE',  ( -0.1874999999999997502, 2.500000000000000000, 0.000000000000000000 ) ) ;
#43 = DIRECTION ( 'NONE',  ( 1.000000000000000000, 0.000000000000000000, 0.000000000000000000 ) ) ;
#44 = EDGE_CURVE ( 'NONE', #113, #175, #249, .T. ) ;
#45 =( GEOMETRIC_REPRESENTATION_CONTEXT ( 3 ) GLOBAL_UNCERTAINTY_ASSIGNED_CONTEXT ( ( #212 ) ) GLOBAL_UNIT_ASSIGNED_CONTEXT ( ( #23, #155, #132 ) ) REPRESENTATION_CONTEXT ( 'NONE', 'WORKASPACE' ) );
#46 = FACE_OUTER_BOUND ( 'NONE', #125, .T. ) ;
#47 = UNCERTAINTY_MEASURE_WITH_UNIT (LENGTH_MEASURE( 1.000000000000000082E-05 ), #70, 'distance_accuracy_value', 'NONE');
#48 = FILL_AREA_STYLE ('',( #161 ) ) ;
#49 = PRODUCT_DEFINITION ( 'UNKNOWN', '', #302, #151 ) ;
#50 = DIRECTION ( 'NONE',  ( 0.000000000000000000, 0.000000000000000000, -1.000000000000000000 ) ) ;
#51 = DIMENSIONAL_EXPONENTS ( 1.000000000000000000, 0.000000000000000000, 0.000000000000000000, 0.000000000000000000, 0.000000000000000000, 0.000000000000000000, 0.000000000000000000 ) ;
#52 = AXIS2_PLACEMENT_3D ( 'NONE', #293, #74, #262 ) ;
#53 = CARTESIAN_POINT ( 'NONE',  ( 1.362419564051430200E-17, 0.000000000000000000, -0.03500000000000000333 ) ) ;
#54 = DIRECTION ( 'NONE',  ( -0.000000000000000000, -1.000000000000000000, -0.000000000000000000 ) ) ;
#55 = VERTEX_POINT ( 'NONE', #140 ) ;
#56 = CARTESIAN_POINT ( 'NONE',  ( 2.878624683705112206E-16, 0.1279626937545346732, 0.000000000000000000 ) ) ;
#57 =( NAMED_UNIT ( * ) PLANE_ANGLE_UNIT ( ) SI_UNIT ( $, .RADIAN. ) );
#58 = UNCERTAINTY_MEASURE_WITH_UNIT (LENGTH_MEASURE( 1.000000000000000082E-05 ), #170, 'distance_accuracy_value', 'NONE');
#59 = DIRECTION ( 'NONE',  ( -9.554239632590802510E-17, 1.000000000000000000, 0.000000000000000000 ) ) ;
#60 = DIRECTION ( 'NONE',  ( 1.000000000000000000, 9.554239632590802510E-17, 0.000000000000000000 ) ) ;
#61 = ORIENTED_EDGE ( 'NONE', *, *, #203, .F. ) ;
#62 = APPLICATION_CONTEXT ( 'automotive_design' ) ;
#63 = LENGTH_MEASURE_WITH_UNIT ( LENGTH_MEASURE( 0.02539999999999999897 ), #36 );
#64 = STYLED_ITEM ( 'NONE', ( #154 ), #183 ) ;
#65 = CARTESIAN_POINT ( 'NONE',  ( 0.1874999999999999445, 0.1279626937545347010, 2.296212748401285260E-17 ) ) ;
#66 = SURFACE_STYLE_FILL_AREA ( #284 ) ;
#67 = LENGTH_MEASURE_WITH_UNIT ( LENGTH_MEASURE( 0.02539999999999999897 ), #290 );
#68 = LENGTH_MEASURE_WITH_UNIT ( LENGTH_MEASURE( 0.02539999999999999897 ), #193 );
#69 =( GEOMETRIC_REPRESENTATION_CONTEXT ( 3 ) GLOBAL_UNCERTAINTY_ASSIGNED_CONTEXT ( ( #58 ) ) GLOBAL_UNIT_ASSIGNED_CONTEXT ( ( #170, #57, #243 ) ) REPRESENTATION_CONTEXT ( 'NONE', 'WORKASPACE' ) );
#70 =( CONVERSION_BASED_UNIT ( 'INCH', #67 ) LENGTH_UNIT ( ) NAMED_UNIT ( #264 ) );
#71 = ADVANCED_FACE ( 'NONE', ( #28 ), #29, .F. ) ;
#72 = ORIENTED_EDGE ( 'NONE', *, *, #44, .F. ) ;
#73 = CIRCLE ( 'NONE', #17, 0.1874999999999999722 ) ;
#74 = DIRECTION ( 'NONE',  ( -0.000000000000000000, -1.000000000000000000, -0.000000000000000000 ) ) ;
#75 =( CONVERSION_BASED_UNIT ( 'INCH', #21 ) LENGTH_UNIT ( ) NAMED_UNIT ( #165 ) );
#76 = DIRECTION ( 'NONE',  ( -9.554239632590802510E-17, 1.000000000000000000, -0.000000000000000000 ) ) ;
#77 = ORIENTED_EDGE ( 'NONE', *, *, #217, .T. ) ;
#78 = EDGE_CURVE ( 'NONE', #86, #55, #107, .T. ) ;
#79 = DIRECTION ( 'NONE',  ( -0.000000000000000000, -1.000000000000000000, -0.000000000000000000 ) ) ;
#80 = AXIS2_PLACEMENT_3D ( 'NONE', #300, #59, #196 ) ;
#81 = FILL_AREA_STYLE_COLOUR ( '', #141 ) ;
#82 =( LENGTH_UNIT ( ) NAMED_UNIT ( * ) SI_UNIT ( $, .METRE. ) );
#83 = PRESENTATION_STYLE_ASSIGNMENT (( #109 ) ) ;
#84 = CYLINDRICAL_SURFACE ( 'NONE', #268, 0.1874999999999998057 ) ;
#85 = MANIFOLD_SOLID_BREP ( 'Revolve - Cutting Edge', #90 ) ;
#86 = VERTEX_POINT ( 'NONE', #15 ) ;
#87 = DIRECTION ( 'NONE',  ( 0.000000000000000000, -0.000000000000000000, 1.000000000000000000 ) ) ;
#88 = DIRECTION ( 'NONE',  ( -1.000000000000000000, -9.106159978880893419E-17, 0.000000000000000000 ) ) ;
#89 =( CONVERSION_BASED_UNIT ( 'INCH', #68 ) LENGTH_UNIT ( ) NAMED_UNIT ( #5 ) );
#90 = CLOSED_SHELL ( 'NONE', ( #220, #127, #275, #14 ) ) ;
#91 = FACE_OUTER_BOUND ( 'NONE', #246, .T. ) ;
#92 = AXIS2_PLACEMENT_3D ( 'NONE', #56, #76, #296 ) ;
#93 =( NAMED_UNIT ( * ) SI_UNIT ( $, .STERADIAN. ) SOLID_ANGLE_UNIT ( ) );
#94 = ORIENTED_EDGE ( 'NONE', *, *, #299, .T. ) ;
#95 = CARTESIAN_POINT ( 'NONE',  ( 0.1874999999999999722, 2.500000000000000000, 0.000000000000000000 ) ) ;
#96 = DIRECTION ( 'NONE',  ( 0.000000000000000000, 1.000000000000000000, 0.000000000000000000 ) ) ;
#97 = VECTOR ( 'NONE', #229, 39.37007874015748143 ) ;
#98 = SURFACE_SIDE_STYLE ('',( #145 ) ) ;
#99 = FACE_OUTER_BOUND ( 'NONE', #123, .T. ) ;
#100 = DIRECTION ( 'NONE',  ( -1.000000000000000000, 0.000000000000000000, 0.000000000000000000 ) ) ;
#101 = ORIENTED_EDGE ( 'NONE', *, *, #211, .T. ) ;
#102 = MECHANICAL_DESIGN_GEOMETRIC_PRESENTATION_REPRESENTATION (  '', ( #64 ), #45 ) ;
#103 =( NAMED_UNIT ( * ) PLANE_ANGLE_UNIT ( ) SI_UNIT ( $, .RADIAN. ) );
#104 = ADVANCED_FACE ( 'NONE', ( #150 ), #84, .T. ) ;
#105 = MECHANICAL_DESIGN_GEOMETRIC_PRESENTATION_REPRESENTATION (  '', ( #288 ), #307 ) ;
#106 =( LENGTH_UNIT ( ) NAMED_UNIT ( * ) SI_UNIT ( $, .METRE. ) );
#107 = LINE ( 'NONE', #9, #280 ) ;
#108 = EDGE_LOOP ( 'NONE', ( #168, #6, #309, #72 ) ) ;
#109 = SURFACE_STYLE_USAGE ( .BOTH. , #172 ) ;
#110 = ORIENTED_EDGE ( 'NONE', *, *, #281, .F. ) ;
#111 = ORIENTED_EDGE ( 'NONE', *, *, #44, .T. ) ;
#112 = DIRECTION ( 'NONE',  ( -9.554239632590802510E-17, 1.000000000000000000, -0.000000000000000000 ) ) ;
#113 = VERTEX_POINT ( 'NONE', #195 ) ;
#114 = LINE ( 'NONE', #278, #198 ) ;
#115 = COLOUR_RGB ( '',1.000000000000000000, 0.000000000000000000, 0.000000000000000000 ) ;
#116 = ORIENTED_EDGE ( 'NONE', *, *, #78, .T. ) ;
#117 = EDGE_CURVE ( 'NONE', #297, #55, #73, .T. ) ;
#118 = UNCERTAINTY_MEASURE_WITH_UNIT (LENGTH_MEASURE( 1.000000000000000082E-05 ), #124, 'distance_accuracy_value', 'NONE');
#119 =( NAMED_UNIT ( * ) SI_UNIT ( $, .STERADIAN. ) SOLID_ANGLE_UNIT ( ) );
#120 =( GEOMETRIC_REPRESENTATION_CONTEXT ( 3 ) GLOBAL_UNCERTAINTY_ASSIGNED_CONTEXT ( ( #34 ) ) GLOBAL_UNIT_ASSIGNED_CONTEXT ( ( #301, #103, #131 ) ) REPRESENTATION_CONTEXT ( 'NONE', 'WORKASPACE' ) );
#121 =( LENGTH_UNIT ( ) NAMED_UNIT ( * ) SI_UNIT ( $, .METRE. ) );
#122 =( NAMED_UNIT ( * ) PLANE_ANGLE_UNIT ( ) SI_UNIT ( $, .RADIAN. ) );
#123 = EDGE_LOOP ( 'NONE', ( #110, #190, #31, #176 ) ) ;
#124 =( CONVERSION_BASED_UNIT ( 'INCH', #258 ) LENGTH_UNIT ( ) NAMED_UNIT ( #51 ) );
#125 = EDGE_LOOP ( 'NONE', ( #188, #276, #116, #224 ) ) ;
#126 = CIRCLE ( 'NONE', #306, 0.1874999999999999167 ) ;
#127 = ADVANCED_FACE ( 'NONE', ( #266 ), #269, .T. ) ;
#128 = PRESENTATION_STYLE_ASSIGNMENT (( #33 ) ) ;
#129 = CLOSED_SHELL ( 'NONE', ( #104, #71, #248, #144 ) ) ;
#130 = AXIS2_PLACEMENT_3D ( 'NONE', #40, #18, #88 ) ;
#131 =( NAMED_UNIT ( * ) SI_UNIT ( $, .STERADIAN. ) SOLID_ANGLE_UNIT ( ) );
#132 =( NAMED_UNIT ( * ) SI_UNIT ( $, .STERADIAN. ) SOLID_ANGLE_UNIT ( ) );
#133 = COLOUR_RGB ( '',0.7921568627450980005, 0.8196078431372548767, 0.9333333333333333481 ) ;
#134 = PLANE ( 'NONE',  #185 ) ;
#135 = DIRECTION ( 'NONE',  ( -1.000000000000000000, 0.000000000000000000, 0.000000000000000000 ) ) ;
#136 = APPLICATION_PROTOCOL_DEFINITION ( 'draft international standard', 'automotive_design', 1998, #62 ) ;
#137 = VERTEX_POINT ( 'NONE', #227 ) ;
#138 = SURFACE_STYLE_FILL_AREA ( #48 ) ;
#139 = APPLICATION_PROTOCOL_DEFINITION ( 'draft international standard', 'automotive_design', 1998, #251 ) ;
#140 = CARTESIAN_POINT ( 'NONE',  ( 0.000000000000000000, 0.1279626937545346732, 0.1874999999999999722 ) ) ;
#141 = COLOUR_RGB ( '',1.000000000000000000, 0.000000000000000000, 0.000000000000000000 ) ;
#142 =( NAMED_UNIT ( * ) SI_UNIT ( $, .STERADIAN. ) SOLID_ANGLE_UNIT ( ) );
#143 = CARTESIAN_POINT ( 'NONE',  ( 0.000000000000000000, 0.1279626937545346732, 0.000000000000000000 ) ) ;
#144 = ADVANCED_FACE ( 'NONE', ( #20 ), #134, .F. ) ;
#145 = SURFACE_STYLE_FILL_AREA ( #3 ) ;
#146 = DIRECTION ( 'NONE',  ( -1.000000000000000000, 0.000000000000000000, 0.000000000000000000 ) ) ;
#147 = PRESENTATION_LAYER_ASSIGNMENT (  '', '', ( #288 ) ) ;
#148 = EDGE_CURVE ( 'NONE', #12, #297, #114, .T. ) ;
#149 = FILL_AREA_STYLE ('',( #81 ) ) ;
#150 = FACE_OUTER_BOUND ( 'NONE', #108, .T. ) ;
#151 = PRODUCT_DEFINITION_CONTEXT ( 'detailed design', #251, 'design' ) ;
#152 = AXIS2_PLACEMENT_3D ( 'NONE', #223, #13, #87 ) ;
#153 = DIRECTION ( 'NONE',  ( 0.000000000000000000, 0.6427876096865379196, 0.7660444431189792347 ) ) ;
#154 = PRESENTATION_STYLE_ASSIGNMENT (( #160 ) ) ;
#155 =( NAMED_UNIT ( * ) PLANE_ANGLE_UNIT ( ) SI_UNIT ( $, .RADIAN. ) );
#156 = EDGE_CURVE ( 'NONE', #205, #137, #282, .T. ) ;
#157 = CARTESIAN_POINT ( 'NONE',  ( 6.123233995736772199E-17, 2.500000000000000000, 0.000000000000000000 ) ) ;
#158 = CARTESIAN_POINT ( 'NONE',  ( 0.000000000000000000, 0.000000000000000000, 0.000000000000000000 ) ) ;
#159 =( NAMED_UNIT ( * ) SI_UNIT ( $, .STERADIAN. ) SOLID_ANGLE_UNIT ( ) );
#160 = SURFACE_STYLE_USAGE ( .BOTH. , #228 ) ;
#161 = FILL_AREA_STYLE_COLOUR ( '', #115 ) ;
#162 = COLOUR_RGB ( '',1.000000000000000000, 0.000000000000000000, 0.000000000000000000 ) ;
#163 = PRESENTATION_STYLE_ASSIGNMENT (( #25 ) ) ;
#164 = CARTESIAN_POINT ( 'NONE',  ( 6.123233995736772199E-17, 2.500000000000000000, 0.000000000000000000 ) ) ;
#165 = DIMENSIONAL_EXPONENTS ( 1.000000000000000000, 0.000000000000000000, 0.000000000000000000, 0.000000000000000000, 0.000000000000000000, 0.000000000000000000, 0.000000000000000000 ) ;
#166 =( NAMED_UNIT ( * ) PLANE_ANGLE_UNIT ( ) SI_UNIT ( $, .RADIAN. ) );
#167 = CIRCLE ( 'NONE', #22, 0.03500000000000000333 ) ;
#168 = ORIENTED_EDGE ( 'NONE', *, *, #203, .T. ) ;
#169 = PRESENTATION_LAYER_ASSIGNMENT (  '', '', ( #64 ) ) ;
#170 =( CONVERSION_BASED_UNIT ( 'INCH', #10 ) LENGTH_UNIT ( ) NAMED_UNIT ( #237 ) );
#171 = CONICAL_SURFACE ( 'NONE', #216, 0.03500000000000000333, 0.8726646259971666542 ) ;
#172 = SURFACE_SIDE_STYLE ('',( #201 ) ) ;
#173 = EDGE_LOOP ( 'NONE', ( #213, #94, #111, #295 ) ) ;
#174 = DIRECTION ( 'NONE',  ( -9.554239632590802510E-17, 1.000000000000000000, -0.000000000000000000 ) ) ;
#175 = VERTEX_POINT ( 'NONE', #277 ) ;
#176 = ORIENTED_EDGE ( 'NONE', *, *, #78, .F. ) ;
#177 =( GEOMETRIC_REPRESENTATION_CONTEXT ( 3 ) GLOBAL_UNCERTAINTY_ASSIGNED_CONTEXT ( ( #2 ) ) GLOBAL_UNIT_ASSIGNED_CONTEXT ( ( #89, #207, #93 ) ) REPRESENTATION_CONTEXT ( 'NONE', 'WORKASPACE' ) );
#178 = COLOUR_RGB ( '',0.7921568627450980005, 0.8196078431372548767, 0.9333333333333333481 ) ;
#179 = AXIS2_PLACEMENT_3D ( 'NONE', #286, #189, #234 ) ;
#180 = DIRECTION ( 'NONE',  ( 0.000000000000000000, 0.000000000000000000, -1.000000000000000000 ) ) ;
#181 = DIRECTION ( 'NONE',  ( 0.000000000000000000, -1.000000000000000000, -0.000000000000000000 ) ) ;
#182 = FILL_AREA_STYLE_COLOUR ( '', #133 ) ;
#183 = MANIFOLD_SOLID_BREP ( 'Revolve - Tool Body (Tipped Off)', #129 ) ;
#184 = DIRECTION ( 'NONE',  ( 0.000000000000000000, 0.000000000000000000, 1.000000000000000000 ) ) ;
#185 = AXIS2_PLACEMENT_3D ( 'NONE', #95, #308, #60 ) ;
#186 = SURFACE_STYLE_USAGE ( .BOTH. , #98 ) ;
#187 = DIMENSIONAL_EXPONENTS ( 1.000000000000000000, 0.000000000000000000, 0.000000000000000000, 0.000000000000000000, 0.000000000000000000, 0.000000000000000000, 0.000000000000000000 ) ;
#188 = ORIENTED_EDGE ( 'NONE', *, *, #148, .F. ) ;
#189 = DIRECTION ( 'NONE',  ( 0.000000000000000000, 1.000000000000000000, 0.000000000000000000 ) ) ;
#190 = ORIENTED_EDGE ( 'NONE', *, *, #148, .T. ) ;
#191 = MECHANICAL_DESIGN_GEOMETRIC_PRESENTATION_REPRESENTATION (  '', ( #225 ), #39 ) ;
#192 = PRESENTATION_LAYER_ASSIGNMENT (  '', '', ( #202 ) ) ;
#193 =( LENGTH_UNIT ( ) NAMED_UNIT ( * ) SI_UNIT ( $, .METRE. ) );
#194 = PLANE ( 'NONE',  #273 ) ;
#195 = CARTESIAN_POINT ( 'NONE',  ( -0.1874999999999993894, 0.1279626937545346732, 0.000000000000000000 ) ) ;
#196 = DIRECTION ( 'NONE',  ( -1.000000000000000000, -9.554239632590802510E-17, 0.000000000000000000 ) ) ;
#197 = PRESENTATION_LAYER_ASSIGNMENT (  '', '', ( #226 ) ) ;
#198 = VECTOR ( 'NONE', #250, 39.37007874015748143 ) ;
#199 = CARTESIAN_POINT ( 'NONE',  ( 0.000000000000000000, 0.1279626937545346732, 0.000000000000000000 ) ) ;
#200 = EDGE_CURVE ( 'NONE', #137, #175, #210, .T. ) ;
#201 = SURFACE_STYLE_FILL_AREA ( #219 ) ;
#202 = STYLED_ITEM ( 'NONE', ( #163 ), #220 ) ;
#203 = EDGE_CURVE ( 'NONE', #113, #205, #259, .T. ) ;
#204 = DIRECTION ( 'NONE',  ( -1.000000000000000000, 0.000000000000000000, 0.000000000000000000 ) ) ;
#205 = VERTEX_POINT ( 'NONE', #65 ) ;
#206 = COLOUR_RGB ( '',1.000000000000000000, 0.000000000000000000, 0.000000000000000000 ) ;
#207 =( NAMED_UNIT ( * ) PLANE_ANGLE_UNIT ( ) SI_UNIT ( $, .RADIAN. ) );
#208 = FILL_AREA_STYLE_COLOUR ( '', #206 ) ;
#209 = CARTESIAN_POINT ( 'NONE',  ( 6.123233995736772199E-17, 2.500000000000000000, 0.000000000000000000 ) ) ;
#210 = CIRCLE ( 'NONE', #221, 0.1874999999999999167 ) ;
#211 = EDGE_CURVE ( 'NONE', #175, #137, #126, .T. ) ;
#212 = UNCERTAINTY_MEASURE_WITH_UNIT (LENGTH_MEASURE( 1.000000000000000082E-05 ), #23, 'distance_accuracy_value', 'NONE');
#213 = ORIENTED_EDGE ( 'NONE', *, *, #156, .F. ) ;
#214 = DIRECTION ( 'NONE',  ( -9.554239632590802510E-17, 1.000000000000000000, -0.000000000000000000 ) ) ;
#215 = EDGE_LOOP ( 'NONE', ( #272, #305 ) ) ;
#216 = AXIS2_PLACEMENT_3D ( 'NONE', #255, #96, #184 ) ;
#217 = EDGE_CURVE ( 'NONE', #86, #12, #167, .T. ) ;
#218 = LENGTH_MEASURE_WITH_UNIT ( LENGTH_MEASURE( 0.02539999999999999897 ), #106 );
#219 = FILL_AREA_STYLE ('',( #271 ) ) ;
#220 = ADVANCED_FACE ( 'NONE', ( #99 ), #171, .T. ) ;
#221 = AXIS2_PLACEMENT_3D ( 'NONE', #209, #112, #204 ) ;
#222 = CIRCLE ( 'NONE', #92, 0.1874999999999996669 ) ;
#223 = CARTESIAN_POINT ( 'NONE',  ( 0.000000000000000000, 0.1279626937545346732, 0.000000000000000000 ) ) ;
#224 = ORIENTED_EDGE ( 'NONE', *, *, #24, .T. ) ;
#225 = STYLED_ITEM ( 'NONE', ( #263 ), #14 ) ;
#226 = STYLED_ITEM ( 'NONE', ( #83 ), #85 ) ;
#227 = CARTESIAN_POINT ( 'NONE',  ( 0.1874999999999999722, 2.500000000000000000, 2.296212748401286185E-17 ) ) ;
#228 = SURFACE_SIDE_STYLE ('',( #66 ) ) ;
#229 = DIRECTION ( 'NONE',  ( -9.554239632590802510E-17, 1.000000000000000000, -0.000000000000000000 ) ) ;
#230 = CARTESIAN_POINT ( 'NONE',  ( 0.1874999999999998890, 2.500000000000000000, 2.296212748401284952E-17 ) ) ;
#231 =( GEOMETRIC_REPRESENTATION_CONTEXT ( 3 ) GLOBAL_UNCERTAINTY_ASSIGNED_CONTEXT ( ( #47 ) ) GLOBAL_UNIT_ASSIGNED_CONTEXT ( ( #70, #1, #119 ) ) REPRESENTATION_CONTEXT ( 'NONE', 'WORKASPACE' ) );
#232 = DIRECTION ( 'NONE',  ( 0.000000000000000000, 0.000000000000000000, -1.000000000000000000 ) ) ;
#233 = PRODUCT_CONTEXT ( 'NONE', #62, 'mechanical' ) ;
#234 = DIRECTION ( 'NONE',  ( 0.000000000000000000, 0.000000000000000000, 1.000000000000000000 ) ) ;
#235 = MECHANICAL_DESIGN_GEOMETRIC_PRESENTATION_REPRESENTATION (  '', ( #226 ), #120 ) ;
#236 = SURFACE_SIDE_STYLE ('',( #285 ) ) ;
#237 = DIMENSIONAL_EXPONENTS ( 1.000000000000000000, 0.000000000000000000, 0.000000000000000000, 0.000000000000000000, 0.000000000000000000, 0.000000000000000000, 0.000000000000000000 ) ;
#238 = CIRCLE ( 'NONE', #52, 0.03500000000000000333 ) ;
#239 = FILL_AREA_STYLE ('',( #208 ) ) ;
#240 = SURFACE_SIDE_STYLE ('',( #242 ) ) ;
#241 = VECTOR ( 'NONE', #174, 39.37007874015748143 ) ;
#242 = SURFACE_STYLE_FILL_AREA ( #149 ) ;
#243 =( NAMED_UNIT ( * ) SI_UNIT ( $, .STERADIAN. ) SOLID_ANGLE_UNIT ( ) );
#244 = MECHANICAL_DESIGN_GEOMETRIC_PRESENTATION_REPRESENTATION (  '', ( #294 ), #69 ) ;
#245 = PRODUCT_DEFINITION_SHAPE ( 'NONE', 'NONE',  #49 ) ;
#246 = EDGE_LOOP ( 'NONE', ( #77, #257 ) ) ;
#247 = PRESENTATION_LAYER_ASSIGNMENT (  '', '', ( #294 ) ) ;
#248 = ADVANCED_FACE ( 'NONE', ( #252 ), #30, .T. ) ;
#249 = LINE ( 'NONE', #42, #97 ) ;
#250 = DIRECTION ( 'NONE',  ( 9.381338752702745572E-17, 0.6427876096865379196, -0.7660444431189792347 ) ) ;
#251 = APPLICATION_CONTEXT ( 'automotive_design' ) ;
#252 = FACE_OUTER_BOUND ( 'NONE', #173, .T. ) ;
#253 = AXIS2_PLACEMENT_3D ( 'NONE', #143, #19, #180 ) ;
#254 = SHAPE_DEFINITION_REPRESENTATION ( #245, #16 ) ;
#255 = CARTESIAN_POINT ( 'NONE',  ( 0.000000000000000000, 0.000000000000000000, 0.000000000000000000 ) ) ;
#256 = FILL_AREA_STYLE_COLOUR ( '', #162 ) ;
#257 = ORIENTED_EDGE ( 'NONE', *, *, #281, .T. ) ;
#258 = LENGTH_MEASURE_WITH_UNIT ( LENGTH_MEASURE( 0.02539999999999999897 ), #121 );
#259 = CIRCLE ( 'NONE', #130, 0.1874999999999996669 ) ;
#260 = CARTESIAN_POINT ( 'NONE',  ( 0.000000000000000000, 0.000000000000000000, 0.000000000000000000 ) ) ;
#261 = CONICAL_SURFACE ( 'NONE', #179, 0.03500000000000000333, 0.8726646259971666542 ) ;
#262 = DIRECTION ( 'NONE',  ( 0.000000000000000000, 0.000000000000000000, -1.000000000000000000 ) ) ;
#263 = PRESENTATION_STYLE_ASSIGNMENT (( #8 ) ) ;
#264 = DIMENSIONAL_EXPONENTS ( 1.000000000000000000, 0.000000000000000000, 0.000000000000000000, 0.000000000000000000, 0.000000000000000000, 0.000000000000000000, 0.000000000000000000 ) ;
#265 = AXIS2_PLACEMENT_3D ( 'NONE', #158, #287, #43 ) ;
#266 = FACE_OUTER_BOUND ( 'NONE', #215, .T. ) ;
#267 = PRESENTATION_LAYER_ASSIGNMENT (  '', '', ( #225 ) ) ;
#268 = AXIS2_PLACEMENT_3D ( 'NONE', #11, #274, #146 ) ;
#269 = PLANE ( 'NONE',  #152 ) ;
#270 = ORIENTED_EDGE ( 'NONE', *, *, #299, .F. ) ;
#271 = FILL_AREA_STYLE_COLOUR ( '', #178 ) ;
#272 = ORIENTED_EDGE ( 'NONE', *, *, #24, .F. ) ;
#273 = AXIS2_PLACEMENT_3D ( 'NONE', #260, #181, #50 ) ;
#274 = DIRECTION ( 'NONE',  ( -9.554239632590802510E-17, 1.000000000000000000, -0.000000000000000000 ) ) ;
#275 = ADVANCED_FACE ( 'NONE', ( #46 ), #261, .T. ) ;
#276 = ORIENTED_EDGE ( 'NONE', *, *, #217, .F. ) ;
#277 = CARTESIAN_POINT ( 'NONE',  ( -0.1874999999999998335, 2.500000000000000000, 0.000000000000000000 ) ) ;
#278 = CARTESIAN_POINT ( 'NONE',  ( 4.286263797015735979E-18, 0.000000000000000000, -0.03500000000000000333 ) ) ;
#279 = EDGE_LOOP ( 'NONE', ( #61, #270 ) ) ;
#280 = VECTOR ( 'NONE', #153, 39.37007874015748143 ) ;
#281 = EDGE_CURVE ( 'NONE', #12, #86, #238, .T. ) ;
#282 = LINE ( 'NONE', #230, #241 ) ;
#283 = EDGE_LOOP ( 'NONE', ( #101, #35 ) ) ;
#284 = FILL_AREA_STYLE ('',( #182 ) ) ;
#285 = SURFACE_STYLE_FILL_AREA ( #239 ) ;
#286 = CARTESIAN_POINT ( 'NONE',  ( 0.000000000000000000, 0.000000000000000000, 0.000000000000000000 ) ) ;
#287 = DIRECTION ( 'NONE',  ( 0.000000000000000000, 0.000000000000000000, 1.000000000000000000 ) ) ;
#288 = STYLED_ITEM ( 'NONE', ( #289 ), #275 ) ;
#289 = PRESENTATION_STYLE_ASSIGNMENT (( #186 ) ) ;
#290 =( LENGTH_UNIT ( ) NAMED_UNIT ( * ) SI_UNIT ( $, .METRE. ) );
#291 = DIMENSIONAL_EXPONENTS ( 1.000000000000000000, 0.000000000000000000, 0.000000000000000000, 0.000000000000000000, 0.000000000000000000, 0.000000000000000000, 0.000000000000000000 ) ;
#292 =( LENGTH_UNIT ( ) NAMED_UNIT ( * ) SI_UNIT ( $, .METRE. ) );
#293 = CARTESIAN_POINT ( 'NONE',  ( 0.000000000000000000, 0.000000000000000000, 0.000000000000000000 ) ) ;
#294 = STYLED_ITEM ( 'NONE', ( #128 ), #127 ) ;
#295 = ORIENTED_EDGE ( 'NONE', *, *, #200, .F. ) ;
#296 = DIRECTION ( 'NONE',  ( -1.000000000000000000, -9.106159978880893419E-17, 0.000000000000000000 ) ) ;
#297 = VERTEX_POINT ( 'NONE', #7 ) ;
#298 = DIRECTION ( 'NONE',  ( 0.000000000000000000, 0.000000000000000000, -1.000000000000000000 ) ) ;
#299 = EDGE_CURVE ( 'NONE', #205, #113, #222, .T. ) ;
#300 = CARTESIAN_POINT ( 'NONE',  ( 2.878624683705112206E-16, 0.1279626937545346732, 0.000000000000000000 ) ) ;
#301 =( CONVERSION_BASED_UNIT ( 'INCH', #218 ) LENGTH_UNIT ( ) NAMED_UNIT ( #187 ) );
#302 = PRODUCT_DEFINITION_FORMATION_WITH_SPECIFIED_SOURCE ( 'ANY', '', #37, .NOT_KNOWN. ) ;
#303 = MECHANICAL_DESIGN_GEOMETRIC_PRESENTATION_REPRESENTATION (  '', ( #202 ), #231 ) ;
#304 = PRODUCT_RELATED_PRODUCT_CATEGORY ( 'part', '', ( #37 ) ) ;
#305 = ORIENTED_EDGE ( 'NONE', *, *, #117, .F. ) ;
#306 = AXIS2_PLACEMENT_3D ( 'NONE', #157, #41, #135 ) ;
#307 =( GEOMETRIC_REPRESENTATION_CONTEXT ( 3 ) GLOBAL_UNCERTAINTY_ASSIGNED_CONTEXT ( ( #118 ) ) GLOBAL_UNIT_ASSIGNED_CONTEXT ( ( #124, #122, #142 ) ) REPRESENTATION_CONTEXT ( 'NONE', 'WORKASPACE' ) );
#308 = DIRECTION ( 'NONE',  ( 9.554239632590802510E-17, -1.000000000000000000, 0.000000000000000000 ) ) ;
#309 = ORIENTED_EDGE ( 'NONE', *, *, #211, .F. ) ;
ENDSEC;
END-ISO-10303-21;
