ISO-10303-21;
HEADER;
FILE_DESCRIPTION (( 'STEP AP214' ),
    '1' );
FILE_NAME ('Micro_AEMM-040-2X.STEP',
    '2022-03-15T14:25:11',
    ( '' ),
    ( '' ),
    'SwSTEP 2.0',
    'SolidWorks 2022',
    '' );
FILE_SCHEMA (( 'AUTOMOTIVE_DESIGN' ));
ENDSEC;

DATA;
#1 = EDGE_CURVE ( 'NONE', #270, #182, #18, .T. ) ;
#2 = CONICAL_SURFACE ( 'NONE', #257, 0.07866125999999999674, 0.1745329251994338915 ) ;
#3 = DIRECTION ( 'NONE',  ( -1.224646799147353207E-16, -0.000000000000000000, -1.000000000000000000 ) ) ;
#4 = DIRECTION ( 'NONE',  ( -1.224646799147353207E-16, -0.000000000000000000, -1.000000000000000000 ) ) ;
#5 = EDGE_CURVE ( 'NONE', #93, #249, #228, .T. ) ;
#6 = DIRECTION ( 'NONE',  ( 1.000000000000000000, 0.000000000000000000, 0.000000000000000000 ) ) ;
#7 =( LENGTH_UNIT ( ) NAMED_UNIT ( * ) SI_UNIT ( $, .METRE. ) );
#8 = DIRECTION ( 'NONE',  ( 1.000000000000000000, 0.000000000000000000, 0.000000000000000000 ) ) ;
#9 = DIRECTION ( 'NONE',  ( 0.000000000000000000, 0.000000000000000000, 1.000000000000000000 ) ) ;
#10 = AXIS2_PLACEMENT_3D ( 'NONE', #248, #265, #43 ) ;
#11 = FILL_AREA_STYLE_COLOUR ( '', #145 ) ;
#12 = LINE ( 'NONE', #245, #256 ) ;
#13 = EDGE_LOOP ( 'NONE', ( #218, #130, #42, #112 ) ) ;
#14 = EDGE_CURVE ( 'NONE', #219, #46, #25, .T. ) ;
#15 = LINE ( 'NONE', #66, #113 ) ;
#16 = CARTESIAN_POINT ( 'NONE',  ( 0.07866125999999999674, 9.633226027589770864E-18, 0.000000000000000000 ) ) ;
#17 = ORIENTED_EDGE ( 'NONE', *, *, #275, .F. ) ;
#18 = LINE ( 'NONE', #204, #118 ) ;
#19 = AXIS2_PLACEMENT_3D ( 'NONE', #34, #177, #263 ) ;
#20 = ORIENTED_EDGE ( 'NONE', *, *, #14, .T. ) ;
#21 = ORIENTED_EDGE ( 'NONE', *, *, #5, .T. ) ;
#22 = DIRECTION ( 'NONE',  ( 0.000000000000000000, 0.000000000000000000, -1.000000000000000000 ) ) ;
#23 = PRODUCT_DEFINITION ( 'UNKNOWN', '', #154, #124 ) ;
#24 = AXIS2_PLACEMENT_3D ( 'NONE', #144, #3, #170 ) ;
#25 = CIRCLE ( 'NONE', #50, 0.1031100000000002570 ) ;
#26 = EDGE_CURVE ( 'NONE', #219, #93, #12, .T. ) ;
#27 =( GEOMETRIC_REPRESENTATION_CONTEXT ( 3 ) GLOBAL_UNCERTAINTY_ASSIGNED_CONTEXT ( ( #295 ) ) GLOBAL_UNIT_ASSIGNED_CONTEXT ( ( #196, #152, #260 ) ) REPRESENTATION_CONTEXT ( 'NONE', 'WORKASPACE' ) );
#28 = AXIS2_PLACEMENT_3D ( 'NONE', #148, #235, #8 ) ;
#29 = EDGE_CURVE ( 'NONE', #61, #70, #41, .T. ) ;
#30 = DIRECTION ( 'NONE',  ( -1.000000000000000000, 0.000000000000000000, 0.000000000000000000 ) ) ;
#31 = APPLICATION_CONTEXT ( 'automotive_design' ) ;
#32 = PRESENTATION_STYLE_ASSIGNMENT (( #197 ) ) ;
#33 = DIRECTION ( 'NONE',  ( -0.000000000000000000, -0.000000000000000000, -1.000000000000000000 ) ) ;
#34 = CARTESIAN_POINT ( 'NONE',  ( 0.000000000000000000, 0.000000000000000000, 2.244094000000000033 ) ) ;
#35 = DIRECTION ( 'NONE',  ( 1.000000000000000000, 0.000000000000000000, 0.000000000000000000 ) ) ;
#36 = CLOSED_SHELL ( 'NONE', ( #288, #185, #53, #171, #121, #140, #166, #223, #232, #76 ) ) ;
#37 = SURFACE_STYLE_FILL_AREA ( #195 ) ;
#38 = CARTESIAN_POINT ( 'NONE',  ( 0.07866125999999999674, 9.633226027589770864E-18, -9.633226027589770864E-18 ) ) ;
#39 = ORIENTED_EDGE ( 'NONE', *, *, #193, .F. ) ;
#40 = PRESENTATION_STYLE_ASSIGNMENT (( #198 ) ) ;
#41 = LINE ( 'NONE', #38, #99 ) ;
#42 = ORIENTED_EDGE ( 'NONE', *, *, #97, .T. ) ;
#43 = DIRECTION ( 'NONE',  ( -1.000000000000000000, 0.000000000000000000, 1.224646799147352961E-16 ) ) ;
#44 = ORIENTED_EDGE ( 'NONE', *, *, #5, .F. ) ;
#45 = PRESENTATION_LAYER_ASSIGNMENT (  '', '', ( #278 ) ) ;
#46 = VERTEX_POINT ( 'NONE', #238 ) ;
#47 = EDGE_LOOP ( 'NONE', ( #21, #115, #134, #84 ) ) ;
#48 = EDGE_CURVE ( 'NONE', #246, #183, #139, .T. ) ;
#49 = CIRCLE ( 'NONE', #28, 0.1181100000000000066 ) ;
#50 = AXIS2_PLACEMENT_3D ( 'NONE', #277, #231, #150 ) ;
#51 = PLANE ( 'NONE',  #98 ) ;
#52 = DIRECTION ( 'NONE',  ( 1.000000000000000000, 0.000000000000000000, -0.000000000000000000 ) ) ;
#53 = ADVANCED_FACE ( 'NONE', ( #201 ), #299, .T. ) ;
#54 = CARTESIAN_POINT ( 'NONE',  ( 8.043430235321561285E-17, 0.000000000000000000, 0.6567959219688248584 ) ) ;
#55 = AXIS2_PLACEMENT_3D ( 'NONE', #54, #122, #6 ) ;
#56 = DIRECTION ( 'NONE',  ( 1.000000000000000000, 0.000000000000000000, -0.000000000000000000 ) ) ;
#57 = SURFACE_SIDE_STYLE ('',( #37 ) ) ;
#58 = DIRECTION ( 'NONE',  ( 1.224646799147353207E-16, 0.000000000000000000, 1.000000000000000000 ) ) ;
#59 = CARTESIAN_POINT ( 'NONE',  ( 8.043430235321561285E-17, 0.000000000000000000, 0.6567959219688248584 ) ) ;
#60 = AXIS2_PLACEMENT_3D ( 'NONE', #234, #169, #30 ) ;
#61 = VERTEX_POINT ( 'NONE', #289 ) ;
#62 = PRODUCT ( 'Micro_AEMM-040-2X', 'Micro_AEMM-040-2X', '', ( #138 ) ) ;
#63 = AXIS2_PLACEMENT_3D ( 'NONE', #266, #261, #52 ) ;
#64 = CARTESIAN_POINT ( 'NONE',  ( -0.07866125999999999674, 0.000000000000000000, 1.926645205517954173E-17 ) ) ;
#65 = ORIENTED_EDGE ( 'NONE', *, *, #92, .T. ) ;
#66 = CARTESIAN_POINT ( 'NONE',  ( 0.1031100000000002570, 1.262733314600838667E-17, 2.244094000000000033 ) ) ;
#67 = DIRECTION ( 'NONE',  ( -1.224646799147353207E-16, -0.000000000000000000, -1.000000000000000000 ) ) ;
#68 = EDGE_LOOP ( 'NONE', ( #181, #269, #114, #251 ) ) ;
#69 = AXIS2_PLACEMENT_3D ( 'NONE', #243, #239, #35 ) ;
#70 = VERTEX_POINT ( 'NONE', #16 ) ;
#71 = ORIENTED_EDGE ( 'NONE', *, *, #102, .T. ) ;
#72 = MECHANICAL_DESIGN_GEOMETRIC_PRESENTATION_REPRESENTATION (  '', ( #208 ), #75 ) ;
#73 = CIRCLE ( 'NONE', #89, 0.07866125999999999674 ) ;
#74 = FACE_OUTER_BOUND ( 'NONE', #250, .T. ) ;
#75 =( GEOMETRIC_REPRESENTATION_CONTEXT ( 3 ) GLOBAL_UNCERTAINTY_ASSIGNED_CONTEXT ( ( #116 ) ) GLOBAL_UNIT_ASSIGNED_CONTEXT ( ( #240, #107, #292 ) ) REPRESENTATION_CONTEXT ( 'NONE', 'WORKASPACE' ) );
#76 = ADVANCED_FACE ( 'NONE', ( #174 ), #86, .F. ) ;
#77 = APPLICATION_CONTEXT ( 'automotive_design' ) ;
#78 = DIRECTION ( 'NONE',  ( -0.1736481776669311916, 2.126576849575783316E-17, 0.9848077530122080203 ) ) ;
#79 = DIRECTION ( 'NONE',  ( -1.000000000000000000, 0.000000000000000000, 1.224646799147352961E-16 ) ) ;
#80 = AXIS2_PLACEMENT_3D ( 'NONE', #176, #9, #127 ) ;
#81 = CARTESIAN_POINT ( 'NONE',  ( 0.1181100000000000899, 1.446430334472940009E-17, 0.6567959219688248584 ) ) ;
#82 = CARTESIAN_POINT ( 'NONE',  ( 0.000000000000000000, 0.000000000000000000, 2.244094000000000033 ) ) ;
#83 = LENGTH_MEASURE_WITH_UNIT ( LENGTH_MEASURE( 0.02539999999999999897 ), #7 );
#84 = ORIENTED_EDGE ( 'NONE', *, *, #97, .F. ) ;
#85 = CARTESIAN_POINT ( 'NONE',  ( -0.07866125999999994123, 1.204876468615957931E-17, 0.4330709999999999837 ) ) ;
#86 = PLANE ( 'NONE',  #63 ) ;
#87 = VECTOR ( 'NONE', #123, 39.37007874015748143 ) ;
#88 = EDGE_LOOP ( 'NONE', ( #293, #290, #222, #206 ) ) ;
#89 = AXIS2_PLACEMENT_3D ( 'NONE', #128, #214, #283 ) ;
#90 = AXIS2_PLACEMENT_3D ( 'NONE', #158, #58, #173 ) ;
#91 = DIRECTION ( 'NONE',  ( 1.000000000000000000, 0.000000000000000000, 0.000000000000000000 ) ) ;
#92 = EDGE_CURVE ( 'NONE', #70, #182, #207, .T. ) ;
#93 = VERTEX_POINT ( 'NONE', #255 ) ;
#94 = EDGE_LOOP ( 'NONE', ( #108, #65 ) ) ;
#95 = CARTESIAN_POINT ( 'NONE',  ( 5.303590139535433909E-17, 0.000000000000000000, 0.4330709999999999837 ) ) ;
#96 = DIRECTION ( 'NONE',  ( -1.000000000000000000, 0.000000000000000000, 0.000000000000000000 ) ) ;
#97 = EDGE_CURVE ( 'NONE', #93, #246, #230, .T. ) ;
#98 = AXIS2_PLACEMENT_3D ( 'NONE', #100, #172, #56 ) ;
#99 = VECTOR ( 'NONE', #129, 39.37007874015748143 ) ;
#100 = CARTESIAN_POINT ( 'NONE',  ( 0.000000000000000000, 0.000000000000000000, 2.244094000000000033 ) ) ;
#101 = FACE_OUTER_BOUND ( 'NONE', #68, .T. ) ;
#102 = EDGE_CURVE ( 'NONE', #183, #246, #291, .T. ) ;
#103 = CARTESIAN_POINT ( 'NONE',  ( 0.000000000000000000, 0.000000000000000000, 0.000000000000000000 ) ) ;
#104 = COLOUR_RGB ( '',0.7921568627450980005, 0.8196078431372548767, 0.9333333333333333481 ) ;
#105 = SURFACE_SIDE_STYLE ('',( #237 ) ) ;
#106 = PRODUCT_RELATED_PRODUCT_CATEGORY ( 'part', '', ( #62 ) ) ;
#107 =( NAMED_UNIT ( * ) PLANE_ANGLE_UNIT ( ) SI_UNIT ( $, .RADIAN. ) );
#108 = ORIENTED_EDGE ( 'NONE', *, *, #133, .T. ) ;
#109 = CYLINDRICAL_SURFACE ( 'NONE', #10, 0.07866125999999999674 ) ;
#110 = EDGE_CURVE ( 'NONE', #270, #246, #258, .T. ) ;
#111 = AXIS2_PLACEMENT_3D ( 'NONE', #168, #253, #142 ) ;
#112 = ORIENTED_EDGE ( 'NONE', *, *, #102, .F. ) ;
#113 = VECTOR ( 'NONE', #282, 39.37007874015748854 ) ;
#114 = ORIENTED_EDGE ( 'NONE', *, *, #133, .F. ) ;
#115 = ORIENTED_EDGE ( 'NONE', *, *, #229, .T. ) ;
#116 = UNCERTAINTY_MEASURE_WITH_UNIT (LENGTH_MEASURE( 1.000000000000000082E-05 ), #240, 'distance_accuracy_value', 'NONE');
#117 = CIRCLE ( 'NONE', #80, 0.1031100000000002570 ) ;
#118 = VECTOR ( 'NONE', #67, 39.37007874015748143 ) ;
#119 = DIRECTION ( 'NONE',  ( -1.224646799147353207E-16, -0.000000000000000000, -1.000000000000000000 ) ) ;
#120 =( NAMED_UNIT ( * ) SI_UNIT ( $, .STERADIAN. ) SOLID_ANGLE_UNIT ( ) );
#121 = ADVANCED_FACE ( 'NONE', ( #126 ), #146, .T. ) ;
#122 = DIRECTION ( 'NONE',  ( -1.224646799147353207E-16, -0.000000000000000000, -1.000000000000000000 ) ) ;
#123 = DIRECTION ( 'NONE',  ( -0.000000000000000000, -0.000000000000000000, -1.000000000000000000 ) ) ;
#124 = PRODUCT_DEFINITION_CONTEXT ( 'detailed design', #77, 'design' ) ;
#125 = DIRECTION ( 'NONE',  ( -1.000000000000000000, 0.000000000000000000, 1.224646799147352961E-16 ) ) ;
#126 = FACE_OUTER_BOUND ( 'NONE', #13, .T. ) ;
#127 = DIRECTION ( 'NONE',  ( 1.000000000000000000, 0.000000000000000000, 0.000000000000000000 ) ) ;
#128 = CARTESIAN_POINT ( 'NONE',  ( 5.303590139535433909E-17, 0.000000000000000000, 0.4330709999999999837 ) ) ;
#129 = DIRECTION ( 'NONE',  ( -1.224646799147353207E-16, -0.000000000000000000, -1.000000000000000000 ) ) ;
#130 = ORIENTED_EDGE ( 'NONE', *, *, #155, .T. ) ;
#131 = AXIS2_PLACEMENT_3D ( 'NONE', #82, #244, #286 ) ;
#132 = ORIENTED_EDGE ( 'NONE', *, *, #26, .F. ) ;
#133 = EDGE_CURVE ( 'NONE', #182, #70, #279, .T. ) ;
#134 = ORIENTED_EDGE ( 'NONE', *, *, #48, .F. ) ;
#135 = VECTOR ( 'NONE', #33, 39.37007874015748143 ) ;
#136 = AXIS2_PLACEMENT_3D ( 'NONE', #217, #119, #96 ) ;
#137 =( NAMED_UNIT ( * ) PLANE_ANGLE_UNIT ( ) SI_UNIT ( $, .RADIAN. ) );
#138 = PRODUCT_CONTEXT ( 'NONE', #31, 'mechanical' ) ;
#139 = CIRCLE ( 'NONE', #210, 0.1181100000000000066 ) ;
#140 = ADVANCED_FACE ( 'NONE', ( #213 ), #51, .T. ) ;
#141 = FACE_OUTER_BOUND ( 'NONE', #199, .T. ) ;
#142 = DIRECTION ( 'NONE',  ( -1.000000000000000000, 0.000000000000000000, 0.000000000000000000 ) ) ;
#143 = DIMENSIONAL_EXPONENTS ( 1.000000000000000000, 0.000000000000000000, 0.000000000000000000, 0.000000000000000000, 0.000000000000000000, 0.000000000000000000, 0.000000000000000000 ) ;
#144 = CARTESIAN_POINT ( 'NONE',  ( 1.179729942015078748E-33, 0.000000000000000000, 9.633226027589770864E-18 ) ) ;
#145 = COLOUR_RGB ( '',0.7921568627450980005, 0.8196078431372548767, 0.9333333333333333481 ) ;
#146 = CYLINDRICAL_SURFACE ( 'NONE', #60, 0.1181100000000000066 ) ;
#147 = MECHANICAL_DESIGN_GEOMETRIC_PRESENTATION_REPRESENTATION (  '', ( #278 ), #209 ) ;
#148 = CARTESIAN_POINT ( 'NONE',  ( 0.000000000000000000, 0.000000000000000000, 2.229093999999999465 ) ) ;
#149 = FILL_AREA_STYLE ('',( #159 ) ) ;
#150 = DIRECTION ( 'NONE',  ( 1.000000000000000000, 0.000000000000000000, 0.000000000000000000 ) ) ;
#151 = LENGTH_MEASURE_WITH_UNIT ( LENGTH_MEASURE( 0.02539999999999999897 ), #236 );
#152 =( NAMED_UNIT ( * ) PLANE_ANGLE_UNIT ( ) SI_UNIT ( $, .RADIAN. ) );
#153 = DIRECTION ( 'NONE',  ( -1.224646799147353207E-16, -0.000000000000000000, -1.000000000000000000 ) ) ;
#154 = PRODUCT_DEFINITION_FORMATION_WITH_SPECIFIED_SOURCE ( 'ANY', '', #62, .NOT_KNOWN. ) ;
#155 = EDGE_CURVE ( 'NONE', #249, #93, #49, .T. ) ;
#156 = ORIENTED_EDGE ( 'NONE', *, *, #48, .T. ) ;
#157 = APPLICATION_PROTOCOL_DEFINITION ( 'draft international standard', 'automotive_design', 1998, #31 ) ;
#158 = CARTESIAN_POINT ( 'NONE',  ( 5.303590139535433909E-17, 0.000000000000000000, 0.4330709999999999837 ) ) ;
#159 = FILL_AREA_STYLE_COLOUR ( '', #104 ) ;
#160 = ORIENTED_EDGE ( 'NONE', *, *, #247, .T. ) ;
#161 = CARTESIAN_POINT ( 'NONE',  ( 0.000000000000000000, 0.000000000000000000, 2.229093999999999465 ) ) ;
#162 = APPLICATION_PROTOCOL_DEFINITION ( 'draft international standard', 'automotive_design', 1998, #77 ) ;
#163 = EDGE_LOOP ( 'NONE', ( #17, #285, #156, #242 ) ) ;
#164 = LINE ( 'NONE', #298, #225 ) ;
#165 = ORIENTED_EDGE ( 'NONE', *, *, #247, .F. ) ;
#166 = ADVANCED_FACE ( 'NONE', ( #74 ), #233, .T. ) ;
#167 = AXIS2_PLACEMENT_3D ( 'NONE', #276, #4, #125 ) ;
#168 = CARTESIAN_POINT ( 'NONE',  ( 0.000000000000000000, 0.000000000000000000, 2.244094000000000033 ) ) ;
#169 = DIRECTION ( 'NONE',  ( -0.000000000000000000, -0.000000000000000000, -1.000000000000000000 ) ) ;
#170 = DIRECTION ( 'NONE',  ( -1.000000000000000000, 0.000000000000000000, 1.224646799147352961E-16 ) ) ;
#171 = ADVANCED_FACE ( 'NONE', ( #179 ), #259, .T. ) ;
#172 = DIRECTION ( 'NONE',  ( 0.000000000000000000, 0.000000000000000000, 1.000000000000000000 ) ) ;
#173 = DIRECTION ( 'NONE',  ( 1.000000000000000000, 0.000000000000000000, 0.000000000000000000 ) ) ;
#174 = FACE_OUTER_BOUND ( 'NONE', #94, .T. ) ;
#175 = FACE_OUTER_BOUND ( 'NONE', #163, .T. ) ;
#176 = CARTESIAN_POINT ( 'NONE',  ( 0.000000000000000000, 0.000000000000000000, 2.244094000000000033 ) ) ;
#177 = DIRECTION ( 'NONE',  ( 0.000000000000000000, 0.000000000000000000, -1.000000000000000000 ) ) ;
#178 = ORIENTED_EDGE ( 'NONE', *, *, #254, .F. ) ;
#179 = FACE_OUTER_BOUND ( 'NONE', #47, .T. ) ;
#180 = DIRECTION ( 'NONE',  ( -1.224646799147353207E-16, -0.000000000000000000, -1.000000000000000000 ) ) ;
#181 = ORIENTED_EDGE ( 'NONE', *, *, #275, .T. ) ;
#182 = VERTEX_POINT ( 'NONE', #64 ) ;
#183 = VERTEX_POINT ( 'NONE', #81 ) ;
#184 = UNCERTAINTY_MEASURE_WITH_UNIT (LENGTH_MEASURE( 1.000000000000000082E-05 ), #297, 'distance_accuracy_value', 'NONE');
#185 = ADVANCED_FACE ( 'NONE', ( #175 ), #274, .T. ) ;
#186 = DIMENSIONAL_EXPONENTS ( 1.000000000000000000, 0.000000000000000000, 0.000000000000000000, 0.000000000000000000, 0.000000000000000000, 0.000000000000000000, 0.000000000000000000 ) ;
#187 = AXIS2_PLACEMENT_3D ( 'NONE', #161, #22, #215 ) ;
#188 = AXIS2_PLACEMENT_3D ( 'NONE', #103, #180, #79 ) ;
#189 = PRODUCT_DEFINITION_SHAPE ( 'NONE', 'NONE',  #23 ) ;
#190 = DIMENSIONAL_EXPONENTS ( 1.000000000000000000, 0.000000000000000000, 0.000000000000000000, 0.000000000000000000, 0.000000000000000000, 0.000000000000000000, 0.000000000000000000 ) ;
#191 = VECTOR ( 'NONE', #78, 39.37007874015747433 ) ;
#192 = MANIFOLD_SOLID_BREP ( 'Cut-Revolve1', #36 ) ;
#193 = EDGE_CURVE ( 'NONE', #61, #270, #241, .T. ) ;
#194 = LINE ( 'NONE', #267, #135 ) ;
#195 = FILL_AREA_STYLE ('',( #11 ) ) ;
#196 =( CONVERSION_BASED_UNIT ( 'INCH', #83 ) LENGTH_UNIT ( ) NAMED_UNIT ( #190 ) );
#197 = SURFACE_STYLE_USAGE ( .BOTH. , #57 ) ;
#198 = SURFACE_STYLE_USAGE ( .BOTH. , #105 ) ;
#199 = EDGE_LOOP ( 'NONE', ( #202, #39, #264, #71 ) ) ;
#200 = CARTESIAN_POINT ( 'NONE',  ( -0.1181099999999999234, 0.000000000000000000, 0.6567959219688248584 ) ) ;
#201 = FACE_OUTER_BOUND ( 'NONE', #227, .T. ) ;
#202 = ORIENTED_EDGE ( 'NONE', *, *, #110, .F. ) ;
#203 = LENGTH_MEASURE_WITH_UNIT ( LENGTH_MEASURE( 0.02539999999999999897 ), #220 );
#204 = CARTESIAN_POINT ( 'NONE',  ( -0.07866125999999999674, 0.000000000000000000, 9.633226027589770864E-18 ) ) ;
#205 = EDGE_LOOP ( 'NONE', ( #20, #160 ) ) ;
#206 = ORIENTED_EDGE ( 'NONE', *, *, #92, .F. ) ;
#207 = CIRCLE ( 'NONE', #24, 0.07866125999999999674 ) ;
#208 = STYLED_ITEM ( 'NONE', ( #32 ), #192 ) ;
#209 =( GEOMETRIC_REPRESENTATION_CONTEXT ( 3 ) GLOBAL_UNCERTAINTY_ASSIGNED_CONTEXT ( ( #184 ) ) GLOBAL_UNIT_ASSIGNED_CONTEXT ( ( #297, #137, #120 ) ) REPRESENTATION_CONTEXT ( 'NONE', 'WORKASPACE' ) );
#210 = AXIS2_PLACEMENT_3D ( 'NONE', #59, #153, #284 ) ;
#211 = ADVANCED_BREP_SHAPE_REPRESENTATION ( 'Micro_AEMM-040-2X', ( #192, #69 ), #27 ) ;
#212 = EDGE_CURVE ( 'NONE', #61, #183, #164, .T. ) ;
#213 = FACE_OUTER_BOUND ( 'NONE', #205, .T. ) ;
#214 = DIRECTION ( 'NONE',  ( -1.224646799147353207E-16, -0.000000000000000000, -1.000000000000000000 ) ) ;
#215 = DIRECTION ( 'NONE',  ( 1.000000000000000000, 0.000000000000000000, 0.000000000000000000 ) ) ;
#216 = CARTESIAN_POINT ( 'NONE',  ( -0.1181100000000000066, 0.000000000000000000, 2.244094000000000033 ) ) ;
#217 = CARTESIAN_POINT ( 'NONE',  ( 5.303590139535433909E-17, 0.000000000000000000, 0.4330709999999999837 ) ) ;
#218 = ORIENTED_EDGE ( 'NONE', *, *, #229, .F. ) ;
#219 = VERTEX_POINT ( 'NONE', #273 ) ;
#220 =( LENGTH_UNIT ( ) NAMED_UNIT ( * ) SI_UNIT ( $, .METRE. ) );
#221 = DIRECTION ( 'NONE',  ( -0.7071067811865358044, 0.000000000000000000, -0.7071067811865590080 ) ) ;
#222 = ORIENTED_EDGE ( 'NONE', *, *, #1, .T. ) ;
#223 = ADVANCED_FACE ( 'NONE', ( #141 ), #2, .T. ) ;
#224 = PRESENTATION_LAYER_ASSIGNMENT (  '', '', ( #208 ) ) ;
#225 = VECTOR ( 'NONE', #272, 39.37007874015748143 ) ;
#226 = ORIENTED_EDGE ( 'NONE', *, *, #14, .F. ) ;
#227 = EDGE_LOOP ( 'NONE', ( #165, #296, #44, #132 ) ) ;
#228 = CIRCLE ( 'NONE', #187, 0.1181100000000000066 ) ;
#229 = EDGE_CURVE ( 'NONE', #249, #183, #194, .T. ) ;
#230 = LINE ( 'NONE', #216, #87 ) ;
#231 = DIRECTION ( 'NONE',  ( 0.000000000000000000, 0.000000000000000000, 1.000000000000000000 ) ) ;
#232 = ADVANCED_FACE ( 'NONE', ( #262 ), #109, .T. ) ;
#233 = CONICAL_SURFACE ( 'NONE', #111, 0.1031100000000002570, 0.7853981633974318477 ) ;
#234 = CARTESIAN_POINT ( 'NONE',  ( 0.000000000000000000, 0.000000000000000000, 2.244094000000000033 ) ) ;
#235 = DIRECTION ( 'NONE',  ( 0.000000000000000000, 0.000000000000000000, -1.000000000000000000 ) ) ;
#236 =( LENGTH_UNIT ( ) NAMED_UNIT ( * ) SI_UNIT ( $, .METRE. ) );
#237 = SURFACE_STYLE_FILL_AREA ( #149 ) ;
#238 = CARTESIAN_POINT ( 'NONE',  ( 0.1031100000000002570, 1.354581824536888722E-17, 2.244094000000000033 ) ) ;
#239 = DIRECTION ( 'NONE',  ( 0.000000000000000000, 0.000000000000000000, 1.000000000000000000 ) ) ;
#240 =( CONVERSION_BASED_UNIT ( 'INCH', #151 ) LENGTH_UNIT ( ) NAMED_UNIT ( #143 ) );
#241 = CIRCLE ( 'NONE', #136, 0.07866125999999999674 ) ;
#242 = ORIENTED_EDGE ( 'NONE', *, *, #212, .F. ) ;
#243 = CARTESIAN_POINT ( 'NONE',  ( 0.000000000000000000, 0.000000000000000000, 0.000000000000000000 ) ) ;
#244 = DIRECTION ( 'NONE',  ( -0.000000000000000000, -0.000000000000000000, -1.000000000000000000 ) ) ;
#245 = CARTESIAN_POINT ( 'NONE',  ( -0.1031100000000002570, 0.000000000000000000, 2.244094000000000033 ) ) ;
#246 = VERTEX_POINT ( 'NONE', #200 ) ;
#247 = EDGE_CURVE ( 'NONE', #46, #219, #117, .T. ) ;
#248 = CARTESIAN_POINT ( 'NONE',  ( 0.000000000000000000, 0.000000000000000000, 0.000000000000000000 ) ) ;
#249 = VERTEX_POINT ( 'NONE', #287 ) ;
#250 = EDGE_LOOP ( 'NONE', ( #178, #226, #294, #268 ) ) ;
#251 = ORIENTED_EDGE ( 'NONE', *, *, #1, .F. ) ;
#252 = SHAPE_DEFINITION_REPRESENTATION ( #189, #211 ) ;
#253 = DIRECTION ( 'NONE',  ( 0.000000000000000000, 0.000000000000000000, -1.000000000000000000 ) ) ;
#254 = EDGE_CURVE ( 'NONE', #46, #249, #15, .T. ) ;
#255 = CARTESIAN_POINT ( 'NONE',  ( -0.1181100000000000066, 0.000000000000000000, 2.229093999999999465 ) ) ;
#256 = VECTOR ( 'NONE', #221, 39.37007874015748854 ) ;
#257 = AXIS2_PLACEMENT_3D ( 'NONE', #95, #271, #91 ) ;
#258 = LINE ( 'NONE', #280, #191 ) ;
#259 = CYLINDRICAL_SURFACE ( 'NONE', #131, 0.1181100000000000066 ) ;
#260 =( NAMED_UNIT ( * ) SI_UNIT ( $, .STERADIAN. ) SOLID_ANGLE_UNIT ( ) );
#261 = DIRECTION ( 'NONE',  ( 0.000000000000000000, 0.000000000000000000, 1.000000000000000000 ) ) ;
#262 = FACE_OUTER_BOUND ( 'NONE', #88, .T. ) ;
#263 = DIRECTION ( 'NONE',  ( -1.000000000000000000, 0.000000000000000000, 0.000000000000000000 ) ) ;
#264 = ORIENTED_EDGE ( 'NONE', *, *, #212, .T. ) ;
#265 = DIRECTION ( 'NONE',  ( -1.224646799147353207E-16, -0.000000000000000000, -1.000000000000000000 ) ) ;
#266 = CARTESIAN_POINT ( 'NONE',  ( 0.000000000000000000, 0.000000000000000000, 0.000000000000000000 ) ) ;
#267 = CARTESIAN_POINT ( 'NONE',  ( 0.1181100000000000066, 1.446430334472939084E-17, 2.244094000000000033 ) ) ;
#268 = ORIENTED_EDGE ( 'NONE', *, *, #155, .F. ) ;
#269 = ORIENTED_EDGE ( 'NONE', *, *, #29, .T. ) ;
#270 = VERTEX_POINT ( 'NONE', #85 ) ;
#271 = DIRECTION ( 'NONE',  ( 1.224646799147353207E-16, 0.000000000000000000, 1.000000000000000000 ) ) ;
#272 = DIRECTION ( 'NONE',  ( 0.1736481776669313859, 0.000000000000000000, 0.9848077530122077983 ) ) ;
#273 = CARTESIAN_POINT ( 'NONE',  ( -0.1031100000000002570, 0.000000000000000000, 2.244094000000000033 ) ) ;
#274 = CONICAL_SURFACE ( 'NONE', #90, 0.07866125999999999674, 0.1745329251994338915 ) ;
#275 = EDGE_CURVE ( 'NONE', #270, #61, #73, .T. ) ;
#276 = CARTESIAN_POINT ( 'NONE',  ( 1.179729942015078748E-33, 0.000000000000000000, 9.633226027589770864E-18 ) ) ;
#277 = CARTESIAN_POINT ( 'NONE',  ( 0.000000000000000000, 0.000000000000000000, 2.244094000000000033 ) ) ;
#278 = STYLED_ITEM ( 'NONE', ( #40 ), #211 ) ;
#279 = CIRCLE ( 'NONE', #167, 0.07866125999999999674 ) ;
#280 = CARTESIAN_POINT ( 'NONE',  ( -0.07866125999999994123, 9.633226027589770864E-18, 0.4330709999999999837 ) ) ;
#281 = CYLINDRICAL_SURFACE ( 'NONE', #188, 0.07866125999999999674 ) ;
#282 = DIRECTION ( 'NONE',  ( 0.7071067811865358044, 8.659560562354788645E-17, -0.7071067811865590080 ) ) ;
#283 = DIRECTION ( 'NONE',  ( -1.000000000000000000, 0.000000000000000000, 0.000000000000000000 ) ) ;
#284 = DIRECTION ( 'NONE',  ( 1.000000000000000000, 0.000000000000000000, 0.000000000000000000 ) ) ;
#285 = ORIENTED_EDGE ( 'NONE', *, *, #110, .T. ) ;
#286 = DIRECTION ( 'NONE',  ( -1.000000000000000000, 0.000000000000000000, 0.000000000000000000 ) ) ;
#287 = CARTESIAN_POINT ( 'NONE',  ( 0.1181100000000000066, 1.446430334472939084E-17, 2.229093999999999465 ) ) ;
#288 = ADVANCED_FACE ( 'NONE', ( #101 ), #281, .T. ) ;
#289 = CARTESIAN_POINT ( 'NONE',  ( 0.07866126000000003837, 0.000000000000000000, 0.4330709999999999837 ) ) ;
#290 = ORIENTED_EDGE ( 'NONE', *, *, #193, .T. ) ;
#291 = CIRCLE ( 'NONE', #55, 0.1181100000000000066 ) ;
#292 =( NAMED_UNIT ( * ) SI_UNIT ( $, .STERADIAN. ) SOLID_ANGLE_UNIT ( ) );
#293 = ORIENTED_EDGE ( 'NONE', *, *, #29, .F. ) ;
#294 = ORIENTED_EDGE ( 'NONE', *, *, #26, .T. ) ;
#295 = UNCERTAINTY_MEASURE_WITH_UNIT (LENGTH_MEASURE( 1.000000000000000082E-05 ), #196, 'distance_accuracy_value', 'NONE');
#296 = ORIENTED_EDGE ( 'NONE', *, *, #254, .T. ) ;
#297 =( CONVERSION_BASED_UNIT ( 'INCH', #203 ) LENGTH_UNIT ( ) NAMED_UNIT ( #186 ) );
#298 = CARTESIAN_POINT ( 'NONE',  ( 0.07866126000000003837, 0.000000000000000000, 0.4330709999999999837 ) ) ;
#299 = CONICAL_SURFACE ( 'NONE', #19, 0.1031100000000002570, 0.7853981633974318477 ) ;
ENDSEC;
END-ISO-10303-21;
