ISO-10303-21;
HEADER;
FILE_DESCRIPTION (( 'STEP AP214' ),
    '1' );
FILE_NAME ('23200.STEP',
    '2023-06-22T16:40:22',
    ( '' ),
    ( '' ),
    'SwSTEP 2.0',
    'SolidWorks 2023',
    '' );
FILE_SCHEMA (( 'AUTOMOTIVE_DESIGN' ));
ENDSEC;

DATA;
#1 = COLOUR_RGB ( '',0.7921568627450980005, 0.8196078431372548767, 0.9333333333333333481 ) ;
#2 = STYLED_ITEM ( 'NONE', ( #4 ), #162 ) ;
#3 = FACE_OUTER_BOUND ( 'NONE', #65, .T. ) ;
#4 = PRESENTATION_STYLE_ASSIGNMENT (( #221 ) ) ;
#5 = EDGE_CURVE ( 'NONE', #261, #116, #89, .T. ) ;
#6 = FACE_OUTER_BOUND ( 'NONE', #15, .T. ) ;
#7 = CLOSED_SHELL ( 'NONE', ( #302, #133, #184, #154 ) ) ;
#8 = LENGTH_MEASURE_WITH_UNIT ( LENGTH_MEASURE( 0.02539999999999999897 ), #244 );
#9 = CARTESIAN_POINT ( 'NONE',  ( -6.123233995736772199E-17, 3.000000000000000444, 0.000000000000000000 ) ) ;
#10 = FILL_AREA_STYLE ('',( #253 ) ) ;
#11 = CARTESIAN_POINT ( 'NONE',  ( 0.000000000000000000, 0.000000000000000000, 0.000000000000000000 ) ) ;
#12 = AXIS2_PLACEMENT_3D ( 'NONE', #208, #234, #115 ) ;
#13 = CIRCLE ( 'NONE', #31, 0.2500000000000000555 ) ;
#14 = CARTESIAN_POINT ( 'NONE',  ( 7.582401355855259480E-33, 1.000000000000000000, 0.000000000000000000 ) ) ;
#15 = EDGE_LOOP ( 'NONE', ( #285, #254, #19, #39 ) ) ;
#16 = EDGE_CURVE ( 'NONE', #259, #204, #107, .T. ) ;
#17 = SURFACE_STYLE_FILL_AREA ( #163 ) ;
#18 = VECTOR ( 'NONE', #169, 39.37007874015748143 ) ;
#19 = ORIENTED_EDGE ( 'NONE', *, *, #142, .T. ) ;
#20 = ORIENTED_EDGE ( 'NONE', *, *, #60, .T. ) ;
#21 = EDGE_CURVE ( 'NONE', #82, #37, #48, .T. ) ;
#22 = ORIENTED_EDGE ( 'NONE', *, *, #191, .T. ) ;
#23 = CARTESIAN_POINT ( 'NONE',  ( 0.000000000000000000, 1.000000000000000000, 0.000000000000000000 ) ) ;
#24 =( CONVERSION_BASED_UNIT ( 'INCH', #172 ) LENGTH_UNIT ( ) NAMED_UNIT ( #111 ) );
#25 = AXIS2_PLACEMENT_3D ( 'NONE', #304, #286, #68 ) ;
#26 =( GEOMETRIC_REPRESENTATION_CONTEXT ( 3 ) GLOBAL_UNCERTAINTY_ASSIGNED_CONTEXT ( ( #205 ) ) GLOBAL_UNIT_ASSIGNED_CONTEXT ( ( #255, #104, #275 ) ) REPRESENTATION_CONTEXT ( 'NONE', 'WORKASPACE' ) );
#27 = CYLINDRICAL_SURFACE ( 'NONE', #274, 0.2500000000000000000 ) ;
#28 =( LENGTH_UNIT ( ) NAMED_UNIT ( * ) SI_UNIT ( $, .METRE. ) );
#29 = PRESENTATION_STYLE_ASSIGNMENT (( #300 ) ) ;
#30 = ORIENTED_EDGE ( 'NONE', *, *, #237, .T. ) ;
#31 = AXIS2_PLACEMENT_3D ( 'NONE', #76, #153, #79 ) ;
#32 = DIRECTION ( 'NONE',  ( 0.000000000000000000, 0.000000000000000000, -1.000000000000000000 ) ) ;
#33 = ORIENTED_EDGE ( 'NONE', *, *, #69, .F. ) ;
#34 = LENGTH_MEASURE_WITH_UNIT ( LENGTH_MEASURE( 0.02539999999999999897 ), #233 );
#35 = DIRECTION ( 'NONE',  ( 0.000000000000000000, 0.000000000000000000, -1.000000000000000000 ) ) ;
#36 =( CONVERSION_BASED_UNIT ( 'INCH', #75 ) LENGTH_UNIT ( ) NAMED_UNIT ( #212 ) );
#37 = VERTEX_POINT ( 'NONE', #67 ) ;
#38 = CARTESIAN_POINT ( 'NONE',  ( 0.000000000000000000, 1.000000000000000000, 0.000000000000000000 ) ) ;
#39 = ORIENTED_EDGE ( 'NONE', *, *, #191, .F. ) ;
#40 = DIRECTION ( 'NONE',  ( -3.061616997868386099E-17, 1.000000000000000000, 0.000000000000000000 ) ) ;
#41 = EDGE_LOOP ( 'NONE', ( #166, #141, #134, #258 ) ) ;
#42 = PRODUCT_DEFINITION_CONTEXT ( 'detailed design', #85, 'design' ) ;
#43 = PRODUCT_DEFINITION_FORMATION_WITH_SPECIFIED_SOURCE ( 'ANY', '', #122, .NOT_KNOWN. ) ;
#44 = ADVANCED_FACE ( 'NONE', ( #305 ), #64, .T. ) ;
#45 = CARTESIAN_POINT ( 'NONE',  ( 1.171687330204578608E-34, 1.000000000000000000, 0.000000000000000000 ) ) ;
#46 = DIRECTION ( 'NONE',  ( 0.000000000000000000, 0.000000000000000000, -1.000000000000000000 ) ) ;
#47 = DIMENSIONAL_EXPONENTS ( 1.000000000000000000, 0.000000000000000000, 0.000000000000000000, 0.000000000000000000, 0.000000000000000000, 0.000000000000000000, 0.000000000000000000 ) ;
#48 = LINE ( 'NONE', #307, #182 ) ;
#49 = DIMENSIONAL_EXPONENTS ( 1.000000000000000000, 0.000000000000000000, 0.000000000000000000, 0.000000000000000000, 0.000000000000000000, 0.000000000000000000, 0.000000000000000000 ) ;
#50 = AXIS2_PLACEMENT_3D ( 'NONE', #222, #228, #224 ) ;
#51 = ADVANCED_FACE ( 'NONE', ( #167 ), #232, .F. ) ;
#52 = DIRECTION ( 'NONE',  ( 0.000000000000000000, -0.000000000000000000, 1.000000000000000000 ) ) ;
#53 = SHAPE_DEFINITION_REPRESENTATION ( #93, #230 ) ;
#54 = PRESENTATION_LAYER_ASSIGNMENT (  '', '', ( #248 ) ) ;
#55 =( GEOMETRIC_REPRESENTATION_CONTEXT ( 3 ) GLOBAL_UNCERTAINTY_ASSIGNED_CONTEXT ( ( #281 ) ) GLOBAL_UNIT_ASSIGNED_CONTEXT ( ( #36, #178, #296 ) ) REPRESENTATION_CONTEXT ( 'NONE', 'WORKASPACE' ) );
#56 = ORIENTED_EDGE ( 'NONE', *, *, #210, .F. ) ;
#57 = CARTESIAN_POINT ( 'NONE',  ( 3.061616997868383018E-17, 0.000000000000000000, 0.2500000000000000000 ) ) ;
#58 = ORIENTED_EDGE ( 'NONE', *, *, #16, .T. ) ;
#59 = DIRECTION ( 'NONE',  ( -0.000000000000000000, -1.000000000000000000, -0.000000000000000000 ) ) ;
#60 = EDGE_CURVE ( 'NONE', #261, #82, #73, .T. ) ;
#61 = STYLED_ITEM ( 'NONE', ( #174 ), #154 ) ;
#62 = STYLED_ITEM ( 'NONE', ( #29 ), #184 ) ;
#63 = FILL_AREA_STYLE_COLOUR ( '', #207 ) ;
#64 = CYLINDRICAL_SURFACE ( 'NONE', #192, 0.2500000000000000555 ) ;
#65 = EDGE_LOOP ( 'NONE', ( #58, #22 ) ) ;
#66 = CIRCLE ( 'NONE', #151, 0.2500000000000000000 ) ;
#67 = CARTESIAN_POINT ( 'NONE',  ( -0.2500000000000001110, 3.000000000000000444, 0.000000000000000000 ) ) ;
#68 = DIRECTION ( 'NONE',  ( 1.000000000000000000, 3.061616997868386099E-17, 0.000000000000000000 ) ) ;
#69 = EDGE_CURVE ( 'NONE', #189, #110, #138, .T. ) ;
#70 = AXIS2_PLACEMENT_3D ( 'NONE', #11, #157, #35 ) ;
#71 = PRODUCT_RELATED_PRODUCT_CATEGORY ( 'part', '', ( #122 ) ) ;
#72 = FILL_AREA_STYLE ('',( #148 ) ) ;
#73 = CIRCLE ( 'NONE', #12, 0.2500000000000000000 ) ;
#74 =( GEOMETRIC_REPRESENTATION_CONTEXT ( 3 ) GLOBAL_UNCERTAINTY_ASSIGNED_CONTEXT ( ( #112 ) ) GLOBAL_UNIT_ASSIGNED_CONTEXT ( ( #24, #272, #196 ) ) REPRESENTATION_CONTEXT ( 'NONE', 'WORKASPACE' ) );
#75 = LENGTH_MEASURE_WITH_UNIT ( LENGTH_MEASURE( 0.02539999999999999897 ), #103 );
#76 = CARTESIAN_POINT ( 'NONE',  ( -6.123233995736772199E-17, 3.000000000000000444, 0.000000000000000000 ) ) ;
#77 = SURFACE_STYLE_FILL_AREA ( #245 ) ;
#78 = SURFACE_STYLE_FILL_AREA ( #10 ) ;
#79 = DIRECTION ( 'NONE',  ( -1.000000000000000000, 0.000000000000000000, 0.000000000000000000 ) ) ;
#80 = PRESENTATION_LAYER_ASSIGNMENT (  '', '', ( #97 ) ) ;
#81 = SURFACE_SIDE_STYLE ('',( #77 ) ) ;
#82 = VERTEX_POINT ( 'NONE', #92 ) ;
#83 = CARTESIAN_POINT ( 'NONE',  ( 0.2500000000000000000, 3.000000000000000444, 3.061616997868383634E-17 ) ) ;
#84 = COLOUR_RGB ( '',0.7921568627450980005, 0.8196078431372548767, 0.9333333333333333481 ) ;
#85 = APPLICATION_CONTEXT ( 'automotive_design' ) ;
#86 = PRESENTATION_STYLE_ASSIGNMENT (( #303 ) ) ;
#87 = DIMENSIONAL_EXPONENTS ( 1.000000000000000000, 0.000000000000000000, 0.000000000000000000, 0.000000000000000000, 0.000000000000000000, 0.000000000000000000, 0.000000000000000000 ) ;
#88 =( NAMED_UNIT ( * ) PLANE_ANGLE_UNIT ( ) SI_UNIT ( $, .RADIAN. ) );
#89 = LINE ( 'NONE', #186, #231 ) ;
#90 = DIRECTION ( 'NONE',  ( -1.000000000000000000, -3.061616997868386099E-17, 0.000000000000000000 ) ) ;
#91 = MECHANICAL_DESIGN_GEOMETRIC_PRESENTATION_REPRESENTATION (  '', ( #135 ), #156 ) ;
#92 = CARTESIAN_POINT ( 'NONE',  ( -0.2500000000000000000, 1.000000000000000000, 0.000000000000000000 ) ) ;
#93 = PRODUCT_DEFINITION_SHAPE ( 'NONE', 'NONE',  #298 ) ;
#94 = DIRECTION ( 'NONE',  ( 0.000000000000000000, 0.000000000000000000, -1.000000000000000000 ) ) ;
#95 = SURFACE_SIDE_STYLE ('',( #288 ) ) ;
#96 = AXIS2_PLACEMENT_3D ( 'NONE', #144, #262, #46 ) ;
#97 = STYLED_ITEM ( 'NONE', ( #246 ), #302 ) ;
#98 = CARTESIAN_POINT ( 'NONE',  ( 0.000000000000000000, 0.000000000000000000, 0.000000000000000000 ) ) ;
#99 = DIRECTION ( 'NONE',  ( 0.000000000000000000, 1.000000000000000000, 0.000000000000000000 ) ) ;
#100 = CARTESIAN_POINT ( 'NONE',  ( 0.000000000000000000, 0.000000000000000000, 0.000000000000000000 ) ) ;
#101 = SURFACE_STYLE_FILL_AREA ( #128 ) ;
#102 = DIRECTION ( 'NONE',  ( -1.000000000000000000, 0.000000000000000000, 0.000000000000000000 ) ) ;
#103 =( LENGTH_UNIT ( ) NAMED_UNIT ( * ) SI_UNIT ( $, .METRE. ) );
#104 =( NAMED_UNIT ( * ) PLANE_ANGLE_UNIT ( ) SI_UNIT ( $, .RADIAN. ) );
#105 = DIRECTION ( 'NONE',  ( 0.000000000000000000, 0.000000000000000000, -1.000000000000000000 ) ) ;
#106 = DIRECTION ( 'NONE',  ( -0.000000000000000000, -1.000000000000000000, -0.000000000000000000 ) ) ;
#107 = CIRCLE ( 'NONE', #124, 0.2500000000000000000 ) ;
#108 = UNCERTAINTY_MEASURE_WITH_UNIT (LENGTH_MEASURE( 1.000000000000000082E-05 ), #152, 'distance_accuracy_value', 'NONE');
#109 = DIRECTION ( 'NONE',  ( -3.061616997868386099E-17, 1.000000000000000000, -0.000000000000000000 ) ) ;
#110 = VERTEX_POINT ( 'NONE', #209 ) ;
#111 = DIMENSIONAL_EXPONENTS ( 1.000000000000000000, 0.000000000000000000, 0.000000000000000000, 0.000000000000000000, 0.000000000000000000, 0.000000000000000000, 0.000000000000000000 ) ;
#112 = UNCERTAINTY_MEASURE_WITH_UNIT (LENGTH_MEASURE( 1.000000000000000082E-05 ), #24, 'distance_accuracy_value', 'NONE');
#113 = SURFACE_SIDE_STYLE ('',( #17 ) ) ;
#114 = MECHANICAL_DESIGN_GEOMETRIC_PRESENTATION_REPRESENTATION (  '', ( #61 ), #170 ) ;
#115 = DIRECTION ( 'NONE',  ( -1.000000000000000000, 0.000000000000000000, 0.000000000000000000 ) ) ;
#116 = VERTEX_POINT ( 'NONE', #83 ) ;
#117 = DIRECTION ( 'NONE',  ( -0.000000000000000000, -1.000000000000000000, -0.000000000000000000 ) ) ;
#118 =( NAMED_UNIT ( * ) SI_UNIT ( $, .STERADIAN. ) SOLID_ANGLE_UNIT ( ) );
#119 =( NAMED_UNIT ( * ) PLANE_ANGLE_UNIT ( ) SI_UNIT ( $, .RADIAN. ) );
#120 =( LENGTH_UNIT ( ) NAMED_UNIT ( * ) SI_UNIT ( $, .METRE. ) );
#121 = UNCERTAINTY_MEASURE_WITH_UNIT (LENGTH_MEASURE( 1.000000000000000082E-05 ), #279, 'distance_accuracy_value', 'NONE');
#122 = PRODUCT ( '23200', '23200', '', ( #290 ) ) ;
#123 = ADVANCED_FACE ( 'NONE', ( #190 ), #206, .F. ) ;
#124 = AXIS2_PLACEMENT_3D ( 'NONE', #187, #117, #185 ) ;
#125 = MECHANICAL_DESIGN_GEOMETRIC_PRESENTATION_REPRESENTATION (  '', ( #62 ), #26 ) ;
#126 = DIRECTION ( 'NONE',  ( 0.000000000000000000, -1.000000000000000000, -0.000000000000000000 ) ) ;
#127 = SURFACE_SIDE_STYLE ('',( #78 ) ) ;
#128 = FILL_AREA_STYLE ('',( #198 ) ) ;
#129 = AXIS2_PLACEMENT_3D ( 'NONE', #9, #203, #102 ) ;
#130 = FACE_OUTER_BOUND ( 'NONE', #179, .T. ) ;
#131 = EDGE_LOOP ( 'NONE', ( #136, #20, #159, #56 ) ) ;
#132 = CARTESIAN_POINT ( 'NONE',  ( 0.000000000000000000, 0.000000000000000000, 0.000000000000000000 ) ) ;
#133 = ADVANCED_FACE ( 'NONE', ( #168 ), #301, .T. ) ;
#134 = ORIENTED_EDGE ( 'NONE', *, *, #16, .F. ) ;
#135 = STYLED_ITEM ( 'NONE', ( #213 ), #260 ) ;
#136 = ORIENTED_EDGE ( 'NONE', *, *, #5, .F. ) ;
#137 = CARTESIAN_POINT ( 'NONE',  ( -6.123233995736772199E-17, 3.000000000000000444, 0.000000000000000000 ) ) ;
#138 = CIRCLE ( 'NONE', #96, 0.2500000000000000000 ) ;
#139 = VECTOR ( 'NONE', #176, 39.37007874015748143 ) ;
#140 = DIRECTION ( 'NONE',  ( -3.061616997868386099E-17, 1.000000000000000000, -0.000000000000000000 ) ) ;
#141 = ORIENTED_EDGE ( 'NONE', *, *, #306, .T. ) ;
#142 = EDGE_CURVE ( 'NONE', #189, #259, #147, .T. ) ;
#143 = DIMENSIONAL_EXPONENTS ( 1.000000000000000000, 0.000000000000000000, 0.000000000000000000, 0.000000000000000000, 0.000000000000000000, 0.000000000000000000, 0.000000000000000000 ) ;
#144 = CARTESIAN_POINT ( 'NONE',  ( 0.000000000000000000, 1.000000000000000000, 0.000000000000000000 ) ) ;
#145 = PRESENTATION_LAYER_ASSIGNMENT (  '', '', ( #61 ) ) ;
#146 =( NAMED_UNIT ( * ) SI_UNIT ( $, .STERADIAN. ) SOLID_ANGLE_UNIT ( ) );
#147 = LINE ( 'NONE', #238, #18 ) ;
#148 = FILL_AREA_STYLE_COLOUR ( '', #1 ) ;
#149 = APPLICATION_CONTEXT ( 'automotive_design' ) ;
#150 =( GEOMETRIC_REPRESENTATION_CONTEXT ( 3 ) GLOBAL_UNCERTAINTY_ASSIGNED_CONTEXT ( ( #165 ) ) GLOBAL_UNIT_ASSIGNED_CONTEXT ( ( #219, #269, #287 ) ) REPRESENTATION_CONTEXT ( 'NONE', 'WORKASPACE' ) );
#151 = AXIS2_PLACEMENT_3D ( 'NONE', #132, #59, #250 ) ;
#152 =( CONVERSION_BASED_UNIT ( 'INCH', #264 ) LENGTH_UNIT ( ) NAMED_UNIT ( #87 ) );
#153 = DIRECTION ( 'NONE',  ( -3.061616997868386099E-17, 1.000000000000000000, -0.000000000000000000 ) ) ;
#154 = ADVANCED_FACE ( 'NONE', ( #3 ), #308, .T. ) ;
#155 = AXIS2_PLACEMENT_3D ( 'NONE', #218, #126, #94 ) ;
#156 =( GEOMETRIC_REPRESENTATION_CONTEXT ( 3 ) GLOBAL_UNCERTAINTY_ASSIGNED_CONTEXT ( ( #121 ) ) GLOBAL_UNIT_ASSIGNED_CONTEXT ( ( #279, #88, #146 ) ) REPRESENTATION_CONTEXT ( 'NONE', 'WORKASPACE' ) );
#157 = DIRECTION ( 'NONE',  ( -0.000000000000000000, -1.000000000000000000, -0.000000000000000000 ) ) ;
#158 = DIRECTION ( 'NONE',  ( -0.000000000000000000, -1.000000000000000000, -0.000000000000000000 ) ) ;
#159 = ORIENTED_EDGE ( 'NONE', *, *, #21, .T. ) ;
#160 = ORIENTED_EDGE ( 'NONE', *, *, #60, .F. ) ;
#161 = CYLINDRICAL_SURFACE ( 'NONE', #50, 0.2500000000000000555 ) ;
#162 = MANIFOLD_SOLID_BREP ( 'Revolve - Tool Body (Straight Shanked)', #241 ) ;
#163 = FILL_AREA_STYLE ('',( #63 ) ) ;
#164 = DIRECTION ( 'NONE',  ( -3.061616997868386099E-17, 1.000000000000000000, -0.000000000000000000 ) ) ;
#165 = UNCERTAINTY_MEASURE_WITH_UNIT (LENGTH_MEASURE( 1.000000000000000082E-05 ), #219, 'distance_accuracy_value', 'NONE');
#166 = ORIENTED_EDGE ( 'NONE', *, *, #69, .T. ) ;
#167 = FACE_OUTER_BOUND ( 'NONE', #252, .T. ) ;
#168 = FACE_OUTER_BOUND ( 'NONE', #263, .T. ) ;
#169 = DIRECTION ( 'NONE',  ( -0.000000000000000000, -1.000000000000000000, -0.000000000000000000 ) ) ;
#170 =( GEOMETRIC_REPRESENTATION_CONTEXT ( 3 ) GLOBAL_UNCERTAINTY_ASSIGNED_CONTEXT ( ( #108 ) ) GLOBAL_UNIT_ASSIGNED_CONTEXT ( ( #152, #119, #268 ) ) REPRESENTATION_CONTEXT ( 'NONE', 'WORKASPACE' ) );
#171 = APPLICATION_PROTOCOL_DEFINITION ( 'draft international standard', 'automotive_design', 1998, #149 ) ;
#172 = LENGTH_MEASURE_WITH_UNIT ( LENGTH_MEASURE( 0.02539999999999999897 ), #292 );
#173 = APPLICATION_PROTOCOL_DEFINITION ( 'draft international standard', 'automotive_design', 1998, #85 ) ;
#174 = PRESENTATION_STYLE_ASSIGNMENT (( #175 ) ) ;
#175 = SURFACE_STYLE_USAGE ( .BOTH. , #240 ) ;
#176 = DIRECTION ( 'NONE',  ( -0.000000000000000000, -1.000000000000000000, -0.000000000000000000 ) ) ;
#177 = SURFACE_STYLE_USAGE ( .BOTH. , #294 ) ;
#178 =( NAMED_UNIT ( * ) PLANE_ANGLE_UNIT ( ) SI_UNIT ( $, .RADIAN. ) );
#179 = EDGE_LOOP ( 'NONE', ( #297, #199, #280, #201 ) ) ;
#180 =( GEOMETRIC_REPRESENTATION_CONTEXT ( 3 ) GLOBAL_UNCERTAINTY_ASSIGNED_CONTEXT ( ( #309 ) ) GLOBAL_UNIT_ASSIGNED_CONTEXT ( ( #197, #217, #118 ) ) REPRESENTATION_CONTEXT ( 'NONE', 'WORKASPACE' ) );
#181 = DIRECTION ( 'NONE',  ( -1.000000000000000000, 0.000000000000000000, 0.000000000000000000 ) ) ;
#182 = VECTOR ( 'NONE', #140, 39.37007874015748143 ) ;
#183 = COLOUR_RGB ( '',1.000000000000000000, 0.000000000000000000, 0.000000000000000000 ) ;
#184 = ADVANCED_FACE ( 'NONE', ( #6 ), #216, .T. ) ;
#185 = DIRECTION ( 'NONE',  ( 0.000000000000000000, 0.000000000000000000, -1.000000000000000000 ) ) ;
#186 = CARTESIAN_POINT ( 'NONE',  ( 0.2499999999999999722, 3.000000000000000444, 3.061616997868383634E-17 ) ) ;
#187 = CARTESIAN_POINT ( 'NONE',  ( 0.000000000000000000, 0.000000000000000000, 0.000000000000000000 ) ) ;
#188 = DIMENSIONAL_EXPONENTS ( 1.000000000000000000, 0.000000000000000000, 0.000000000000000000, 0.000000000000000000, 0.000000000000000000, 0.000000000000000000, 0.000000000000000000 ) ;
#189 = VERTEX_POINT ( 'NONE', #226 ) ;
#190 = FACE_OUTER_BOUND ( 'NONE', #211, .T. ) ;
#191 = EDGE_CURVE ( 'NONE', #204, #259, #66, .T. ) ;
#192 = AXIS2_PLACEMENT_3D ( 'NONE', #137, #164, #282 ) ;
#193 = LENGTH_MEASURE_WITH_UNIT ( LENGTH_MEASURE( 0.02539999999999999897 ), #267 );
#194 = SURFACE_STYLE_FILL_AREA ( #239 ) ;
#195 = CARTESIAN_POINT ( 'NONE',  ( 3.061616997868383018E-17, 0.000000000000000000, 0.2500000000000000000 ) ) ;
#196 =( NAMED_UNIT ( * ) SI_UNIT ( $, .STERADIAN. ) SOLID_ANGLE_UNIT ( ) );
#197 =( CONVERSION_BASED_UNIT ( 'INCH', #8 ) LENGTH_UNIT ( ) NAMED_UNIT ( #49 ) );
#198 = FILL_AREA_STYLE_COLOUR ( '', #84 ) ;
#199 = ORIENTED_EDGE ( 'NONE', *, *, #5, .T. ) ;
#200 = SURFACE_STYLE_USAGE ( .BOTH. , #127 ) ;
#201 = ORIENTED_EDGE ( 'NONE', *, *, #21, .F. ) ;
#202 = MECHANICAL_DESIGN_GEOMETRIC_PRESENTATION_REPRESENTATION (  '', ( #97 ), #55 ) ;
#203 = DIRECTION ( 'NONE',  ( -3.061616997868386099E-17, 1.000000000000000000, -0.000000000000000000 ) ) ;
#204 = VERTEX_POINT ( 'NONE', #57 ) ;
#205 = UNCERTAINTY_MEASURE_WITH_UNIT (LENGTH_MEASURE( 1.000000000000000082E-05 ), #255, 'distance_accuracy_value', 'NONE');
#206 = PLANE ( 'NONE',  #25 ) ;
#207 = COLOUR_RGB ( '',1.000000000000000000, 0.000000000000000000, 0.000000000000000000 ) ;
#208 = CARTESIAN_POINT ( 'NONE',  ( 7.582401355855259480E-33, 1.000000000000000000, 0.000000000000000000 ) ) ;
#209 = CARTESIAN_POINT ( 'NONE',  ( 3.061616997868383018E-17, 1.000000000000000000, 0.2500000000000000000 ) ) ;
#210 = EDGE_CURVE ( 'NONE', #116, #37, #13, .T. ) ;
#211 = EDGE_LOOP ( 'NONE', ( #30, #278 ) ) ;
#212 = DIMENSIONAL_EXPONENTS ( 1.000000000000000000, 0.000000000000000000, 0.000000000000000000, 0.000000000000000000, 0.000000000000000000, 0.000000000000000000, 0.000000000000000000 ) ;
#213 = PRESENTATION_STYLE_ASSIGNMENT (( #177 ) ) ;
#214 = DIRECTION ( 'NONE',  ( 0.000000000000000000, 0.000000000000000000, 1.000000000000000000 ) ) ;
#215 = AXIS2_PLACEMENT_3D ( 'NONE', #38, #106, #32 ) ;
#216 = CYLINDRICAL_SURFACE ( 'NONE', #70, 0.2500000000000000000 ) ;
#217 =( NAMED_UNIT ( * ) PLANE_ANGLE_UNIT ( ) SI_UNIT ( $, .RADIAN. ) );
#218 = CARTESIAN_POINT ( 'NONE',  ( 0.000000000000000000, 0.000000000000000000, 0.000000000000000000 ) ) ;
#219 =( CONVERSION_BASED_UNIT ( 'INCH', #193 ) LENGTH_UNIT ( ) NAMED_UNIT ( #188 ) );
#220 = AXIS2_PLACEMENT_3D ( 'NONE', #45, #40, #90 ) ;
#221 = SURFACE_STYLE_USAGE ( .BOTH. , #95 ) ;
#222 = CARTESIAN_POINT ( 'NONE',  ( -6.123233995736772199E-17, 3.000000000000000444, 0.000000000000000000 ) ) ;
#223 = CIRCLE ( 'NONE', #215, 0.2500000000000000000 ) ;
#224 = DIRECTION ( 'NONE',  ( -1.000000000000000000, 0.000000000000000000, 0.000000000000000000 ) ) ;
#225 = EDGE_CURVE ( 'NONE', #110, #189, #223, .T. ) ;
#226 = CARTESIAN_POINT ( 'NONE',  ( 0.000000000000000000, 1.000000000000000000, -0.2500000000000000000 ) ) ;
#227 = AXIS2_PLACEMENT_3D ( 'NONE', #23, #99, #52 ) ;
#228 = DIRECTION ( 'NONE',  ( -3.061616997868386099E-17, 1.000000000000000000, -0.000000000000000000 ) ) ;
#229 = DIRECTION ( 'NONE',  ( -3.061616997868386099E-17, 1.000000000000000000, -0.000000000000000000 ) ) ;
#230 = ADVANCED_BREP_SHAPE_REPRESENTATION ( '23200', ( #260, #162, #299 ), #180 ) ;
#231 = VECTOR ( 'NONE', #229, 39.37007874015748143 ) ;
#232 = PLANE ( 'NONE',  #220 ) ;
#233 =( LENGTH_UNIT ( ) NAMED_UNIT ( * ) SI_UNIT ( $, .METRE. ) );
#234 = DIRECTION ( 'NONE',  ( -3.061616997868386099E-17, 1.000000000000000000, -0.000000000000000000 ) ) ;
#235 = ORIENTED_EDGE ( 'NONE', *, *, #256, .F. ) ;
#236 = PRESENTATION_LAYER_ASSIGNMENT (  '', '', ( #2 ) ) ;
#237 = EDGE_CURVE ( 'NONE', #37, #116, #277, .T. ) ;
#238 = CARTESIAN_POINT ( 'NONE',  ( 0.000000000000000000, 0.000000000000000000, -0.2500000000000000000 ) ) ;
#239 = FILL_AREA_STYLE ('',( #291 ) ) ;
#240 = SURFACE_SIDE_STYLE ('',( #194 ) ) ;
#241 = CLOSED_SHELL ( 'NONE', ( #249, #51, #44, #123 ) ) ;
#242 = COLOUR_RGB ( '',1.000000000000000000, 0.000000000000000000, 0.000000000000000000 ) ;
#243 = CARTESIAN_POINT ( 'NONE',  ( 0.2500000000000000000, 1.000000000000000000, 3.061616997868383634E-17 ) ) ;
#244 =( LENGTH_UNIT ( ) NAMED_UNIT ( * ) SI_UNIT ( $, .METRE. ) );
#245 = FILL_AREA_STYLE ('',( #295 ) ) ;
#246 = PRESENTATION_STYLE_ASSIGNMENT (( #200 ) ) ;
#247 = ORIENTED_EDGE ( 'NONE', *, *, #225, .F. ) ;
#248 = STYLED_ITEM ( 'NONE', ( #86 ), #133 ) ;
#249 = ADVANCED_FACE ( 'NONE', ( #130 ), #161, .T. ) ;
#250 = DIRECTION ( 'NONE',  ( 0.000000000000000000, 0.000000000000000000, -1.000000000000000000 ) ) ;
#251 = LINE ( 'NONE', #195, #139 ) ;
#252 = EDGE_LOOP ( 'NONE', ( #235, #160 ) ) ;
#253 = FILL_AREA_STYLE_COLOUR ( '', #242 ) ;
#254 = ORIENTED_EDGE ( 'NONE', *, *, #225, .T. ) ;
#255 =( CONVERSION_BASED_UNIT ( 'INCH', #273 ) LENGTH_UNIT ( ) NAMED_UNIT ( #47 ) );
#256 = EDGE_CURVE ( 'NONE', #82, #261, #293, .T. ) ;
#257 = COLOUR_RGB ( '',1.000000000000000000, 0.000000000000000000, 0.000000000000000000 ) ;
#258 = ORIENTED_EDGE ( 'NONE', *, *, #142, .F. ) ;
#259 = VERTEX_POINT ( 'NONE', #276 ) ;
#260 = MANIFOLD_SOLID_BREP ( 'Revolve - Cutting Edge', #7 ) ;
#261 = VERTEX_POINT ( 'NONE', #243 ) ;
#262 = DIRECTION ( 'NONE',  ( -0.000000000000000000, -1.000000000000000000, -0.000000000000000000 ) ) ;
#263 = EDGE_LOOP ( 'NONE', ( #33, #247 ) ) ;
#264 = LENGTH_MEASURE_WITH_UNIT ( LENGTH_MEASURE( 0.02539999999999999897 ), #120 );
#265 = PRESENTATION_LAYER_ASSIGNMENT (  '', '', ( #135 ) ) ;
#266 = DIRECTION ( 'NONE',  ( 1.000000000000000000, 0.000000000000000000, 0.000000000000000000 ) ) ;
#267 =( LENGTH_UNIT ( ) NAMED_UNIT ( * ) SI_UNIT ( $, .METRE. ) );
#268 =( NAMED_UNIT ( * ) SI_UNIT ( $, .STERADIAN. ) SOLID_ANGLE_UNIT ( ) );
#269 =( NAMED_UNIT ( * ) PLANE_ANGLE_UNIT ( ) SI_UNIT ( $, .RADIAN. ) );
#270 = FACE_OUTER_BOUND ( 'NONE', #41, .T. ) ;
#271 = PRESENTATION_LAYER_ASSIGNMENT (  '', '', ( #62 ) ) ;
#272 =( NAMED_UNIT ( * ) PLANE_ANGLE_UNIT ( ) SI_UNIT ( $, .RADIAN. ) );
#273 = LENGTH_MEASURE_WITH_UNIT ( LENGTH_MEASURE( 0.02539999999999999897 ), #28 );
#274 = AXIS2_PLACEMENT_3D ( 'NONE', #100, #158, #105 ) ;
#275 =( NAMED_UNIT ( * ) SI_UNIT ( $, .STERADIAN. ) SOLID_ANGLE_UNIT ( ) );
#276 = CARTESIAN_POINT ( 'NONE',  ( 0.000000000000000000, 0.000000000000000000, -0.2500000000000000000 ) ) ;
#277 = CIRCLE ( 'NONE', #129, 0.2500000000000000555 ) ;
#278 = ORIENTED_EDGE ( 'NONE', *, *, #210, .T. ) ;
#279 =( CONVERSION_BASED_UNIT ( 'INCH', #34 ) LENGTH_UNIT ( ) NAMED_UNIT ( #143 ) );
#280 = ORIENTED_EDGE ( 'NONE', *, *, #237, .F. ) ;
#281 = UNCERTAINTY_MEASURE_WITH_UNIT (LENGTH_MEASURE( 1.000000000000000082E-05 ), #36, 'distance_accuracy_value', 'NONE');
#282 = DIRECTION ( 'NONE',  ( -1.000000000000000000, 0.000000000000000000, 0.000000000000000000 ) ) ;
#283 = MECHANICAL_DESIGN_GEOMETRIC_PRESENTATION_REPRESENTATION (  '', ( #248 ), #150 ) ;
#284 = AXIS2_PLACEMENT_3D ( 'NONE', #14, #109, #181 ) ;
#285 = ORIENTED_EDGE ( 'NONE', *, *, #306, .F. ) ;
#286 = DIRECTION ( 'NONE',  ( 3.061616997868386099E-17, -1.000000000000000000, 0.000000000000000000 ) ) ;
#287 =( NAMED_UNIT ( * ) SI_UNIT ( $, .STERADIAN. ) SOLID_ANGLE_UNIT ( ) );
#288 = SURFACE_STYLE_FILL_AREA ( #72 ) ;
#289 = MECHANICAL_DESIGN_GEOMETRIC_PRESENTATION_REPRESENTATION (  '', ( #2 ), #74 ) ;
#290 = PRODUCT_CONTEXT ( 'NONE', #149, 'mechanical' ) ;
#291 = FILL_AREA_STYLE_COLOUR ( '', #257 ) ;
#292 =( LENGTH_UNIT ( ) NAMED_UNIT ( * ) SI_UNIT ( $, .METRE. ) );
#293 = CIRCLE ( 'NONE', #284, 0.2500000000000000000 ) ;
#294 = SURFACE_SIDE_STYLE ('',( #101 ) ) ;
#295 = FILL_AREA_STYLE_COLOUR ( '', #183 ) ;
#296 =( NAMED_UNIT ( * ) SI_UNIT ( $, .STERADIAN. ) SOLID_ANGLE_UNIT ( ) );
#297 = ORIENTED_EDGE ( 'NONE', *, *, #256, .T. ) ;
#298 = PRODUCT_DEFINITION ( 'UNKNOWN', '', #43, #42 ) ;
#299 = AXIS2_PLACEMENT_3D ( 'NONE', #98, #214, #266 ) ;
#300 = SURFACE_STYLE_USAGE ( .BOTH. , #81 ) ;
#301 = PLANE ( 'NONE',  #227 ) ;
#302 = ADVANCED_FACE ( 'NONE', ( #270 ), #27, .T. ) ;
#303 = SURFACE_STYLE_USAGE ( .BOTH. , #113 ) ;
#304 = CARTESIAN_POINT ( 'NONE',  ( 0.2500000000000000000, 3.000000000000000444, 0.000000000000000000 ) ) ;
#305 = FACE_OUTER_BOUND ( 'NONE', #131, .T. ) ;
#306 = EDGE_CURVE ( 'NONE', #110, #204, #251, .T. ) ;
#307 = CARTESIAN_POINT ( 'NONE',  ( -0.2500000000000001110, 3.000000000000000444, 0.000000000000000000 ) ) ;
#308 = PLANE ( 'NONE',  #155 ) ;
#309 = UNCERTAINTY_MEASURE_WITH_UNIT (LENGTH_MEASURE( 1.000000000000000082E-05 ), #197, 'distance_accuracy_value', 'NONE');
ENDSEC;
END-ISO-10303-21;
