ISO-10303-21;
HEADER;
FILE_DESCRIPTION (( 'STEP AP214' ),
    '1' );
FILE_NAME ('Micro_GEC-125-4-010.STEP',
    '2021-09-03T17:08:12',
    ( '' ),
    ( '' ),
    'SwSTEP 2.0',
    'SolidWorks 2020',
    '' );
FILE_SCHEMA (( 'AUTOMOTIVE_DESIGN' ));
ENDSEC;

DATA;
#1 = DIRECTION ( 'NONE',  ( 1.000000000000000000, 0.0000000000000000000, 0.0000000000000000000 ) ) ;
#2 = ORIENTED_EDGE ( 'NONE', *, *, #235, .F. ) ;
#3 = CARTESIAN_POINT ( 'NONE',  ( 0.06243750000000006933, 0.0000000000000000000, 0.5000000000000000000 ) ) ;
#4 = DIRECTION ( 'NONE',  ( 1.000000000000000000, 0.0000000000000000000, 0.0000000000000000000 ) ) ;
#5 = VERTEX_POINT ( 'NONE', #272 ) ;
#6 = CIRCLE ( 'NONE', #181, 0.06243750000000001382 ) ;
#7 = CARTESIAN_POINT ( 'NONE',  ( 1.224646799147353770E-18, 0.0000000000000000000, 0.01000000000000000021 ) ) ;
#8 = ORIENTED_EDGE ( 'NONE', *, *, #130, .T. ) ;
#9 = DIMENSIONAL_EXPONENTS ( 1.000000000000000000, 0.0000000000000000000, 0.0000000000000000000, 0.0000000000000000000, 0.0000000000000000000, 0.0000000000000000000, 0.0000000000000000000 ) ;
#10 = ORIENTED_EDGE ( 'NONE', *, *, #97, .F. ) ;
#11 = FACE_OUTER_BOUND ( 'NONE', #213, .T. ) ;
#12 = ORIENTED_EDGE ( 'NONE', *, *, #221, .F. ) ;
#13 = CIRCLE ( 'NONE', #257, 0.06250000000000002776 ) ;
#14 = AXIS2_PLACEMENT_3D ( 'NONE', #67, #180, #287 ) ;
#15 = ADVANCED_FACE ( 'NONE', ( #275 ), #112, .T. ) ;
#16 = CYLINDRICAL_SURFACE ( 'NONE', #271, 0.06243750000000001382 ) ;
#17 = CYLINDRICAL_SURFACE ( 'NONE', #96, 0.06250000000000002776 ) ;
#18 = FACE_OUTER_BOUND ( 'NONE', #35, .T. ) ;
#19 = AXIS2_PLACEMENT_3D ( 'NONE', #219, #351, #109 ) ;
#20 = CARTESIAN_POINT ( 'NONE',  ( 0.0000000000000000000, 0.0000000000000000000, 0.0000000000000000000 ) ) ;
#21 = CARTESIAN_POINT ( 'NONE',  ( 0.06250000000000002776, 7.654042494670959086E-18, 1.500000000000000222 ) ) ;
#22 = VECTOR ( 'NONE', #153, 39.37007874015748854 ) ;
#23 = FILL_AREA_STYLE_COLOUR ( '', #151 ) ;
#24 = EDGE_LOOP ( 'NONE', ( #194, #64 ) ) ;
#25 = CARTESIAN_POINT ( 'NONE',  ( -0.06250000000000002776, 0.0000000000000000000, 1.485000000000000764 ) ) ;
#26 = CIRCLE ( 'NONE', #226, 0.05243750000000001882 ) ;
#27 = FACE_OUTER_BOUND ( 'NONE', #90, .T. ) ;
#28 = CARTESIAN_POINT ( 'NONE',  ( 0.0000000000000000000, 0.0000000000000000000, 1.500000000000000222 ) ) ;
#29 = DIRECTION ( 'NONE',  ( -1.224646799147353700E-16, -0.0000000000000000000, -1.000000000000000000 ) ) ;
#30 = EDGE_CURVE ( 'NONE', #5, #149, #110, .T. ) ;
#31 = ORIENTED_EDGE ( 'NONE', *, *, #97, .T. ) ;
#32 = CARTESIAN_POINT ( 'NONE',  ( 0.0000000000000000000, 0.0000000000000000000, 1.485000000000000764 ) ) ;
#33 = CONICAL_SURFACE ( 'NONE', #75, 0.06243750000000001382, 0.1745329251994337805 ) ;
#34 = LINE ( 'NONE', #198, #290 ) ;
#35 = EDGE_LOOP ( 'NONE', ( #12, #250, #261, #81 ) ) ;
#36 = APPLICATION_CONTEXT ( 'automotive_design' ) ;
#37 = ORIENTED_EDGE ( 'NONE', *, *, #169, .T. ) ;
#38 = DIRECTION ( 'NONE',  ( -1.000000000000000000, 0.0000000000000000000, 1.224646799147353700E-16 ) ) ;
#39 = MECHANICAL_DESIGN_GEOMETRIC_PRESENTATION_REPRESENTATION (  '', ( #158 ), #312 ) ;
#40 = AXIS2_PLACEMENT_3D ( 'NONE', #152, #260, #66 ) ;
#41 = DIRECTION ( 'NONE',  ( 1.000000000000000000, 0.0000000000000000000, 0.0000000000000000000 ) ) ;
#42 = ADVANCED_BREP_SHAPE_REPRESENTATION ( 'Micro_GEC-125-4-010', ( #143, #348 ), #191 ) ;
#43 = DIRECTION ( 'NONE',  ( 1.000000000000000000, 0.0000000000000000000, 0.0000000000000000000 ) ) ;
#44 = ADVANCED_FACE ( 'NONE', ( #54 ), #285, .T. ) ;
#45 = PLANE ( 'NONE',  #47 ) ;
#46 = ADVANCED_FACE ( 'NONE', ( #27 ), #215, .T. ) ;
#47 = AXIS2_PLACEMENT_3D ( 'NONE', #20, #233, #230 ) ;
#48 = CARTESIAN_POINT ( 'NONE',  ( 0.06250000000000002776, 7.654042494670959086E-18, 1.485000000000000764 ) ) ;
#49 = CIRCLE ( 'NONE', #14, 0.06250000000000002776 ) ;
#50 = APPLICATION_CONTEXT ( 'automotive_design' ) ;
#51 = FACE_OUTER_BOUND ( 'NONE', #283, .T. ) ;
#52 = DIRECTION ( 'NONE',  ( 0.0000000000000000000, 0.0000000000000000000, 1.000000000000000000 ) ) ;
#53 = PRESENTATION_LAYER_ASSIGNMENT (  '', '', ( #270 ) ) ;
#54 = FACE_OUTER_BOUND ( 'NONE', #334, .T. ) ;
#55 = DIRECTION ( 'NONE',  ( 1.224646799147353700E-16, 0.0000000000000000000, 1.000000000000000000 ) ) ;
#56 = ORIENTED_EDGE ( 'NONE', *, *, #105, .F. ) ;
#57 = CARTESIAN_POINT ( 'NONE',  ( -0.06249999999999996531, 0.0000000000000000000, 0.5003544551137261154 ) ) ;
#58 = ORIENTED_EDGE ( 'NONE', *, *, #232, .T. ) ;
#59 = DIRECTION ( 'NONE',  ( -0.0000000000000000000, -0.0000000000000000000, -1.000000000000000000 ) ) ;
#60 = ORIENTED_EDGE ( 'NONE', *, *, #298, .T. ) ;
#61 = AXIS2_PLACEMENT_3D ( 'NONE', #342, #314, #288 ) ;
#62 = ORIENTED_EDGE ( 'NONE', *, *, #221, .T. ) ;
#63 =( LENGTH_UNIT ( ) NAMED_UNIT ( * ) SI_UNIT ( $, .METRE. ) );
#64 = ORIENTED_EDGE ( 'NONE', *, *, #100, .T. ) ;
#65 = DIRECTION ( 'NONE',  ( -1.224646799147353700E-16, -0.0000000000000000000, -1.000000000000000000 ) ) ;
#66 = DIRECTION ( 'NONE',  ( 0.0000000000000000000, 0.0000000000000000000, -1.000000000000000000 ) ) ;
#67 = CARTESIAN_POINT ( 'NONE',  ( 6.127574818941429733E-17, 0.0000000000000000000, 0.5003544551137261154 ) ) ;
#68 = DIRECTION ( 'NONE',  ( -1.224646799147353700E-16, -0.0000000000000000000, -1.000000000000000000 ) ) ;
#69 = VECTOR ( 'NONE', #138, 39.37007874015748143 ) ;
#70 = TOROIDAL_SURFACE ( 'NONE', #273, 0.05243750000000001882, 0.01000000000000000021 ) ;
#71 = APPLICATION_PROTOCOL_DEFINITION ( 'draft international standard', 'automotive_design', 1998, #36 ) ;
#72 = EDGE_CURVE ( 'NONE', #174, #5, #106, .T. ) ;
#73 = FILL_AREA_STYLE ('',( #23 ) ) ;
#74 =( CONVERSION_BASED_UNIT ( 'INCH', #291 ) LENGTH_UNIT ( ) NAMED_UNIT ( #9 ) );
#75 = AXIS2_PLACEMENT_3D ( 'NONE', #117, #55, #307 ) ;
#76 = DIRECTION ( 'NONE',  ( -1.224646799147353700E-16, -0.0000000000000000000, -1.000000000000000000 ) ) ;
#77 = DIRECTION ( 'NONE',  ( -0.0000000000000000000, -0.0000000000000000000, -1.000000000000000000 ) ) ;
#78 = CONICAL_SURFACE ( 'NONE', #324, 0.04750000000000064587, 0.7853981633974466137 ) ;
#79 = DIRECTION ( 'NONE',  ( -0.0000000000000000000, -0.0000000000000000000, -1.000000000000000000 ) ) ;
#80 = PRESENTATION_STYLE_ASSIGNMENT (( #251 ) ) ;
#81 = ORIENTED_EDGE ( 'NONE', *, *, #315, .T. ) ;
#82 = UNCERTAINTY_MEASURE_WITH_UNIT (LENGTH_MEASURE( 1.000000000000000082E-05 ), #74, 'distance_accuracy_value', 'NONE');
#83 = CARTESIAN_POINT ( 'NONE',  ( 6.123233995736768501E-17, 0.0000000000000000000, 0.5000000000000000000 ) ) ;
#84 =( LENGTH_UNIT ( ) NAMED_UNIT ( * ) SI_UNIT ( $, .METRE. ) );
#85 = ORIENTED_EDGE ( 'NONE', *, *, #232, .F. ) ;
#86 = DIRECTION ( 'NONE',  ( 1.000000000000000000, 0.0000000000000000000, 0.0000000000000000000 ) ) ;
#87 = ORIENTED_EDGE ( 'NONE', *, *, #321, .F. ) ;
#88 = CARTESIAN_POINT ( 'NONE',  ( -0.06243749999999999994, 0.0000000000000000000, 0.01000000000000000194 ) ) ;
#89 = CONICAL_SURFACE ( 'NONE', #335, 0.06243750000000001382, 0.1745329251994337805 ) ;
#90 = EDGE_LOOP ( 'NONE', ( #58, #92, #145, #142 ) ) ;
#91 = CARTESIAN_POINT ( 'NONE',  ( 0.04750000000000064587, 6.735557395310483192E-18, 1.500000000000000222 ) ) ;
#92 = ORIENTED_EDGE ( 'NONE', *, *, #321, .T. ) ;
#93 = DIRECTION ( 'NONE',  ( 1.000000000000000000, 0.0000000000000000000, 0.0000000000000000000 ) ) ;
#94 = ADVANCED_FACE ( 'NONE', ( #51 ), #89, .T. ) ;
#95 = CARTESIAN_POINT ( 'NONE',  ( -0.04750000000000064587, 0.0000000000000000000, 1.500000000000000222 ) ) ;
#96 = AXIS2_PLACEMENT_3D ( 'NONE', #123, #265, #310 ) ;
#97 = EDGE_CURVE ( 'NONE', #5, #174, #306, .T. ) ;
#98 = CARTESIAN_POINT ( 'NONE',  ( 1.224646799147353962E-18, 0.0000000000000000000, 0.01000000000000000194 ) ) ;
#99 = DIRECTION ( 'NONE',  ( 0.0000000000000000000, 0.0000000000000000000, -1.000000000000000000 ) ) ;
#100 = EDGE_CURVE ( 'NONE', #200, #195, #26, .T. ) ;
#101 = TOROIDAL_SURFACE ( 'NONE', #190, 0.05243750000000001882, 0.01000000000000000021 ) ;
#102 =( GEOMETRIC_REPRESENTATION_CONTEXT ( 3 ) GLOBAL_UNCERTAINTY_ASSIGNED_CONTEXT ( ( #218 ) ) GLOBAL_UNIT_ASSIGNED_CONTEXT ( ( #196, #304, #302 ) ) REPRESENTATION_CONTEXT ( 'NONE', 'WORKASPACE' ) );
#103 = APPLICATION_PROTOCOL_DEFINITION ( 'draft international standard', 'automotive_design', 1998, #50 ) ;
#104 =( NAMED_UNIT ( * ) PLANE_ANGLE_UNIT ( ) SI_UNIT ( $, .RADIAN. ) );
#105 = EDGE_CURVE ( 'NONE', #174, #338, #162, .T. ) ;
#106 = CIRCLE ( 'NONE', #120, 0.06243750000000001382 ) ;
#107 = CIRCLE ( 'NONE', #346, 0.06243750000000001382 ) ;
#108 = ORIENTED_EDGE ( 'NONE', *, *, #135, .T. ) ;
#109 = DIRECTION ( 'NONE',  ( -1.000000000000000000, 0.0000000000000000000, 0.0000000000000000000 ) ) ;
#110 = LINE ( 'NONE', #136, #240 ) ;
#111 = ORIENTED_EDGE ( 'NONE', *, *, #235, .T. ) ;
#112 = PLANE ( 'NONE',  #247 ) ;
#113 = AXIS2_PLACEMENT_3D ( 'NONE', #259, #65, #93 ) ;
#114 = CARTESIAN_POINT ( 'NONE',  ( 0.0000000000000000000, 0.0000000000000000000, 1.500000000000000222 ) ) ;
#115 = VERTEX_POINT ( 'NONE', #25 ) ;
#116 = EDGE_LOOP ( 'NONE', ( #87, #8, #37, #217 ) ) ;
#117 = CARTESIAN_POINT ( 'NONE',  ( 6.123233995736768501E-17, 0.0000000000000000000, 0.5000000000000000000 ) ) ;
#118 = ORIENTED_EDGE ( 'NONE', *, *, #331, .F. ) ;
#119 = DIRECTION ( 'NONE',  ( -1.000000000000000000, 0.0000000000000000000, 0.0000000000000000000 ) ) ;
#120 = AXIS2_PLACEMENT_3D ( 'NONE', #192, #29, #248 ) ;
#121 = ORIENTED_EDGE ( 'NONE', *, *, #237, .F. ) ;
#122 = CIRCLE ( 'NONE', #126, 0.06250000000000002776 ) ;
#123 = CARTESIAN_POINT ( 'NONE',  ( 0.0000000000000000000, 0.0000000000000000000, 1.500000000000000222 ) ) ;
#124 = CARTESIAN_POINT ( 'NONE',  ( 0.04750000000000064587, 5.817072295950006528E-18, 1.500000000000000222 ) ) ;
#125 = CARTESIAN_POINT ( 'NONE',  ( 0.0000000000000000000, 0.0000000000000000000, 0.0000000000000000000 ) ) ;
#126 = AXIS2_PLACEMENT_3D ( 'NONE', #203, #99, #127 ) ;
#127 = DIRECTION ( 'NONE',  ( 1.000000000000000000, 0.0000000000000000000, 0.0000000000000000000 ) ) ;
#128 = CIRCLE ( 'NONE', #345, 0.04750000000000064587 ) ;
#129 = CIRCLE ( 'NONE', #40, 0.01000000000000000021 ) ;
#130 = EDGE_CURVE ( 'NONE', #223, #115, #13, .T. ) ;
#131 = DIRECTION ( 'NONE',  ( 0.0000000000000000000, 0.0000000000000000000, 1.000000000000000000 ) ) ;
#132 = ORIENTED_EDGE ( 'NONE', *, *, #105, .T. ) ;
#133 = ADVANCED_FACE ( 'NONE', ( #170 ), #101, .T. ) ;
#134 = SURFACE_STYLE_USAGE ( .BOTH. , #187 ) ;
#135 = EDGE_CURVE ( 'NONE', #256, #332, #128, .T. ) ;
#136 = CARTESIAN_POINT ( 'NONE',  ( -0.06243750000000001382, 0.0000000000000000000, 7.646388452176291997E-18 ) ) ;
#137 = ADVANCED_FACE ( 'NONE', ( #11 ), #78, .T. ) ;
#138 = DIRECTION ( 'NONE',  ( 0.1736481776669312749, 0.0000000000000000000, 0.9848077530122077983 ) ) ;
#139 = DIRECTION ( 'NONE',  ( 0.0000000000000000000, 0.0000000000000000000, 1.000000000000000000 ) ) ;
#140 = DIRECTION ( 'NONE',  ( 0.0000000000000000000, 0.0000000000000000000, 1.000000000000000000 ) ) ;
#141 = DIRECTION ( 'NONE',  ( 0.0000000000000000000, 0.0000000000000000000, 1.000000000000000000 ) ) ;
#142 = ORIENTED_EDGE ( 'NONE', *, *, #169, .F. ) ;
#143 = MANIFOLD_SOLID_BREP ( 'Fillet1', #176 ) ;
#144 = FILL_AREA_STYLE ('',( #282 ) ) ;
#145 = ORIENTED_EDGE ( 'NONE', *, *, #298, .F. ) ;
#146 = CARTESIAN_POINT ( 'NONE',  ( 0.05243750000000001882, 0.0000000000000000000, 0.0000000000000000000 ) ) ;
#147 = EDGE_LOOP ( 'NONE', ( #10, #166, #60, #56 ) ) ;
#148 = DIRECTION ( 'NONE',  ( 0.0000000000000000000, 0.0000000000000000000, 1.000000000000000000 ) ) ;
#149 = VERTEX_POINT ( 'NONE', #88 ) ;
#150 = CARTESIAN_POINT ( 'NONE',  ( 0.0000000000000000000, 0.0000000000000000000, 0.0000000000000000000 ) ) ;
#151 = COLOUR_RGB ( '',0.7921568627450980005, 0.8196078431372548767, 0.9333333333333333481 ) ;
#152 = CARTESIAN_POINT ( 'NONE',  ( 0.05243750000000001882, 0.0000000000000000000, 0.01000000000000000021 ) ) ;
#153 = DIRECTION ( 'NONE',  ( -0.1736481776669310528, 2.126576849575781776E-17, 0.9848077530122080203 ) ) ;
#154 = DIRECTION ( 'NONE',  ( 0.7071067811865462405, 8.659560562354916834E-17, -0.7071067811865486830 ) ) ;
#155 = CIRCLE ( 'NONE', #279, 0.05243750000000001882 ) ;
#156 = PRODUCT_DEFINITION_SHAPE ( 'NONE', 'NONE',  #179 ) ;
#157 = LINE ( 'NONE', #124, #293 ) ;
#158 = STYLED_ITEM ( 'NONE', ( #295 ), #42 ) ;
#159 = SURFACE_STYLE_FILL_AREA ( #73 ) ;
#160 = UNCERTAINTY_MEASURE_WITH_UNIT (LENGTH_MEASURE( 1.000000000000000082E-05 ), #210, 'distance_accuracy_value', 'NONE');
#161 = VECTOR ( 'NONE', #68, 39.37007874015748143 ) ;
#162 = LINE ( 'NONE', #3, #69 ) ;
#163 = ADVANCED_FACE ( 'NONE', ( #276 ), #70, .T. ) ;
#164 = DIRECTION ( 'NONE',  ( 1.000000000000000000, 0.0000000000000000000, 0.0000000000000000000 ) ) ;
#165 = CARTESIAN_POINT ( 'NONE',  ( 0.06243750000000001382, 7.646388452176288915E-18, -7.646388452176291997E-18 ) ) ;
#166 = ORIENTED_EDGE ( 'NONE', *, *, #340, .T. ) ;
#167 = DIRECTION ( 'NONE',  ( 1.000000000000000000, 0.0000000000000000000, 0.0000000000000000000 ) ) ;
#168 = EDGE_LOOP ( 'NONE', ( #31, #62, #111, #349 ) ) ;
#169 = EDGE_CURVE ( 'NONE', #115, #177, #34, .T. ) ;
#170 = FACE_OUTER_BOUND ( 'NONE', #246, .T. ) ;
#171 = EDGE_CURVE ( 'NONE', #195, #200, #155, .T. ) ;
#172 = ORIENTED_EDGE ( 'NONE', *, *, #269, .T. ) ;
#173 = FACE_OUTER_BOUND ( 'NONE', #147, .T. ) ;
#174 = VERTEX_POINT ( 'NONE', #222 ) ;
#175 = DIRECTION ( 'NONE',  ( -1.224646799147353700E-16, -0.0000000000000000000, -1.000000000000000000 ) ) ;
#176 = CLOSED_SHELL ( 'NONE', ( #133, #249, #201, #137, #46, #264, #15, #44, #94, #347, #267, #163 ) ) ;
#177 = VERTEX_POINT ( 'NONE', #57 ) ;
#178 = DIMENSIONAL_EXPONENTS ( 1.000000000000000000, 0.0000000000000000000, 0.0000000000000000000, 0.0000000000000000000, 0.0000000000000000000, 0.0000000000000000000, 0.0000000000000000000 ) ;
#179 = PRODUCT_DEFINITION ( 'UNKNOWN', '', #205, #243 ) ;
#180 = DIRECTION ( 'NONE',  ( -1.224646799147353700E-16, -0.0000000000000000000, -1.000000000000000000 ) ) ;
#181 = AXIS2_PLACEMENT_3D ( 'NONE', #263, #266, #43 ) ;
#182 = DIRECTION ( 'NONE',  ( 0.0000000000000000000, 0.0000000000000000000, 1.000000000000000000 ) ) ;
#183 = CARTESIAN_POINT ( 'NONE',  ( 0.06250000000000008327, 7.654042494670966789E-18, 0.5003544551137261154 ) ) ;
#184 = AXIS2_PLACEMENT_3D ( 'NONE', #83, #76, #299 ) ;
#185 = PRODUCT_CONTEXT ( 'NONE', #36, 'mechanical' ) ;
#186 =( NAMED_UNIT ( * ) SI_UNIT ( $, .STERADIAN. ) SOLID_ANGLE_UNIT ( ) );
#187 = SURFACE_SIDE_STYLE ('',( #159 ) ) ;
#188 = EDGE_LOOP ( 'NONE', ( #308, #278, #220, #309 ) ) ;
#189 = CARTESIAN_POINT ( 'NONE',  ( 1.224646799147353770E-18, 0.0000000000000000000, 0.0000000000000000000 ) ) ;
#190 = AXIS2_PLACEMENT_3D ( 'NONE', #7, #148, #167 ) ;
#191 =( GEOMETRIC_REPRESENTATION_CONTEXT ( 3 ) GLOBAL_UNCERTAINTY_ASSIGNED_CONTEXT ( ( #160 ) ) GLOBAL_UNIT_ASSIGNED_CONTEXT ( ( #210, #104, #186 ) ) REPRESENTATION_CONTEXT ( 'NONE', 'WORKASPACE' ) );
#192 = CARTESIAN_POINT ( 'NONE',  ( 6.123233995736768501E-17, 0.0000000000000000000, 0.5000000000000000000 ) ) ;
#193 = CARTESIAN_POINT ( 'NONE',  ( 1.224646799147353770E-18, 0.0000000000000000000, 0.01000000000000000021 ) ) ;
#194 = ORIENTED_EDGE ( 'NONE', *, *, #171, .T. ) ;
#195 = VERTEX_POINT ( 'NONE', #146 ) ;
#196 =( CONVERSION_BASED_UNIT ( 'INCH', #333 ) LENGTH_UNIT ( ) NAMED_UNIT ( #178 ) );
#197 = ORIENTED_EDGE ( 'NONE', *, *, #100, .F. ) ;
#198 = CARTESIAN_POINT ( 'NONE',  ( -0.06250000000000002776, 0.0000000000000000000, 1.500000000000000222 ) ) ;
#199 = VERTEX_POINT ( 'NONE', #328 ) ;
#200 = VERTEX_POINT ( 'NONE', #253 ) ;
#201 = ADVANCED_FACE ( 'NONE', ( #173 ), #33, .T. ) ;
#202 = EDGE_CURVE ( 'NONE', #332, #256, #286, .T. ) ;
#203 = CARTESIAN_POINT ( 'NONE',  ( 0.0000000000000000000, 0.0000000000000000000, 1.485000000000000764 ) ) ;
#204 = FACE_OUTER_BOUND ( 'NONE', #116, .T. ) ;
#205 = PRODUCT_DEFINITION_FORMATION_WITH_SPECIFIED_SOURCE ( 'ANY', '', #206, .NOT_KNOWN. ) ;
#206 = PRODUCT ( 'Micro_GEC-125-4-010', 'Micro_GEC-125-4-010', '', ( #185 ) ) ;
#207 = FACE_OUTER_BOUND ( 'NONE', #24, .T. ) ;
#208 = DIRECTION ( 'NONE',  ( -1.000000000000000000, 0.0000000000000000000, 1.224646799147353700E-16 ) ) ;
#209 = VECTOR ( 'NONE', #337, 39.37007874015748854 ) ;
#210 =( CONVERSION_BASED_UNIT ( 'INCH', #292 ) LENGTH_UNIT ( ) NAMED_UNIT ( #262 ) );
#211 =( NAMED_UNIT ( * ) SI_UNIT ( $, .STERADIAN. ) SOLID_ANGLE_UNIT ( ) );
#212 = AXIS2_PLACEMENT_3D ( 'NONE', #242, #79, #322 ) ;
#213 = EDGE_LOOP ( 'NONE', ( #277, #301, #85, #118 ) ) ;
#214 = DIRECTION ( 'NONE',  ( 1.224646799147353700E-16, 0.0000000000000000000, 1.000000000000000000 ) ) ;
#215 = CYLINDRICAL_SURFACE ( 'NONE', #212, 0.06250000000000002776 ) ;
#216 = DIRECTION ( 'NONE',  ( 1.000000000000000000, 0.0000000000000000000, 0.0000000000000000000 ) ) ;
#217 = ORIENTED_EDGE ( 'NONE', *, *, #269, .F. ) ;
#218 = UNCERTAINTY_MEASURE_WITH_UNIT (LENGTH_MEASURE( 1.000000000000000082E-05 ), #196, 'distance_accuracy_value', 'NONE');
#219 = CARTESIAN_POINT ( 'NONE',  ( 0.0000000000000000000, 0.0000000000000000000, 1.500000000000000222 ) ) ;
#220 = ORIENTED_EDGE ( 'NONE', *, *, #237, .T. ) ;
#221 = EDGE_CURVE ( 'NONE', #174, #199, #323, .T. ) ;
#222 = CARTESIAN_POINT ( 'NONE',  ( 0.06243750000000006933, 0.0000000000000000000, 0.5000000000000000000 ) ) ;
#223 = VERTEX_POINT ( 'NONE', #48 ) ;
#224 = SURFACE_STYLE_FILL_AREA ( #144 ) ;
#225 = ORIENTED_EDGE ( 'NONE', *, *, #135, .F. ) ;
#226 = AXIS2_PLACEMENT_3D ( 'NONE', #189, #296, #164 ) ;
#227 = VECTOR ( 'NONE', #341, 39.37007874015748143 ) ;
#228 = LINE ( 'NONE', #95, #209 ) ;
#229 = ORIENTED_EDGE ( 'NONE', *, *, #331, .T. ) ;
#230 = DIRECTION ( 'NONE',  ( 1.000000000000000000, 0.0000000000000000000, -0.0000000000000000000 ) ) ;
#231 = LINE ( 'NONE', #21, #227 ) ;
#232 = EDGE_CURVE ( 'NONE', #115, #223, #122, .T. ) ;
#233 = DIRECTION ( 'NONE',  ( 0.0000000000000000000, 0.0000000000000000000, 1.000000000000000000 ) ) ;
#234 = AXIS2_PLACEMENT_3D ( 'NONE', #28, #139, #216 ) ;
#235 = EDGE_CURVE ( 'NONE', #199, #149, #107, .T. ) ;
#236 = LINE ( 'NONE', #343, #22 ) ;
#237 = EDGE_CURVE ( 'NONE', #195, #199, #129, .T. ) ;
#238 = COLOUR_RGB ( '',0.7921568627450980005, 0.8196078431372548767, 0.9333333333333333481 ) ;
#239 = MECHANICAL_DESIGN_GEOMETRIC_PRESENTATION_REPRESENTATION (  '', ( #270 ), #102 ) ;
#240 = VECTOR ( 'NONE', #274, 39.37007874015748143 ) ;
#241 = SHAPE_DEFINITION_REPRESENTATION ( #156, #42 ) ;
#242 = CARTESIAN_POINT ( 'NONE',  ( 0.0000000000000000000, 0.0000000000000000000, 1.500000000000000222 ) ) ;
#243 = PRODUCT_DEFINITION_CONTEXT ( 'detailed design', #50, 'design' ) ;
#244 = DIRECTION ( 'NONE',  ( 1.000000000000000000, 0.0000000000000000000, -0.0000000000000000000 ) ) ;
#245 = SURFACE_SIDE_STYLE ('',( #224 ) ) ;
#246 = EDGE_LOOP ( 'NONE', ( #197, #252, #2, #121 ) ) ;
#247 = AXIS2_PLACEMENT_3D ( 'NONE', #327, #140, #244 ) ;
#248 = DIRECTION ( 'NONE',  ( -1.000000000000000000, 0.0000000000000000000, 0.0000000000000000000 ) ) ;
#249 = ADVANCED_FACE ( 'NONE', ( #289 ), #16, .T. ) ;
#250 = ORIENTED_EDGE ( 'NONE', *, *, #72, .T. ) ;
#251 = SURFACE_STYLE_USAGE ( .BOTH. , #245 ) ;
#252 = ORIENTED_EDGE ( 'NONE', *, *, #311, .T. ) ;
#253 = CARTESIAN_POINT ( 'NONE',  ( -0.05243750000000001882, 7.034065052602612127E-18, 0.0000000000000000000 ) ) ;
#254 = ORIENTED_EDGE ( 'NONE', *, *, #130, .F. ) ;
#255 = DIRECTION ( 'NONE',  ( 0.0000000000000000000, 0.0000000000000000000, -1.000000000000000000 ) ) ;
#256 = VERTEX_POINT ( 'NONE', #339 ) ;
#257 = AXIS2_PLACEMENT_3D ( 'NONE', #32, #297, #4 ) ;
#258 = PRESENTATION_LAYER_ASSIGNMENT (  '', '', ( #158 ) ) ;
#259 = CARTESIAN_POINT ( 'NONE',  ( 6.127574818941429733E-17, 0.0000000000000000000, 0.5003544551137261154 ) ) ;
#260 = DIRECTION ( 'NONE',  ( 0.0000000000000000000, -1.000000000000000000, 0.0000000000000000000 ) ) ;
#261 = ORIENTED_EDGE ( 'NONE', *, *, #30, .T. ) ;
#262 = DIMENSIONAL_EXPONENTS ( 1.000000000000000000, 0.0000000000000000000, 0.0000000000000000000, 0.0000000000000000000, 0.0000000000000000000, 0.0000000000000000000, 0.0000000000000000000 ) ;
#263 = CARTESIAN_POINT ( 'NONE',  ( 1.224646799147353962E-18, 0.0000000000000000000, 0.01000000000000000194 ) ) ;
#264 = ADVANCED_FACE ( 'NONE', ( #204 ), #17, .T. ) ;
#265 = DIRECTION ( 'NONE',  ( -0.0000000000000000000, -0.0000000000000000000, -1.000000000000000000 ) ) ;
#266 = DIRECTION ( 'NONE',  ( 0.0000000000000000000, 0.0000000000000000000, 1.000000000000000000 ) ) ;
#267 = ADVANCED_FACE ( 'NONE', ( #207 ), #45, .F. ) ;
#268 =( LENGTH_UNIT ( ) NAMED_UNIT ( * ) SI_UNIT ( $, .METRE. ) );
#269 = EDGE_CURVE ( 'NONE', #338, #177, #326, .T. ) ;
#270 = STYLED_ITEM ( 'NONE', ( #80 ), #143 ) ;
#271 = AXIS2_PLACEMENT_3D ( 'NONE', #150, #313, #38 ) ;
#272 = CARTESIAN_POINT ( 'NONE',  ( -0.06243749999999995137, 7.650215473423624771E-18, 0.5000000000000000000 ) ) ;
#273 = AXIS2_PLACEMENT_3D ( 'NONE', #193, #141, #1 ) ;
#274 = DIRECTION ( 'NONE',  ( -1.224646799147353700E-16, -0.0000000000000000000, -1.000000000000000000 ) ) ;
#275 = FACE_OUTER_BOUND ( 'NONE', #325, .T. ) ;
#276 = FACE_OUTER_BOUND ( 'NONE', #188, .T. ) ;
#277 = ORIENTED_EDGE ( 'NONE', *, *, #202, .F. ) ;
#278 = ORIENTED_EDGE ( 'NONE', *, *, #171, .F. ) ;
#279 = AXIS2_PLACEMENT_3D ( 'NONE', #300, #77, #280 ) ;
#280 = DIRECTION ( 'NONE',  ( 1.000000000000000000, 0.0000000000000000000, 0.0000000000000000000 ) ) ;
#281 = ORIENTED_EDGE ( 'NONE', *, *, #72, .F. ) ;
#282 = FILL_AREA_STYLE_COLOUR ( '', #238 ) ;
#283 = EDGE_LOOP ( 'NONE', ( #329, #281, #132, #172 ) ) ;
#284 = CYLINDRICAL_SURFACE ( 'NONE', #336, 0.06243750000000001382 ) ;
#285 = CONICAL_SURFACE ( 'NONE', #19, 0.04750000000000064587, 0.7853981633974466137 ) ;
#286 = CIRCLE ( 'NONE', #234, 0.04750000000000064587 ) ;
#287 = DIRECTION ( 'NONE',  ( 1.000000000000000000, 0.0000000000000000000, 0.0000000000000000000 ) ) ;
#288 = DIRECTION ( 'NONE',  ( -1.000000000000000000, 1.224646799147353947E-16, 0.0000000000000000000 ) ) ;
#289 = FACE_OUTER_BOUND ( 'NONE', #168, .T. ) ;
#290 = VECTOR ( 'NONE', #59, 39.37007874015748143 ) ;
#291 = LENGTH_MEASURE_WITH_UNIT ( LENGTH_MEASURE( 0.02539999999999999897 ), #268 );
#292 = LENGTH_MEASURE_WITH_UNIT ( LENGTH_MEASURE( 0.02539999999999999897 ), #63 );
#293 = VECTOR ( 'NONE', #154, 39.37007874015748854 ) ;
#294 = EDGE_CURVE ( 'NONE', #332, #223, #157, .T. ) ;
#295 = PRESENTATION_STYLE_ASSIGNMENT (( #134 ) ) ;
#296 = DIRECTION ( 'NONE',  ( -0.0000000000000000000, -0.0000000000000000000, -1.000000000000000000 ) ) ;
#297 = DIRECTION ( 'NONE',  ( 0.0000000000000000000, 0.0000000000000000000, -1.000000000000000000 ) ) ;
#298 = EDGE_CURVE ( 'NONE', #177, #338, #49, .T. ) ;
#299 = DIRECTION ( 'NONE',  ( -1.000000000000000000, 0.0000000000000000000, 0.0000000000000000000 ) ) ;
#300 = CARTESIAN_POINT ( 'NONE',  ( 1.224646799147353770E-18, 0.0000000000000000000, 0.0000000000000000000 ) ) ;
#301 = ORIENTED_EDGE ( 'NONE', *, *, #294, .T. ) ;
#302 =( NAMED_UNIT ( * ) SI_UNIT ( $, .STERADIAN. ) SOLID_ANGLE_UNIT ( ) );
#303 = ORIENTED_EDGE ( 'NONE', *, *, #294, .F. ) ;
#304 =( NAMED_UNIT ( * ) PLANE_ANGLE_UNIT ( ) SI_UNIT ( $, .RADIAN. ) );
#305 = ORIENTED_EDGE ( 'NONE', *, *, #202, .T. ) ;
#306 = CIRCLE ( 'NONE', #184, 0.06243750000000001382 ) ;
#307 = DIRECTION ( 'NONE',  ( 1.000000000000000000, 0.0000000000000000000, 0.0000000000000000000 ) ) ;
#308 = ORIENTED_EDGE ( 'NONE', *, *, #311, .F. ) ;
#309 = ORIENTED_EDGE ( 'NONE', *, *, #315, .F. ) ;
#310 = DIRECTION ( 'NONE',  ( -1.000000000000000000, 0.0000000000000000000, 0.0000000000000000000 ) ) ;
#311 = EDGE_CURVE ( 'NONE', #200, #149, #317, .T. ) ;
#312 =( GEOMETRIC_REPRESENTATION_CONTEXT ( 3 ) GLOBAL_UNCERTAINTY_ASSIGNED_CONTEXT ( ( #82 ) ) GLOBAL_UNIT_ASSIGNED_CONTEXT ( ( #74, #344, #211 ) ) REPRESENTATION_CONTEXT ( 'NONE', 'WORKASPACE' ) );
#313 = DIRECTION ( 'NONE',  ( -1.224646799147353700E-16, -0.0000000000000000000, -1.000000000000000000 ) ) ;
#314 = DIRECTION ( 'NONE',  ( 1.224646799147353207E-16, 1.000000000000000000, -0.0000000000000000000 ) ) ;
#315 = EDGE_CURVE ( 'NONE', #149, #199, #6, .T. ) ;
#316 = CARTESIAN_POINT ( 'NONE',  ( 0.0000000000000000000, 0.0000000000000000000, 0.0000000000000000000 ) ) ;
#317 = CIRCLE ( 'NONE', #61, 0.009999999999999995004 ) ;
#318 = PRODUCT_RELATED_PRODUCT_CATEGORY ( 'part', '', ( #206 ) ) ;
#319 = DIRECTION ( 'NONE',  ( 1.000000000000000000, 0.0000000000000000000, 0.0000000000000000000 ) ) ;
#320 = DIRECTION ( 'NONE',  ( 1.000000000000000000, 0.0000000000000000000, 0.0000000000000000000 ) ) ;
#321 = EDGE_CURVE ( 'NONE', #223, #338, #231, .T. ) ;
#322 = DIRECTION ( 'NONE',  ( -1.000000000000000000, 0.0000000000000000000, 0.0000000000000000000 ) ) ;
#323 = LINE ( 'NONE', #165, #161 ) ;
#324 = AXIS2_PLACEMENT_3D ( 'NONE', #114, #255, #119 ) ;
#325 = EDGE_LOOP ( 'NONE', ( #108, #305 ) ) ;
#326 = CIRCLE ( 'NONE', #113, 0.06250000000000002776 ) ;
#327 = CARTESIAN_POINT ( 'NONE',  ( 0.0000000000000000000, 0.0000000000000000000, 1.500000000000000222 ) ) ;
#328 = CARTESIAN_POINT ( 'NONE',  ( 0.06243750000000001382, 7.646388452176288915E-18, 0.01000000000000000194 ) ) ;
#329 = ORIENTED_EDGE ( 'NONE', *, *, #340, .F. ) ;
#330 = CARTESIAN_POINT ( 'NONE',  ( 0.0000000000000000000, 0.0000000000000000000, 1.500000000000000222 ) ) ;
#331 = EDGE_CURVE ( 'NONE', #256, #115, #228, .T. ) ;
#332 = VERTEX_POINT ( 'NONE', #91 ) ;
#333 = LENGTH_MEASURE_WITH_UNIT ( LENGTH_MEASURE( 0.02539999999999999897 ), #84 );
#334 = EDGE_LOOP ( 'NONE', ( #303, #225, #229, #254 ) ) ;
#335 = AXIS2_PLACEMENT_3D ( 'NONE', #350, #214, #320 ) ;
#336 = AXIS2_PLACEMENT_3D ( 'NONE', #125, #175, #208 ) ;
#337 = DIRECTION ( 'NONE',  ( -0.7071067811865462405, 0.0000000000000000000, -0.7071067811865486830 ) ) ;
#338 = VERTEX_POINT ( 'NONE', #183 ) ;
#339 = CARTESIAN_POINT ( 'NONE',  ( -0.04750000000000064587, 0.0000000000000000000, 1.500000000000000222 ) ) ;
#340 = EDGE_CURVE ( 'NONE', #5, #177, #236, .T. ) ;
#341 = DIRECTION ( 'NONE',  ( -0.0000000000000000000, -0.0000000000000000000, -1.000000000000000000 ) ) ;
#342 = CARTESIAN_POINT ( 'NONE',  ( -0.05243750000000001882, 6.421741653028935338E-18, 0.01000000000000000021 ) ) ;
#343 = CARTESIAN_POINT ( 'NONE',  ( -0.06243749999999995137, 7.646388452176288915E-18, 0.5000000000000000000 ) ) ;
#344 =( NAMED_UNIT ( * ) PLANE_ANGLE_UNIT ( ) SI_UNIT ( $, .RADIAN. ) );
#345 = AXIS2_PLACEMENT_3D ( 'NONE', #330, #52, #86 ) ;
#346 = AXIS2_PLACEMENT_3D ( 'NONE', #98, #182, #41 ) ;
#347 = ADVANCED_FACE ( 'NONE', ( #18 ), #284, .T. ) ;
#348 = AXIS2_PLACEMENT_3D ( 'NONE', #316, #131, #319 ) ;
#349 = ORIENTED_EDGE ( 'NONE', *, *, #30, .F. ) ;
#350 = CARTESIAN_POINT ( 'NONE',  ( 6.123233995736768501E-17, 0.0000000000000000000, 0.5000000000000000000 ) ) ;
#351 = DIRECTION ( 'NONE',  ( 0.0000000000000000000, 0.0000000000000000000, -1.000000000000000000 ) ) ;
ENDSEC;
END-ISO-10303-21;
