ISO-10303-21;
HEADER;
FILE_DESCRIPTION (( 'STEP AP214' ),
    '1' );
FILE_NAME ('Micro_MRT-375-125.STEP',
    '2021-09-02T21:12:26',
    ( '' ),
    ( '' ),
    'SwSTEP 2.0',
    'SolidWorks 2020',
    '' );
FILE_SCHEMA (( 'AUTOMOTIVE_DESIGN' ));
ENDSEC;

DATA;
#1 = CIRCLE ( 'NONE', #153, 0.1231009691265261274 ) ;
#2 = AXIS2_PLACEMENT_3D ( 'NONE', #56, #224, #246 ) ;
#3 = EDGE_LOOP ( 'NONE', ( #239, #134 ) ) ;
#4 = ORIENTED_EDGE ( 'NONE', *, *, #243, .T. ) ;
#5 = PRODUCT ( 'Micro_MRT-375-125', 'Micro_MRT-375-125', '', ( #177 ) ) ;
#6 = EDGE_LOOP ( 'NONE', ( #71, #191, #262, #130 ) ) ;
#7 =( GEOMETRIC_REPRESENTATION_CONTEXT ( 3 ) GLOBAL_UNCERTAINTY_ASSIGNED_CONTEXT ( ( #64 ) ) GLOBAL_UNIT_ASSIGNED_CONTEXT ( ( #131, #216, #109 ) ) REPRESENTATION_CONTEXT ( 'NONE', 'WORKASPACE' ) );
#8 = ORIENTED_EDGE ( 'NONE', *, *, #21, .T. ) ;
#9 = ORIENTED_EDGE ( 'NONE', *, *, #218, .T. ) ;
#10 = FACE_OUTER_BOUND ( 'NONE', #3, .T. ) ;
#11 = DIRECTION ( 'NONE',  ( 1.000000000000000000, 0.0000000000000000000, 0.0000000000000000000 ) ) ;
#12 = FACE_OUTER_BOUND ( 'NONE', #151, .T. ) ;
#13 = CYLINDRICAL_SURFACE ( 'NONE', #268, 0.1875000000000000278 ) ;
#14 = SURFACE_SIDE_STYLE ('',( #266 ) ) ;
#15 = AXIS2_PLACEMENT_3D ( 'NONE', #179, #79, #140 ) ;
#16 = CIRCLE ( 'NONE', #145, 0.1875000000000000278 ) ;
#17 = CARTESIAN_POINT ( 'NONE',  ( 0.2062499999999999056, 0.0000000000000000000, 0.5748555649032173198 ) ) ;
#18 = CARTESIAN_POINT ( 'NONE',  ( 0.0000000000000000000, 0.0000000000000000000, 0.5748555649032173198 ) ) ;
#19 = DIRECTION ( 'NONE',  ( 0.0000000000000000000, 0.0000000000000000000, 1.000000000000000000 ) ) ;
#20 = AXIS2_PLACEMENT_3D ( 'NONE', #58, #229, #163 ) ;
#21 = EDGE_CURVE ( 'NONE', #27, #169, #198, .T. ) ;
#22 = FACE_OUTER_BOUND ( 'NONE', #87, .T. ) ;
#23 = DIRECTION ( 'NONE',  ( -0.0000000000000000000, -1.000000000000000000, 0.0000000000000000000 ) ) ;
#24 = APPLICATION_PROTOCOL_DEFINITION ( 'draft international standard', 'automotive_design', 1998, #189 ) ;
#25 = PRODUCT_RELATED_PRODUCT_CATEGORY ( 'part', '', ( #5 ) ) ;
#26 = MECHANICAL_DESIGN_GEOMETRIC_PRESENTATION_REPRESENTATION (  '', ( #116 ), #7 ) ;
#27 = VERTEX_POINT ( 'NONE', #44 ) ;
#28 = ADVANCED_FACE ( 'NONE', ( #29 ), #68, .T. ) ;
#29 = FACE_OUTER_BOUND ( 'NONE', #240, .T. ) ;
#30 = CONICAL_SURFACE ( 'NONE', #50, 0.2062499999999999056, 0.1745329251994259812 ) ;
#31 = CARTESIAN_POINT ( 'NONE',  ( -0.1724999999999995981, 0.0000000000000000000, 2.500000000000000000 ) ) ;
#32 = ORIENTED_EDGE ( 'NONE', *, *, #128, .T. ) ;
#33 = LINE ( 'NONE', #57, #171 ) ;
#34 = COLOUR_RGB ( '',0.7921568627450980005, 0.8196078431372548767, 0.9333333333333333481 ) ;
#35 = DIRECTION ( 'NONE',  ( 0.0000000000000000000, 1.000000000000000000, 0.0000000000000000000 ) ) ;
#36 = DIRECTION ( 'NONE',  ( -0.0000000000000000000, -1.000000000000000000, 0.0000000000000000000 ) ) ;
#37 = DIRECTION ( 'NONE',  ( 0.0000000000000000000, 0.0000000000000000000, 1.000000000000000000 ) ) ;
#38 = CARTESIAN_POINT ( 'NONE',  ( 0.1724999999999995981, 2.112515728529179297E-17, 2.500000000000000000 ) ) ;
#39 = DIRECTION ( 'NONE',  ( 1.000000000000000000, 0.0000000000000000000, 0.0000000000000000000 ) ) ;
#40 = AXIS2_PLACEMENT_3D ( 'NONE', #136, #36, #204 ) ;
#41 = SPHERICAL_SURFACE ( 'NONE', #258, 0.1249999999999999861 ) ;
#42 = SURFACE_SIDE_STYLE ('',( #66 ) ) ;
#43 = FILL_AREA_STYLE_COLOUR ( '', #90 ) ;
#44 = CARTESIAN_POINT ( 'NONE',  ( -0.1724999999999995981, 0.0000000000000000000, 2.500000000000000000 ) ) ;
#45 = CIRCLE ( 'NONE', #233, 0.1231009691265261274 ) ;
#46 = SHAPE_DEFINITION_REPRESENTATION ( #251, #84 ) ;
#47 = EDGE_LOOP ( 'NONE', ( #220, #32, #106, #172 ) ) ;
#48 = SURFACE_STYLE_USAGE ( .BOTH. , #42 ) ;
#49 = ORIENTED_EDGE ( 'NONE', *, *, #128, .F. ) ;
#50 = AXIS2_PLACEMENT_3D ( 'NONE', #125, #188, #104 ) ;
#51 = DIMENSIONAL_EXPONENTS ( 1.000000000000000000, 0.0000000000000000000, 0.0000000000000000000, 0.0000000000000000000, 0.0000000000000000000, 0.0000000000000000000, 0.0000000000000000000 ) ;
#52 = DIRECTION ( 'NONE',  ( -1.000000000000000000, 0.0000000000000000000, 0.0000000000000000000 ) ) ;
#53 = DIMENSIONAL_EXPONENTS ( 1.000000000000000000, 0.0000000000000000000, 0.0000000000000000000, 0.0000000000000000000, 0.0000000000000000000, 0.0000000000000000000, 0.0000000000000000000 ) ;
#54 = MECHANICAL_DESIGN_GEOMETRIC_PRESENTATION_REPRESENTATION (  '', ( #111 ), #155 ) ;
#55 = SPHERICAL_SURFACE ( 'NONE', #40, 0.1249999999999999861 ) ;
#56 = CARTESIAN_POINT ( 'NONE',  ( 0.0000000000000000000, 0.0000000000000000000, 2.500000000000000000 ) ) ;
#57 = CARTESIAN_POINT ( 'NONE',  ( -0.2062499999999999056, 2.525834023241415019E-17, 0.5748555649032173198 ) ) ;
#58 = CARTESIAN_POINT ( 'NONE',  ( 0.0000000000000000000, 0.0000000000000000000, 2.484999999999999432 ) ) ;
#59 = FACE_OUTER_BOUND ( 'NONE', #47, .T. ) ;
#60 = ADVANCED_FACE ( 'NONE', ( #10 ), #96, .T. ) ;
#61 = DIRECTION ( 'NONE',  ( -0.0000000000000000000, -0.0000000000000000000, -1.000000000000000000 ) ) ;
#62 = DIRECTION ( 'NONE',  ( 0.7071067811865385799, 8.659560562354823157E-17, -0.7071067811865563435 ) ) ;
#63 = DIRECTION ( 'NONE',  ( -1.000000000000000000, 0.0000000000000000000, 0.0000000000000000000 ) ) ;
#64 = UNCERTAINTY_MEASURE_WITH_UNIT (LENGTH_MEASURE( 1.000000000000000082E-05 ), #131, 'distance_accuracy_value', 'NONE');
#65 = ORIENTED_EDGE ( 'NONE', *, *, #103, .T. ) ;
#66 = SURFACE_STYLE_FILL_AREA ( #129 ) ;
#67 = ORIENTED_EDGE ( 'NONE', *, *, #243, .F. ) ;
#68 = CONICAL_SURFACE ( 'NONE', #101, 0.1724999999999995981, 0.7853981633974357335 ) ;
#69 = ORIENTED_EDGE ( 'NONE', *, *, #112, .T. ) ;
#70 = VERTEX_POINT ( 'NONE', #227 ) ;
#71 = ORIENTED_EDGE ( 'NONE', *, *, #265, .F. ) ;
#72 = PRODUCT_DEFINITION ( 'UNKNOWN', '', #214, #127 ) ;
#73 = CIRCLE ( 'NONE', #221, 0.1875000000000000278 ) ;
#74 = DIRECTION ( 'NONE',  ( -0.0000000000000000000, -0.0000000000000000000, 1.000000000000000000 ) ) ;
#75 =( CONVERSION_BASED_UNIT ( 'INCH', #203 ) LENGTH_UNIT ( ) NAMED_UNIT ( #51 ) );
#76 = EDGE_CURVE ( 'NONE', #170, #93, #272, .T. ) ;
#77 = CIRCLE ( 'NONE', #183, 0.1250000000000000000 ) ;
#78 = CIRCLE ( 'NONE', #105, 0.1724999999999995981 ) ;
#79 = DIRECTION ( 'NONE',  ( 0.0000000000000000000, 0.0000000000000000000, 1.000000000000000000 ) ) ;
#80 =( NAMED_UNIT ( * ) SI_UNIT ( $, .STERADIAN. ) SOLID_ANGLE_UNIT ( ) );
#81 = FACE_OUTER_BOUND ( 'NONE', #237, .T. ) ;
#82 = DIRECTION ( 'NONE',  ( -0.0000000000000000000, -0.0000000000000000000, -1.000000000000000000 ) ) ;
#83 = CARTESIAN_POINT ( 'NONE',  ( -0.1875000000000000278, 0.0000000000000000000, 2.484999999999999432 ) ) ;
#84 = ADVANCED_BREP_SHAPE_REPRESENTATION ( 'Micro_MRT-375-125', ( #139, #161 ), #235 ) ;
#85 = DIRECTION ( 'NONE',  ( 1.000000000000000000, 0.0000000000000000000, 0.0000000000000000000 ) ) ;
#86 = VERTEX_POINT ( 'NONE', #185 ) ;
#87 = EDGE_LOOP ( 'NONE', ( #176, #92, #8, #148 ) ) ;
#88 = APPLICATION_PROTOCOL_DEFINITION ( 'draft international standard', 'automotive_design', 1998, #175 ) ;
#89 = ORIENTED_EDGE ( 'NONE', *, *, #270, .F. ) ;
#90 = COLOUR_RGB ( '',0.7921568627450980005, 0.8196078431372548767, 0.9333333333333333481 ) ;
#91 = CARTESIAN_POINT ( 'NONE',  ( 0.0000000000000000000, 0.0000000000000000000, 0.0000000000000000000 ) ) ;
#92 = ORIENTED_EDGE ( 'NONE', *, *, #118, .F. ) ;
#93 = VERTEX_POINT ( 'NONE', #94 ) ;
#94 = CARTESIAN_POINT ( 'NONE',  ( 0.1231009691265261274, 0.0000000000000000000, 0.1032939777916345031 ) ) ;
#95 =( NAMED_UNIT ( * ) PLANE_ANGLE_UNIT ( ) SI_UNIT ( $, .RADIAN. ) );
#96 = PLANE ( 'NONE',  #2 ) ;
#97 = CIRCLE ( 'NONE', #15, 0.1724999999999995981 ) ;
#98 = LENGTH_MEASURE_WITH_UNIT ( LENGTH_MEASURE( 0.02539999999999999897 ), #212 );
#99 = DIRECTION ( 'NONE',  ( -0.0000000000000000000, -0.0000000000000000000, 1.000000000000000000 ) ) ;
#100 = LINE ( 'NONE', #17, #210 ) ;
#101 = AXIS2_PLACEMENT_3D ( 'NONE', #110, #199, #113 ) ;
#102 = CONICAL_SURFACE ( 'NONE', #241, 0.2062499999999999056, 0.1745329251994259812 ) ;
#103 = EDGE_CURVE ( 'NONE', #257, #86, #33, .T. ) ;
#104 = DIRECTION ( 'NONE',  ( 1.000000000000000000, 0.0000000000000000000, 0.0000000000000000000 ) ) ;
#105 = AXIS2_PLACEMENT_3D ( 'NONE', #274, #19, #164 ) ;
#106 = ORIENTED_EDGE ( 'NONE', *, *, #270, .T. ) ;
#107 = ADVANCED_FACE ( 'NONE', ( #200 ), #182, .T. ) ;
#108 = ORIENTED_EDGE ( 'NONE', *, *, #112, .F. ) ;
#109 =( NAMED_UNIT ( * ) SI_UNIT ( $, .STERADIAN. ) SOLID_ANGLE_UNIT ( ) );
#110 = CARTESIAN_POINT ( 'NONE',  ( 0.0000000000000000000, 0.0000000000000000000, 2.500000000000000000 ) ) ;
#111 = STYLED_ITEM ( 'NONE', ( #158 ), #139 ) ;
#112 = EDGE_CURVE ( 'NONE', #170, #257, #77, .T. ) ;
#113 = DIRECTION ( 'NONE',  ( -1.000000000000000000, 0.0000000000000000000, 0.0000000000000000000 ) ) ;
#114 = DIRECTION ( 'NONE',  ( -0.1736481776669234756, 2.126576849575687482E-17, 0.9848077530122092416 ) ) ;
#115 = CARTESIAN_POINT ( 'NONE',  ( 0.0000000000000000000, 0.0000000000000000000, 0.1250000000000000000 ) ) ;
#116 = STYLED_ITEM ( 'NONE', ( #194 ), #84 ) ;
#117 = DIRECTION ( 'NONE',  ( 0.0000000000000000000, 0.0000000000000000000, -1.000000000000000000 ) ) ;
#118 = EDGE_CURVE ( 'NONE', #27, #217, #97, .T. ) ;
#119 = FACE_OUTER_BOUND ( 'NONE', #6, .T. ) ;
#120 = CARTESIAN_POINT ( 'NONE',  ( 0.0000000000000000000, 0.0000000000000000000, 0.1032939777916345031 ) ) ;
#121 = PRESENTATION_LAYER_ASSIGNMENT (  '', '', ( #111 ) ) ;
#122 = DIRECTION ( 'NONE',  ( 0.0000000000000000000, 0.0000000000000000000, -1.000000000000000000 ) ) ;
#123 = EDGE_CURVE ( 'NONE', #70, #86, #166, .T. ) ;
#124 = CARTESIAN_POINT ( 'NONE',  ( 0.0000000000000000000, 0.0000000000000000000, 2.500000000000000000 ) ) ;
#125 = CARTESIAN_POINT ( 'NONE',  ( 0.0000000000000000000, 0.0000000000000000000, 0.5748555649032173198 ) ) ;
#126 = CARTESIAN_POINT ( 'NONE',  ( 0.1875000000000000278, 2.296212748401287726E-17, 2.500000000000000000 ) ) ;
#127 = PRODUCT_DEFINITION_CONTEXT ( 'detailed design', #189, 'design' ) ;
#128 = EDGE_CURVE ( 'NONE', #257, #93, #1, .T. ) ;
#129 = FILL_AREA_STYLE ('',( #43 ) ) ;
#130 = ORIENTED_EDGE ( 'NONE', *, *, #123, .F. ) ;
#131 =( CONVERSION_BASED_UNIT ( 'INCH', #254 ) LENGTH_UNIT ( ) NAMED_UNIT ( #192 ) );
#132 = DIRECTION ( 'NONE',  ( -0.7071067811865385799, 0.0000000000000000000, -0.7071067811865563435 ) ) ;
#133 = ORIENTED_EDGE ( 'NONE', *, *, #76, .T. ) ;
#134 = ORIENTED_EDGE ( 'NONE', *, *, #208, .T. ) ;
#135 = CARTESIAN_POINT ( 'NONE',  ( 0.0000000000000000000, 0.0000000000000000000, 2.500000000000000000 ) ) ;
#136 = CARTESIAN_POINT ( 'NONE',  ( 0.0000000000000000000, 0.0000000000000000000, 0.1250000000000000000 ) ) ;
#137 = DIRECTION ( 'NONE',  ( 1.000000000000000000, -1.224646799147353207E-16, 0.0000000000000000000 ) ) ;
#138 = EDGE_CURVE ( 'NONE', #93, #257, #45, .T. ) ;
#139 = MANIFOLD_SOLID_BREP ( 'Cut-Revolve1', #197 ) ;
#140 = DIRECTION ( 'NONE',  ( 1.000000000000000000, 0.0000000000000000000, 0.0000000000000000000 ) ) ;
#141 = VECTOR ( 'NONE', #82, 39.37007874015748143 ) ;
#142 = CARTESIAN_POINT ( 'NONE',  ( -7.654042494670956004E-18, 0.0000000000000000000, 1.707404996040164512E-17 ) ) ;
#143 = CARTESIAN_POINT ( 'NONE',  ( 0.0000000000000000000, 0.0000000000000000000, 0.4685190307853814295 ) ) ;
#144 = FACE_OUTER_BOUND ( 'NONE', #152, .T. ) ;
#145 = AXIS2_PLACEMENT_3D ( 'NONE', #252, #271, #207 ) ;
#146 = CARTESIAN_POINT ( 'NONE',  ( -0.1875000000000000278, 0.0000000000000000000, 2.500000000000000000 ) ) ;
#147 = ORIENTED_EDGE ( 'NONE', *, *, #208, .F. ) ;
#148 = ORIENTED_EDGE ( 'NONE', *, *, #250, .F. ) ;
#149 = ORIENTED_EDGE ( 'NONE', *, *, #218, .F. ) ;
#150 = ADVANCED_FACE ( 'NONE', ( #12 ), #55, .T. ) ;
#151 = EDGE_LOOP ( 'NONE', ( #108, #133, #49 ) ) ;
#152 = EDGE_LOOP ( 'NONE', ( #195, #69, #219 ) ) ;
#153 = AXIS2_PLACEMENT_3D ( 'NONE', #120, #181, #242 ) ;
#154 = AXIS2_PLACEMENT_3D ( 'NONE', #201, #117, #264 ) ;
#155 =( GEOMETRIC_REPRESENTATION_CONTEXT ( 3 ) GLOBAL_UNCERTAINTY_ASSIGNED_CONTEXT ( ( #193 ) ) GLOBAL_UNIT_ASSIGNED_CONTEXT ( ( #75, #95, #156 ) ) REPRESENTATION_CONTEXT ( 'NONE', 'WORKASPACE' ) );
#156 =( NAMED_UNIT ( * ) SI_UNIT ( $, .STERADIAN. ) SOLID_ANGLE_UNIT ( ) );
#157 = AXIS2_PLACEMENT_3D ( 'NONE', #135, #226, #52 ) ;
#158 = PRESENTATION_STYLE_ASSIGNMENT (( #180 ) ) ;
#159 = ADVANCED_FACE ( 'NONE', ( #119 ), #13, .T. ) ;
#160 = FILL_AREA_STYLE_COLOUR ( '', #34 ) ;
#161 = AXIS2_PLACEMENT_3D ( 'NONE', #91, #213, #174 ) ;
#162 = DIRECTION ( 'NONE',  ( 0.1736481776669234756, 0.0000000000000000000, 0.9848077530122092416 ) ) ;
#163 = DIRECTION ( 'NONE',  ( 1.000000000000000000, 0.0000000000000000000, 0.0000000000000000000 ) ) ;
#164 = DIRECTION ( 'NONE',  ( 1.000000000000000000, 0.0000000000000000000, 0.0000000000000000000 ) ) ;
#165 = CARTESIAN_POINT ( 'NONE',  ( 0.1724999999999995981, 2.204364238465233357E-17, 2.500000000000000000 ) ) ;
#166 = CIRCLE ( 'NONE', #154, 0.1875000000000000278 ) ;
#167 = CONICAL_SURFACE ( 'NONE', #228, 0.1724999999999995981, 0.7853981633974357335 ) ;
#168 =( LENGTH_UNIT ( ) NAMED_UNIT ( * ) SI_UNIT ( $, .METRE. ) );
#169 = VERTEX_POINT ( 'NONE', #83 ) ;
#170 = VERTEX_POINT ( 'NONE', #142 ) ;
#171 = VECTOR ( 'NONE', #114, 39.37007874015748143 ) ;
#172 = ORIENTED_EDGE ( 'NONE', *, *, #123, .T. ) ;
#173 = VECTOR ( 'NONE', #61, 39.37007874015748143 ) ;
#174 = DIRECTION ( 'NONE',  ( 1.000000000000000000, 0.0000000000000000000, 0.0000000000000000000 ) ) ;
#175 = APPLICATION_CONTEXT ( 'automotive_design' ) ;
#176 = ORIENTED_EDGE ( 'NONE', *, *, #232, .F. ) ;
#177 = PRODUCT_CONTEXT ( 'NONE', #175, 'mechanical' ) ;
#178 = ORIENTED_EDGE ( 'NONE', *, *, #265, .T. ) ;
#179 = CARTESIAN_POINT ( 'NONE',  ( 0.0000000000000000000, 0.0000000000000000000, 2.500000000000000000 ) ) ;
#180 = SURFACE_STYLE_USAGE ( .BOTH. , #14 ) ;
#181 = DIRECTION ( 'NONE',  ( -0.0000000000000000000, -0.0000000000000000000, 1.000000000000000000 ) ) ;
#182 = CYLINDRICAL_SURFACE ( 'NONE', #157, 0.1875000000000000278 ) ;
#183 = AXIS2_PLACEMENT_3D ( 'NONE', #115, #35, #37 ) ;
#184 = VECTOR ( 'NONE', #62, 39.37007874015748854 ) ;
#185 = CARTESIAN_POINT ( 'NONE',  ( -0.1875000000000000278, 0.0000000000000000000, 0.4685190307853814295 ) ) ;
#186 = CARTESIAN_POINT ( 'NONE',  ( -0.1231009691265261274, 1.901882413264330338E-17, 0.1032939777916345031 ) ) ;
#187 =( CONVERSION_BASED_UNIT ( 'INCH', #98 ) LENGTH_UNIT ( ) NAMED_UNIT ( #53 ) );
#188 = DIRECTION ( 'NONE',  ( -0.0000000000000000000, -0.0000000000000000000, 1.000000000000000000 ) ) ;
#189 = APPLICATION_CONTEXT ( 'automotive_design' ) ;
#190 = CARTESIAN_POINT ( 'NONE',  ( 0.1875000000000000278, 2.296212748401287726E-17, 2.484999999999999432 ) ) ;
#191 = ORIENTED_EDGE ( 'NONE', *, *, #250, .T. ) ;
#192 = DIMENSIONAL_EXPONENTS ( 1.000000000000000000, 0.0000000000000000000, 0.0000000000000000000, 0.0000000000000000000, 0.0000000000000000000, 0.0000000000000000000, 0.0000000000000000000 ) ;
#193 = UNCERTAINTY_MEASURE_WITH_UNIT (LENGTH_MEASURE( 1.000000000000000082E-05 ), #75, 'distance_accuracy_value', 'NONE');
#194 = PRESENTATION_STYLE_ASSIGNMENT (( #48 ) ) ;
#195 = ORIENTED_EDGE ( 'NONE', *, *, #76, .F. ) ;
#196 = EDGE_CURVE ( 'NONE', #169, #86, #247, .T. ) ;
#197 = CLOSED_SHELL ( 'NONE', ( #150, #222, #28, #107, #159, #60, #261, #236, #256 ) ) ;
#198 = LINE ( 'NONE', #31, #202 ) ;
#199 = DIRECTION ( 'NONE',  ( 0.0000000000000000000, 0.0000000000000000000, -1.000000000000000000 ) ) ;
#200 = FACE_OUTER_BOUND ( 'NONE', #223, .T. ) ;
#201 = CARTESIAN_POINT ( 'NONE',  ( 0.0000000000000000000, 0.0000000000000000000, 0.4685190307853814295 ) ) ;
#202 = VECTOR ( 'NONE', #132, 39.37007874015748854 ) ;
#203 = LENGTH_MEASURE_WITH_UNIT ( LENGTH_MEASURE( 0.02539999999999999897 ), #269 );
#204 = DIRECTION ( 'NONE',  ( -1.000000000000000000, 0.0000000000000000000, 0.0000000000000000000 ) ) ;
#205 = CARTESIAN_POINT ( 'NONE',  ( 0.0000000000000000000, 0.0000000000000000000, 0.1032939777916345031 ) ) ;
#206 = DIRECTION ( 'NONE',  ( -0.0000000000000000000, -0.0000000000000000000, -1.000000000000000000 ) ) ;
#207 = DIRECTION ( 'NONE',  ( 1.000000000000000000, 0.0000000000000000000, 0.0000000000000000000 ) ) ;
#208 = EDGE_CURVE ( 'NONE', #217, #27, #78, .T. ) ;
#209 = CARTESIAN_POINT ( 'NONE',  ( 0.0000000000000000000, 0.0000000000000000000, 2.500000000000000000 ) ) ;
#210 = VECTOR ( 'NONE', #162, 39.37007874015748143 ) ;
#211 = LINE ( 'NONE', #38, #184 ) ;
#212 =( LENGTH_UNIT ( ) NAMED_UNIT ( * ) SI_UNIT ( $, .METRE. ) );
#213 = DIRECTION ( 'NONE',  ( 0.0000000000000000000, 0.0000000000000000000, 1.000000000000000000 ) ) ;
#214 = PRODUCT_DEFINITION_FORMATION_WITH_SPECIFIED_SOURCE ( 'ANY', '', #5, .NOT_KNOWN. ) ;
#215 = ORIENTED_EDGE ( 'NONE', *, *, #196, .F. ) ;
#216 =( NAMED_UNIT ( * ) PLANE_ANGLE_UNIT ( ) SI_UNIT ( $, .RADIAN. ) );
#217 = VERTEX_POINT ( 'NONE', #165 ) ;
#218 = EDGE_CURVE ( 'NONE', #169, #238, #16, .T. ) ;
#219 = ORIENTED_EDGE ( 'NONE', *, *, #138, .F. ) ;
#220 = ORIENTED_EDGE ( 'NONE', *, *, #103, .F. ) ;
#221 = AXIS2_PLACEMENT_3D ( 'NONE', #143, #230, #39 ) ;
#222 = ADVANCED_FACE ( 'NONE', ( #81 ), #30, .T. ) ;
#223 = EDGE_LOOP ( 'NONE', ( #9, #178, #67, #215 ) ) ;
#224 = DIRECTION ( 'NONE',  ( 0.0000000000000000000, 0.0000000000000000000, 1.000000000000000000 ) ) ;
#225 = CARTESIAN_POINT ( 'NONE',  ( 0.0000000000000000000, 0.0000000000000000000, 0.1250000000000000000 ) ) ;
#226 = DIRECTION ( 'NONE',  ( -0.0000000000000000000, -0.0000000000000000000, -1.000000000000000000 ) ) ;
#227 = CARTESIAN_POINT ( 'NONE',  ( 0.1875000000000000278, 2.296212748401287726E-17, 0.4685190307853814295 ) ) ;
#228 = AXIS2_PLACEMENT_3D ( 'NONE', #124, #122, #275 ) ;
#229 = DIRECTION ( 'NONE',  ( 0.0000000000000000000, 0.0000000000000000000, -1.000000000000000000 ) ) ;
#230 = DIRECTION ( 'NONE',  ( 0.0000000000000000000, 0.0000000000000000000, -1.000000000000000000 ) ) ;
#231 =( NAMED_UNIT ( * ) PLANE_ANGLE_UNIT ( ) SI_UNIT ( $, .RADIAN. ) );
#232 = EDGE_CURVE ( 'NONE', #217, #238, #211, .T. ) ;
#233 = AXIS2_PLACEMENT_3D ( 'NONE', #205, #74, #11 ) ;
#234 = UNCERTAINTY_MEASURE_WITH_UNIT (LENGTH_MEASURE( 1.000000000000000082E-05 ), #187, 'distance_accuracy_value', 'NONE');
#235 =( GEOMETRIC_REPRESENTATION_CONTEXT ( 3 ) GLOBAL_UNCERTAINTY_ASSIGNED_CONTEXT ( ( #234 ) ) GLOBAL_UNIT_ASSIGNED_CONTEXT ( ( #187, #231, #80 ) ) REPRESENTATION_CONTEXT ( 'NONE', 'WORKASPACE' ) );
#236 = ADVANCED_FACE ( 'NONE', ( #59 ), #102, .T. ) ;
#237 = EDGE_LOOP ( 'NONE', ( #259, #65, #4, #89 ) ) ;
#238 = VERTEX_POINT ( 'NONE', #190 ) ;
#239 = ORIENTED_EDGE ( 'NONE', *, *, #118, .T. ) ;
#240 = EDGE_LOOP ( 'NONE', ( #147, #255, #149, #260 ) ) ;
#241 = AXIS2_PLACEMENT_3D ( 'NONE', #18, #99, #85 ) ;
#242 = DIRECTION ( 'NONE',  ( 1.000000000000000000, 0.0000000000000000000, 0.0000000000000000000 ) ) ;
#243 = EDGE_CURVE ( 'NONE', #86, #70, #73, .T. ) ;
#244 = PRESENTATION_LAYER_ASSIGNMENT (  '', '', ( #116 ) ) ;
#245 = DIRECTION ( 'NONE',  ( -1.224646799147353207E-16, -1.000000000000000000, -0.0000000000000000000 ) ) ;
#246 = DIRECTION ( 'NONE',  ( 1.000000000000000000, 0.0000000000000000000, -0.0000000000000000000 ) ) ;
#247 = LINE ( 'NONE', #146, #141 ) ;
#248 = DIRECTION ( 'NONE',  ( -1.000000000000000000, 0.0000000000000000000, 0.0000000000000000000 ) ) ;
#249 = LINE ( 'NONE', #126, #173 ) ;
#250 = EDGE_CURVE ( 'NONE', #238, #169, #273, .T. ) ;
#251 = PRODUCT_DEFINITION_SHAPE ( 'NONE', 'NONE',  #72 ) ;
#252 = CARTESIAN_POINT ( 'NONE',  ( 0.0000000000000000000, 0.0000000000000000000, 2.484999999999999432 ) ) ;
#253 = CARTESIAN_POINT ( 'NONE',  ( 0.0000000000000000000, 0.0000000000000000000, 0.1250000000000000000 ) ) ;
#254 = LENGTH_MEASURE_WITH_UNIT ( LENGTH_MEASURE( 0.02539999999999999897 ), #168 );
#255 = ORIENTED_EDGE ( 'NONE', *, *, #232, .T. ) ;
#256 = ADVANCED_FACE ( 'NONE', ( #144 ), #41, .T. ) ;
#257 = VERTEX_POINT ( 'NONE', #186 ) ;
#258 = AXIS2_PLACEMENT_3D ( 'NONE', #253, #23, #63 ) ;
#259 = ORIENTED_EDGE ( 'NONE', *, *, #138, .T. ) ;
#260 = ORIENTED_EDGE ( 'NONE', *, *, #21, .F. ) ;
#261 = ADVANCED_FACE ( 'NONE', ( #22 ), #167, .T. ) ;
#262 = ORIENTED_EDGE ( 'NONE', *, *, #196, .T. ) ;
#263 = AXIS2_PLACEMENT_3D ( 'NONE', #225, #245, #137 ) ;
#264 = DIRECTION ( 'NONE',  ( 1.000000000000000000, 0.0000000000000000000, 0.0000000000000000000 ) ) ;
#265 = EDGE_CURVE ( 'NONE', #238, #70, #249, .T. ) ;
#266 = SURFACE_STYLE_FILL_AREA ( #267 ) ;
#267 = FILL_AREA_STYLE ('',( #160 ) ) ;
#268 = AXIS2_PLACEMENT_3D ( 'NONE', #209, #206, #248 ) ;
#269 =( LENGTH_UNIT ( ) NAMED_UNIT ( * ) SI_UNIT ( $, .METRE. ) );
#270 = EDGE_CURVE ( 'NONE', #93, #70, #100, .T. ) ;
#271 = DIRECTION ( 'NONE',  ( 0.0000000000000000000, 0.0000000000000000000, -1.000000000000000000 ) ) ;
#272 = CIRCLE ( 'NONE', #263, 0.1249999999999999861 ) ;
#273 = CIRCLE ( 'NONE', #20, 0.1875000000000000278 ) ;
#274 = CARTESIAN_POINT ( 'NONE',  ( 0.0000000000000000000, 0.0000000000000000000, 2.500000000000000000 ) ) ;
#275 = DIRECTION ( 'NONE',  ( -1.000000000000000000, 0.0000000000000000000, 0.0000000000000000000 ) ) ;
ENDSEC;
END-ISO-10303-21;
