ISO-10303-21;
HEADER;
FILE_DESCRIPTION (( 'STEP AP214' ),
    '1' );
FILE_NAME ('17332.STEP',
    '2023-06-30T21:53:33',
    ( '' ),
    ( '' ),
    'SwSTEP 2.0',
    'SolidWorks 2023',
    '' );
FILE_SCHEMA (( 'AUTOMOTIVE_DESIGN' ));
ENDSEC;

DATA;
#1 = UNCERTAINTY_MEASURE_WITH_UNIT (LENGTH_MEASURE( 1.000000000000000082E-05 ), #5, 'distance_accuracy_value', 'NONE');
#2 = AXIS2_PLACEMENT_3D ( 'NONE', #42, #348, #91 ) ;
#3 = CARTESIAN_POINT ( 'NONE',  ( 0.000000000000000000, 0.1875000000000000555, 0.000000000000000000 ) ) ;
#4 = CIRCLE ( 'NONE', #373, 0.1874999999999999722 ) ;
#5 =( CONVERSION_BASED_UNIT ( 'INCH', #143 ) LENGTH_UNIT ( ) NAMED_UNIT ( #340 ) );
#6 = ORIENTED_EDGE ( 'NONE', *, *, #233, .F. ) ;
#7 = DIMENSIONAL_EXPONENTS ( 1.000000000000000000, 0.000000000000000000, 0.000000000000000000, 0.000000000000000000, 0.000000000000000000, 0.000000000000000000, 0.000000000000000000 ) ;
#8 = VERTEX_POINT ( 'NONE', #124 ) ;
#9 =( CONVERSION_BASED_UNIT ( 'INCH', #354 ) LENGTH_UNIT ( ) NAMED_UNIT ( #362 ) );
#10 = STYLED_ITEM ( 'NONE', ( #289 ), #342 ) ;
#11 = AXIS2_PLACEMENT_3D ( 'NONE', #358, #98, #145 ) ;
#12 = ORIENTED_EDGE ( 'NONE', *, *, #135, .F. ) ;
#13 = ORIENTED_EDGE ( 'NONE', *, *, #61, .F. ) ;
#14 = DIRECTION ( 'NONE',  ( -1.000000000000000000, 0.000000000000000000, 0.000000000000000000 ) ) ;
#15 = EDGE_CURVE ( 'NONE', #43, #177, #318, .T. ) ;
#16 = ORIENTED_EDGE ( 'NONE', *, *, #176, .F. ) ;
#17 = CARTESIAN_POINT ( 'NONE',  ( 0.000000000000000000, 0.1875000000000000555, 0.000000000000000000 ) ) ;
#18 = UNCERTAINTY_MEASURE_WITH_UNIT (LENGTH_MEASURE( 1.000000000000000082E-05 ), #60, 'distance_accuracy_value', 'NONE');
#19 = FACE_OUTER_BOUND ( 'NONE', #256, .T. ) ;
#20 = SURFACE_SIDE_STYLE ('',( #50 ) ) ;
#21 = PRESENTATION_LAYER_ASSIGNMENT (  '', '', ( #325 ) ) ;
#22 = CARTESIAN_POINT ( 'NONE',  ( -2.296212748401287726E-17, 0.1875000000000000278, 0.000000000000000000 ) ) ;
#23 = DIRECTION ( 'NONE',  ( 1.000000000000000000, 0.000000000000000000, 0.000000000000000000 ) ) ;
#24 = DIRECTION ( 'NONE',  ( -0.000000000000000000, -1.000000000000000000, -0.000000000000000000 ) ) ;
#25 = COLOUR_RGB ( '',1.000000000000000000, 0.000000000000000000, 0.000000000000000000 ) ;
#26 = SURFACE_STYLE_FILL_AREA ( #105 ) ;
#27 = SURFACE_STYLE_FILL_AREA ( #368 ) ;
#28 = PLANE ( 'NONE',  #250 ) ;
#29 = ADVANCED_FACE ( 'NONE', ( #19 ), #157, .T. ) ;
#30 = DIRECTION ( 'NONE',  ( 1.224646799147353207E-16, -0.000000000000000000, 1.000000000000000000 ) ) ;
#31 = FACE_OUTER_BOUND ( 'NONE', #94, .T. ) ;
#32 = CARTESIAN_POINT ( 'NONE',  ( 0.000000000000000000, 0.1875000000000000555, 0.000000000000000000 ) ) ;
#33 = COLOUR_RGB ( '',1.000000000000000000, 0.000000000000000000, 0.000000000000000000 ) ;
#34 = EDGE_CURVE ( 'NONE', #317, #148, #372, .T. ) ;
#35 = PRESENTATION_LAYER_ASSIGNMENT (  '', '', ( #54 ) ) ;
#36 = SURFACE_SIDE_STYLE ('',( #144 ) ) ;
#37 = SHAPE_DEFINITION_REPRESENTATION ( #72, #231 ) ;
#38 = ORIENTED_EDGE ( 'NONE', *, *, #156, .T. ) ;
#39 = EDGE_CURVE ( 'NONE', #301, #63, #189, .T. ) ;
#40 =( GEOMETRIC_REPRESENTATION_CONTEXT ( 3 ) GLOBAL_UNCERTAINTY_ASSIGNED_CONTEXT ( ( #18 ) ) GLOBAL_UNIT_ASSIGNED_CONTEXT ( ( #60, #217, #332 ) ) REPRESENTATION_CONTEXT ( 'NONE', 'WORKASPACE' ) );
#41 =( NAMED_UNIT ( * ) SI_UNIT ( $, .STERADIAN. ) SOLID_ANGLE_UNIT ( ) );
#42 = CARTESIAN_POINT ( 'NONE',  ( 6.123233995736766036E-17, 2.000000000000000000, 0.000000000000000000 ) ) ;
#43 = VERTEX_POINT ( 'NONE', #213 ) ;
#44 =( NAMED_UNIT ( * ) PLANE_ANGLE_UNIT ( ) SI_UNIT ( $, .RADIAN. ) );
#45 = SURFACE_STYLE_FILL_AREA ( #209 ) ;
#46 = DIMENSIONAL_EXPONENTS ( 1.000000000000000000, 0.000000000000000000, 0.000000000000000000, 0.000000000000000000, 0.000000000000000000, 0.000000000000000000, 0.000000000000000000 ) ;
#47 = EDGE_LOOP ( 'NONE', ( #236, #52 ) ) ;
#48 = FILL_AREA_STYLE ('',( #74 ) ) ;
#49 = ORIENTED_EDGE ( 'NONE', *, *, #96, .F. ) ;
#50 = SURFACE_STYLE_FILL_AREA ( #147 ) ;
#51 = COLOUR_RGB ( '',0.7921568627450980005, 0.8196078431372548767, 0.9333333333333333481 ) ;
#52 = ORIENTED_EDGE ( 'NONE', *, *, #39, .F. ) ;
#53 =( NAMED_UNIT ( * ) SI_UNIT ( $, .STERADIAN. ) SOLID_ANGLE_UNIT ( ) );
#54 = STYLED_ITEM ( 'NONE', ( #200 ), #29 ) ;
#55 = CARTESIAN_POINT ( 'NONE',  ( 2.436025946710576543E-16, 0.5000000000000000000, 0.000000000000000000 ) ) ;
#56 = CARTESIAN_POINT ( 'NONE',  ( -2.296212748401287726E-17, 0.1875000000000000278, 0.000000000000000000 ) ) ;
#57 =( LENGTH_UNIT ( ) NAMED_UNIT ( * ) SI_UNIT ( $, .METRE. ) );
#58 = CIRCLE ( 'NONE', #212, 0.1874999999999999722 ) ;
#59 = DIRECTION ( 'NONE',  ( -1.215801698091266626E-16, 1.000000000000000000, -0.000000000000000000 ) ) ;
#60 =( CONVERSION_BASED_UNIT ( 'INCH', #247 ) LENGTH_UNIT ( ) NAMED_UNIT ( #262 ) );
#61 = EDGE_CURVE ( 'NONE', #100, #148, #117, .T. ) ;
#62 = PRODUCT_CONTEXT ( 'NONE', #138, 'mechanical' ) ;
#63 = VERTEX_POINT ( 'NONE', #239 ) ;
#64 = FILL_AREA_STYLE_COLOUR ( '', #51 ) ;
#65 = VERTEX_POINT ( 'NONE', #271 ) ;
#66 = PRESENTATION_LAYER_ASSIGNMENT (  '', '', ( #219 ) ) ;
#67 = CLOSED_SHELL ( 'NONE', ( #206, #164, #252, #269, #29 ) ) ;
#68 = CARTESIAN_POINT ( 'NONE',  ( 2.296212748401286493E-17, 0.5000000000000000000, 0.1874999999999999445 ) ) ;
#69 = ORIENTED_EDGE ( 'NONE', *, *, #75, .F. ) ;
#70 = ORIENTED_EDGE ( 'NONE', *, *, #156, .F. ) ;
#71 =( NAMED_UNIT ( * ) SI_UNIT ( $, .STERADIAN. ) SOLID_ANGLE_UNIT ( ) );
#72 = PRODUCT_DEFINITION_SHAPE ( 'NONE', 'NONE',  #211 ) ;
#73 = ORIENTED_EDGE ( 'NONE', *, *, #198, .T. ) ;
#74 = FILL_AREA_STYLE_COLOUR ( '', #25 ) ;
#75 = EDGE_CURVE ( 'NONE', #119, #177, #359, .T. ) ;
#76 = ORIENTED_EDGE ( 'NONE', *, *, #176, .T. ) ;
#77 = SURFACE_STYLE_USAGE ( .BOTH. , #234 ) ;
#78 = LENGTH_MEASURE_WITH_UNIT ( LENGTH_MEASURE( 0.02539999999999999897 ), #339 );
#79 = UNCERTAINTY_MEASURE_WITH_UNIT (LENGTH_MEASURE( 1.000000000000000082E-05 ), #313, 'distance_accuracy_value', 'NONE');
#80 = LINE ( 'NONE', #304, #275 ) ;
#81 = DIRECTION ( 'NONE',  ( -0.000000000000000000, -1.000000000000000000, -0.000000000000000000 ) ) ;
#82 = EDGE_CURVE ( 'NONE', #63, #129, #244, .T. ) ;
#83 =( GEOMETRIC_REPRESENTATION_CONTEXT ( 3 ) GLOBAL_UNCERTAINTY_ASSIGNED_CONTEXT ( ( #1 ) ) GLOBAL_UNIT_ASSIGNED_CONTEXT ( ( #5, #118, #226 ) ) REPRESENTATION_CONTEXT ( 'NONE', 'WORKASPACE' ) );
#84 = COLOUR_RGB ( '',1.000000000000000000, 0.000000000000000000, 0.000000000000000000 ) ;
#85 = DIRECTION ( 'NONE',  ( 1.000000000000000000, 0.000000000000000000, 0.000000000000000000 ) ) ;
#86 = SPHERICAL_SURFACE ( 'NONE', #122, 0.1875000000000000278 ) ;
#87 = PRESENTATION_STYLE_ASSIGNMENT (( #112 ) ) ;
#88 = DIRECTION ( 'NONE',  ( 1.000000000000000000, 1.215801698091266626E-16, 0.000000000000000000 ) ) ;
#89 = CARTESIAN_POINT ( 'NONE',  ( 0.000000000000000000, 0.000000000000000000, 0.000000000000000000 ) ) ;
#90 = ADVANCED_FACE ( 'NONE', ( #365 ), #338, .F. ) ;
#91 = DIRECTION ( 'NONE',  ( -1.000000000000000000, 0.000000000000000000, 0.000000000000000000 ) ) ;
#92 = MECHANICAL_DESIGN_GEOMETRIC_PRESENTATION_REPRESENTATION (  '', ( #219 ), #223 ) ;
#93 = MANIFOLD_SOLID_BREP ( 'Revolve - Tool Body (Straight Shanked)', #168 ) ;
#94 = EDGE_LOOP ( 'NONE', ( #229, #132, #320, #235, #6 ) ) ;
#95 =( NAMED_UNIT ( * ) PLANE_ANGLE_UNIT ( ) SI_UNIT ( $, .RADIAN. ) );
#96 = EDGE_CURVE ( 'NONE', #8, #43, #80, .T. ) ;
#97 = ORIENTED_EDGE ( 'NONE', *, *, #238, .F. ) ;
#98 = DIRECTION ( 'NONE',  ( -1.215801698091266626E-16, 1.000000000000000000, -0.000000000000000000 ) ) ;
#99 = AXIS2_PLACEMENT_3D ( 'NONE', #17, #191, #107 ) ;
#100 = VERTEX_POINT ( 'NONE', #281 ) ;
#101 =( LENGTH_UNIT ( ) NAMED_UNIT ( * ) SI_UNIT ( $, .METRE. ) );
#102 = UNCERTAINTY_MEASURE_WITH_UNIT (LENGTH_MEASURE( 1.000000000000000082E-05 ), #324, 'distance_accuracy_value', 'NONE');
#103 = ORIENTED_EDGE ( 'NONE', *, *, #233, .T. ) ;
#104 = DIRECTION ( 'NONE',  ( -1.215801698091266626E-16, 1.000000000000000000, -0.000000000000000000 ) ) ;
#105 = FILL_AREA_STYLE ('',( #307 ) ) ;
#106 = MECHANICAL_DESIGN_GEOMETRIC_PRESENTATION_REPRESENTATION (  '', ( #10 ), #363 ) ;
#107 = DIRECTION ( 'NONE',  ( 0.000000000000000000, 0.000000000000000000, -1.000000000000000000 ) ) ;
#108 =( LENGTH_UNIT ( ) NAMED_UNIT ( * ) SI_UNIT ( $, .METRE. ) );
#109 = DIRECTION ( 'NONE',  ( 0.000000000000000000, 0.000000000000000000, -1.000000000000000000 ) ) ;
#110 =( NAMED_UNIT ( * ) PLANE_ANGLE_UNIT ( ) SI_UNIT ( $, .RADIAN. ) );
#111 =( GEOMETRIC_REPRESENTATION_CONTEXT ( 3 ) GLOBAL_UNCERTAINTY_ASSIGNED_CONTEXT ( ( #79 ) ) GLOBAL_UNIT_ASSIGNED_CONTEXT ( ( #313, #184, #284 ) ) REPRESENTATION_CONTEXT ( 'NONE', 'WORKASPACE' ) );
#112 = SURFACE_STYLE_USAGE ( .BOTH. , #139 ) ;
#113 = DIRECTION ( 'NONE',  ( 0.000000000000000000, 1.000000000000000000, 0.000000000000000000 ) ) ;
#114 = CARTESIAN_POINT ( 'NONE',  ( 0.000000000000000000, 0.1875000000000000555, -0.1874999999999999722 ) ) ;
#115 = CIRCLE ( 'NONE', #153, 0.1874999999999999445 ) ;
#116 = PRODUCT_DEFINITION_CONTEXT ( 'detailed design', #364, 'design' ) ;
#117 = CIRCLE ( 'NONE', #253, 0.1875000000000000278 ) ;
#118 =( NAMED_UNIT ( * ) PLANE_ANGLE_UNIT ( ) SI_UNIT ( $, .RADIAN. ) );
#119 = VERTEX_POINT ( 'NONE', #277 ) ;
#120 =( LENGTH_UNIT ( ) NAMED_UNIT ( * ) SI_UNIT ( $, .METRE. ) );
#121 = FILL_AREA_STYLE_COLOUR ( '', #276 ) ;
#122 = AXIS2_PLACEMENT_3D ( 'NONE', #188, #240, #23 ) ;
#123 = EDGE_CURVE ( 'NONE', #63, #301, #115, .T. ) ;
#124 = CARTESIAN_POINT ( 'NONE',  ( 0.1874999999999999445, 0.5000000000000001110, 2.296212748401284952E-17 ) ) ;
#125 =( NAMED_UNIT ( * ) SI_UNIT ( $, .STERADIAN. ) SOLID_ANGLE_UNIT ( ) );
#126 = AXIS2_PLACEMENT_3D ( 'NONE', #341, #162, #88 ) ;
#127 = SURFACE_SIDE_STYLE ('',( #45 ) ) ;
#128 = DIRECTION ( 'NONE',  ( -0.000000000000000000, -1.000000000000000000, -0.000000000000000000 ) ) ;
#129 = VERTEX_POINT ( 'NONE', #114 ) ;
#130 =( CONVERSION_BASED_UNIT ( 'INCH', #298 ) LENGTH_UNIT ( ) NAMED_UNIT ( #321 ) );
#131 = STYLED_ITEM ( 'NONE', ( #152 ), #164 ) ;
#132 = ORIENTED_EDGE ( 'NONE', *, *, #39, .T. ) ;
#133 = DIRECTION ( 'NONE',  ( -0.000000000000000000, -1.000000000000000000, -0.000000000000000000 ) ) ;
#134 = CARTESIAN_POINT ( 'NONE',  ( 0.000000000000000000, 0.5000000000000000000, 0.000000000000000000 ) ) ;
#135 = EDGE_CURVE ( 'NONE', #129, #100, #4, .T. ) ;
#136 =( NAMED_UNIT ( * ) PLANE_ANGLE_UNIT ( ) SI_UNIT ( $, .RADIAN. ) );
#137 = SURFACE_SIDE_STYLE ('',( #26 ) ) ;
#138 = APPLICATION_CONTEXT ( 'automotive_design' ) ;
#139 = SURFACE_SIDE_STYLE ('',( #27 ) ) ;
#140 = FACE_OUTER_BOUND ( 'NONE', #326, .T. ) ;
#141 = ADVANCED_FACE ( 'NONE', ( #221 ), #315, .F. ) ;
#142 = PRESENTATION_LAYER_ASSIGNMENT (  '', '', ( #311 ) ) ;
#143 = LENGTH_MEASURE_WITH_UNIT ( LENGTH_MEASURE( 0.02539999999999999897 ), #120 );
#144 = SURFACE_STYLE_FILL_AREA ( #225 ) ;
#145 = DIRECTION ( 'NONE',  ( -1.000000000000000000, 0.000000000000000000, 0.000000000000000000 ) ) ;
#146 = ORIENTED_EDGE ( 'NONE', *, *, #238, .T. ) ;
#147 = FILL_AREA_STYLE ('',( #178 ) ) ;
#148 = VERTEX_POINT ( 'NONE', #285 ) ;
#149 = CARTESIAN_POINT ( 'NONE',  ( 2.436025946710576543E-16, 0.5000000000000001110, 0.000000000000000000 ) ) ;
#150 = ADVANCED_FACE ( 'NONE', ( #140 ), #173, .T. ) ;
#151 = DIRECTION ( 'NONE',  ( -1.000000000000000000, 0.000000000000000000, 0.000000000000000000 ) ) ;
#152 = PRESENTATION_STYLE_ASSIGNMENT (( #230 ) ) ;
#153 = AXIS2_PLACEMENT_3D ( 'NONE', #134, #241, #371 ) ;
#154 = DIRECTION ( 'NONE',  ( -1.215801698091266626E-16, 1.000000000000000000, -0.000000000000000000 ) ) ;
#155 = PRESENTATION_STYLE_ASSIGNMENT (( #274 ) ) ;
#156 = EDGE_CURVE ( 'NONE', #119, #8, #272, .T. ) ;
#157 = SPHERICAL_SURFACE ( 'NONE', #305, 0.1875000000000000278 ) ;
#158 = CARTESIAN_POINT ( 'NONE',  ( 0.000000000000000000, 0.1875000000000000555, 0.000000000000000000 ) ) ;
#159 = COLOUR_RGB ( '',1.000000000000000000, 0.000000000000000000, 0.000000000000000000 ) ;
#160 = DIRECTION ( 'NONE',  ( -1.000000000000000000, -1.215801698091266626E-16, 0.000000000000000000 ) ) ;
#161 = DIRECTION ( 'NONE',  ( -1.000000000000000000, 0.000000000000000000, 0.000000000000000000 ) ) ;
#162 = DIRECTION ( 'NONE',  ( 1.215801698091266626E-16, -1.000000000000000000, 0.000000000000000000 ) ) ;
#163 = EDGE_LOOP ( 'NONE', ( #146, #351 ) ) ;
#164 = ADVANCED_FACE ( 'NONE', ( #352 ), #327, .T. ) ;
#165 = ORIENTED_EDGE ( 'NONE', *, *, #15, .F. ) ;
#166 = CYLINDRICAL_SURFACE ( 'NONE', #2, 0.1874999999999997780 ) ;
#167 = SURFACE_STYLE_USAGE ( .BOTH. , #36 ) ;
#168 = CLOSED_SHELL ( 'NONE', ( #150, #90, #370, #141 ) ) ;
#169 =( LENGTH_UNIT ( ) NAMED_UNIT ( * ) SI_UNIT ( $, .METRE. ) );
#170 = EDGE_LOOP ( 'NONE', ( #302, #73, #180, #12, #295 ) ) ;
#171 = EDGE_LOOP ( 'NONE', ( #70, #16 ) ) ;
#172 =( GEOMETRIC_REPRESENTATION_CONTEXT ( 3 ) GLOBAL_UNCERTAINTY_ASSIGNED_CONTEXT ( ( #179 ) ) GLOBAL_UNIT_ASSIGNED_CONTEXT ( ( #130, #95, #71 ) ) REPRESENTATION_CONTEXT ( 'NONE', 'WORKASPACE' ) );
#173 = CYLINDRICAL_SURFACE ( 'NONE', #11, 0.1874999999999997780 ) ;
#174 = EDGE_LOOP ( 'NONE', ( #103, #264, #13, #204 ) ) ;
#175 = CARTESIAN_POINT ( 'NONE',  ( 2.296212748401286801E-17, 0.000000000000000000, 0.1874999999999999722 ) ) ;
#176 = EDGE_CURVE ( 'NONE', #8, #119, #228, .T. ) ;
#177 = VERTEX_POINT ( 'NONE', #322 ) ;
#178 = FILL_AREA_STYLE_COLOUR ( '', #33 ) ;
#179 = UNCERTAINTY_MEASURE_WITH_UNIT (LENGTH_MEASURE( 1.000000000000000082E-05 ), #130, 'distance_accuracy_value', 'NONE');
#180 = ORIENTED_EDGE ( 'NONE', *, *, #314, .F. ) ;
#181 = PRESENTATION_LAYER_ASSIGNMENT (  '', '', ( #199 ) ) ;
#182 = PRODUCT_DEFINITION_FORMATION_WITH_SPECIFIED_SOURCE ( 'ANY', '', #185, .NOT_KNOWN. ) ;
#183 = DIRECTION ( 'NONE',  ( 0.000000000000000000, 0.000000000000000000, 1.000000000000000000 ) ) ;
#184 =( NAMED_UNIT ( * ) PLANE_ANGLE_UNIT ( ) SI_UNIT ( $, .RADIAN. ) );
#185 = PRODUCT ( '17332', '17332', '', ( #62 ) ) ;
#186 = AXIS2_PLACEMENT_3D ( 'NONE', #335, #214, #161 ) ;
#187 = DIRECTION ( 'NONE',  ( 0.000000000000000000, 0.000000000000000000, -1.000000000000000000 ) ) ;
#188 = CARTESIAN_POINT ( 'NONE',  ( -2.296212748401287726E-17, 0.1875000000000000278, 0.000000000000000000 ) ) ;
#189 = CIRCLE ( 'NONE', #282, 0.1874999999999999445 ) ;
#190 =( NAMED_UNIT ( * ) SI_UNIT ( $, .STERADIAN. ) SOLID_ANGLE_UNIT ( ) );
#191 = DIRECTION ( 'NONE',  ( -0.000000000000000000, -1.000000000000000000, -0.000000000000000000 ) ) ;
#192 = DIRECTION ( 'NONE',  ( -0.000000000000000000, -1.000000000000000000, -0.000000000000000000 ) ) ;
#193 = APPLICATION_PROTOCOL_DEFINITION ( 'draft international standard', 'automotive_design', 1998, #364 ) ;
#194 = DIRECTION ( 'NONE',  ( 1.000000000000000000, 0.000000000000000000, 0.000000000000000000 ) ) ;
#195 = AXIS2_PLACEMENT_3D ( 'NONE', #55, #366, #160 ) ;
#196 = LENGTH_MEASURE_WITH_UNIT ( LENGTH_MEASURE( 0.02539999999999999897 ), #169 );
#197 = UNCERTAINTY_MEASURE_WITH_UNIT (LENGTH_MEASURE( 1.000000000000000082E-05 ), #218, 'distance_accuracy_value', 'NONE');
#198 = EDGE_CURVE ( 'NONE', #301, #65, #330, .T. ) ;
#199 = STYLED_ITEM ( 'NONE', ( #155 ), #252 ) ;
#200 = PRESENTATION_STYLE_ASSIGNMENT (( #329 ) ) ;
#201 = DIRECTION ( 'NONE',  ( 0.000000000000000000, 0.000000000000000000, -1.000000000000000000 ) ) ;
#202 =( GEOMETRIC_REPRESENTATION_CONTEXT ( 3 ) GLOBAL_UNCERTAINTY_ASSIGNED_CONTEXT ( ( #102 ) ) GLOBAL_UNIT_ASSIGNED_CONTEXT ( ( #324, #136, #190 ) ) REPRESENTATION_CONTEXT ( 'NONE', 'WORKASPACE' ) );
#203 = CARTESIAN_POINT ( 'NONE',  ( -2.296212748401287726E-17, 0.1875000000000000278, 0.000000000000000000 ) ) ;
#204 = ORIENTED_EDGE ( 'NONE', *, *, #314, .T. ) ;
#205 = AXIS2_PLACEMENT_3D ( 'NONE', #265, #128, #201 ) ;
#206 = ADVANCED_FACE ( 'NONE', ( #300 ), #86, .T. ) ;
#207 = DIRECTION ( 'NONE',  ( -1.215801698091266626E-16, 1.000000000000000000, -0.000000000000000000 ) ) ;
#208 = ORIENTED_EDGE ( 'NONE', *, *, #222, .T. ) ;
#209 = FILL_AREA_STYLE ('',( #121 ) ) ;
#210 = DIRECTION ( 'NONE',  ( -1.000000000000000000, 0.000000000000000000, 0.000000000000000000 ) ) ;
#211 = PRODUCT_DEFINITION ( 'UNKNOWN', '', #182, #116 ) ;
#212 = AXIS2_PLACEMENT_3D ( 'NONE', #3, #316, #346 ) ;
#213 = CARTESIAN_POINT ( 'NONE',  ( 0.1874999999999999167, 2.000000000000000000, 2.296212748401284952E-17 ) ) ;
#214 = DIRECTION ( 'NONE',  ( -1.215801698091266626E-16, 1.000000000000000000, -0.000000000000000000 ) ) ;
#215 = MECHANICAL_DESIGN_GEOMETRIC_PRESENTATION_REPRESENTATION (  '', ( #325 ), #40 ) ;
#216 = MECHANICAL_DESIGN_GEOMETRIC_PRESENTATION_REPRESENTATION (  '', ( #54 ), #202 ) ;
#217 =( NAMED_UNIT ( * ) PLANE_ANGLE_UNIT ( ) SI_UNIT ( $, .RADIAN. ) );
#218 =( CONVERSION_BASED_UNIT ( 'INCH', #78 ) LENGTH_UNIT ( ) NAMED_UNIT ( #291 ) );
#219 = STYLED_ITEM ( 'NONE', ( #350 ), #206 ) ;
#220 = SURFACE_STYLE_USAGE ( .BOTH. , #137 ) ;
#221 = FACE_OUTER_BOUND ( 'NONE', #163, .T. ) ;
#222 = EDGE_CURVE ( 'NONE', #317, #129, #255, .T. ) ;
#223 =( GEOMETRIC_REPRESENTATION_CONTEXT ( 3 ) GLOBAL_UNCERTAINTY_ASSIGNED_CONTEXT ( ( #361 ) ) GLOBAL_UNIT_ASSIGNED_CONTEXT ( ( #9, #44, #125 ) ) REPRESENTATION_CONTEXT ( 'NONE', 'WORKASPACE' ) );
#224 = CARTESIAN_POINT ( 'NONE',  ( 0.000000000000000000, 0.000000000000000000, 0.000000000000000000 ) ) ;
#225 = FILL_AREA_STYLE ('',( #64 ) ) ;
#226 =( NAMED_UNIT ( * ) SI_UNIT ( $, .STERADIAN. ) SOLID_ANGLE_UNIT ( ) );
#227 = DIRECTION ( 'NONE',  ( 0.000000000000000000, 0.000000000000000000, -1.000000000000000000 ) ) ;
#228 = CIRCLE ( 'NONE', #355, 0.1874999999999996947 ) ;
#229 = ORIENTED_EDGE ( 'NONE', *, *, #198, .F. ) ;
#230 = SURFACE_STYLE_USAGE ( .BOTH. , #20 ) ;
#231 = ADVANCED_BREP_SHAPE_REPRESENTATION ( '17332', ( #342, #93, #287 ), #83 ) ;
#232 = DIRECTION ( 'NONE',  ( -1.215801698091266626E-16, 1.000000000000000000, -0.000000000000000000 ) ) ;
#233 = EDGE_CURVE ( 'NONE', #65, #317, #268, .T. ) ;
#234 = SURFACE_SIDE_STYLE ('',( #258 ) ) ;
#235 = ORIENTED_EDGE ( 'NONE', *, *, #222, .F. ) ;
#236 = ORIENTED_EDGE ( 'NONE', *, *, #123, .F. ) ;
#237 = CARTESIAN_POINT ( 'NONE',  ( 2.436025946710576543E-16, 0.5000000000000001110, 0.000000000000000000 ) ) ;
#238 = EDGE_CURVE ( 'NONE', #177, #43, #323, .T. ) ;
#239 = CARTESIAN_POINT ( 'NONE',  ( 0.000000000000000000, 0.5000000000000000000, -0.1874999999999999445 ) ) ;
#240 = DIRECTION ( 'NONE',  ( 0.000000000000000000, 0.000000000000000000, 1.000000000000000000 ) ) ;
#241 = DIRECTION ( 'NONE',  ( -0.000000000000000000, -1.000000000000000000, -0.000000000000000000 ) ) ;
#242 = FACE_OUTER_BOUND ( 'NONE', #47, .T. ) ;
#243 = PRESENTATION_LAYER_ASSIGNMENT (  '', '', ( #131 ) ) ;
#244 = LINE ( 'NONE', #334, #273 ) ;
#245 = PRESENTATION_STYLE_ASSIGNMENT (( #220 ) ) ;
#246 = COLOUR_RGB ( '',0.7921568627450980005, 0.8196078431372548767, 0.9333333333333333481 ) ;
#247 = LENGTH_MEASURE_WITH_UNIT ( LENGTH_MEASURE( 0.02539999999999999897 ), #108 );
#248 = CYLINDRICAL_SURFACE ( 'NONE', #331, 0.1874999999999999722 ) ;
#249 = DIRECTION ( 'NONE',  ( 0.000000000000000000, 0.000000000000000000, -1.000000000000000000 ) ) ;
#250 = AXIS2_PLACEMENT_3D ( 'NONE', #278, #113, #360 ) ;
#251 = DIRECTION ( 'NONE',  ( 0.000000000000000000, 0.000000000000000000, -1.000000000000000000 ) ) ;
#252 = ADVANCED_FACE ( 'NONE', ( #242 ), #28, .T. ) ;
#253 = AXIS2_PLACEMENT_3D ( 'NONE', #56, #187, #312 ) ;
#254 =( NAMED_UNIT ( * ) PLANE_ANGLE_UNIT ( ) SI_UNIT ( $, .RADIAN. ) );
#255 = CIRCLE ( 'NONE', #99, 0.1874999999999999722 ) ;
#256 = EDGE_LOOP ( 'NONE', ( #356, #208, #266, #357 ) ) ;
#257 = DIRECTION ( 'NONE',  ( -0.000000000000000000, -1.000000000000000000, -0.000000000000000000 ) ) ;
#258 = SURFACE_STYLE_FILL_AREA ( #48 ) ;
#259 =( CONVERSION_BASED_UNIT ( 'INCH', #196 ) LENGTH_UNIT ( ) NAMED_UNIT ( #7 ) );
#260 = PRESENTATION_LAYER_ASSIGNMENT (  '', '', ( #10 ) ) ;
#261 =( LENGTH_UNIT ( ) NAMED_UNIT ( * ) SI_UNIT ( $, .METRE. ) );
#262 = DIMENSIONAL_EXPONENTS ( 1.000000000000000000, 0.000000000000000000, 0.000000000000000000, 0.000000000000000000, 0.000000000000000000, 0.000000000000000000, 0.000000000000000000 ) ;
#263 = AXIS2_PLACEMENT_3D ( 'NONE', #203, #30, #306 ) ;
#264 = ORIENTED_EDGE ( 'NONE', *, *, #34, .T. ) ;
#265 = CARTESIAN_POINT ( 'NONE',  ( 0.000000000000000000, 0.000000000000000000, 0.000000000000000000 ) ) ;
#266 = ORIENTED_EDGE ( 'NONE', *, *, #135, .T. ) ;
#267 = DIRECTION ( 'NONE',  ( -0.000000000000000000, -1.000000000000000000, -0.000000000000000000 ) ) ;
#268 = CIRCLE ( 'NONE', #347, 0.1874999999999999722 ) ;
#269 = ADVANCED_FACE ( 'NONE', ( #31 ), #248, .T. ) ;
#270 = CARTESIAN_POINT ( 'NONE',  ( 6.123233995736766036E-17, 2.000000000000000000, 0.000000000000000000 ) ) ;
#271 = CARTESIAN_POINT ( 'NONE',  ( 2.296212748401286801E-17, 0.1875000000000000555, 0.1874999999999999722 ) ) ;
#272 = CIRCLE ( 'NONE', #296, 0.1874999999999996947 ) ;
#273 = VECTOR ( 'NONE', #24, 39.37007874015748143 ) ;
#274 = SURFACE_STYLE_USAGE ( .BOTH. , #333 ) ;
#275 = VECTOR ( 'NONE', #154, 39.37007874015748143 ) ;
#276 = COLOUR_RGB ( '',1.000000000000000000, 0.000000000000000000, 0.000000000000000000 ) ;
#277 = CARTESIAN_POINT ( 'NONE',  ( -0.1874999999999994726, 0.5000000000000001110, 0.000000000000000000 ) ) ;
#278 = CARTESIAN_POINT ( 'NONE',  ( 0.000000000000000000, 0.5000000000000000000, 0.000000000000000000 ) ) ;
#279 = CARTESIAN_POINT ( 'NONE',  ( -0.1874999999999996947, 2.000000000000000000, 0.000000000000000000 ) ) ;
#280 = SURFACE_STYLE_FILL_AREA ( #310 ) ;
#281 = CARTESIAN_POINT ( 'NONE',  ( 0.1874999999999999722, 0.1875000000000000555, 0.000000000000000000 ) ) ;
#282 = AXIS2_PLACEMENT_3D ( 'NONE', #309, #133, #109 ) ;
#283 = FILL_AREA_STYLE_COLOUR ( '', #246 ) ;
#284 =( NAMED_UNIT ( * ) SI_UNIT ( $, .STERADIAN. ) SOLID_ANGLE_UNIT ( ) );
#285 = CARTESIAN_POINT ( 'NONE',  ( -1.148106374200643863E-17, 0.000000000000000000, 0.000000000000000000 ) ) ;
#286 = MECHANICAL_DESIGN_GEOMETRIC_PRESENTATION_REPRESENTATION (  '', ( #131 ), #172 ) ;
#287 = AXIS2_PLACEMENT_3D ( 'NONE', #224, #344, #194 ) ;
#288 = UNCERTAINTY_MEASURE_WITH_UNIT (LENGTH_MEASURE( 1.000000000000000082E-05 ), #259, 'distance_accuracy_value', 'NONE');
#289 = PRESENTATION_STYLE_ASSIGNMENT (( #167 ) ) ;
#290 = AXIS2_PLACEMENT_3D ( 'NONE', #270, #232, #151 ) ;
#291 = DIMENSIONAL_EXPONENTS ( 1.000000000000000000, 0.000000000000000000, 0.000000000000000000, 0.000000000000000000, 0.000000000000000000, 0.000000000000000000, 0.000000000000000000 ) ;
#292 = APPLICATION_PROTOCOL_DEFINITION ( 'draft international standard', 'automotive_design', 1998, #138 ) ;
#293 = FACE_OUTER_BOUND ( 'NONE', #299, .T. ) ;
#294 = VECTOR ( 'NONE', #59, 39.37007874015748143 ) ;
#295 = ORIENTED_EDGE ( 'NONE', *, *, #82, .F. ) ;
#296 = AXIS2_PLACEMENT_3D ( 'NONE', #237, #207, #14 ) ;
#297 = ORIENTED_EDGE ( 'NONE', *, *, #75, .T. ) ;
#298 = LENGTH_MEASURE_WITH_UNIT ( LENGTH_MEASURE( 0.02539999999999999897 ), #101 );
#299 = EDGE_LOOP ( 'NONE', ( #49, #76, #297, #165 ) ) ;
#300 = FACE_OUTER_BOUND ( 'NONE', #174, .T. ) ;
#301 = VERTEX_POINT ( 'NONE', #68 ) ;
#302 = ORIENTED_EDGE ( 'NONE', *, *, #123, .T. ) ;
#303 =( LENGTH_UNIT ( ) NAMED_UNIT ( * ) SI_UNIT ( $, .METRE. ) );
#304 = CARTESIAN_POINT ( 'NONE',  ( 0.1874999999999998335, 2.000000000000000000, 2.296212748401284644E-17 ) ) ;
#305 = AXIS2_PLACEMENT_3D ( 'NONE', #22, #183, #85 ) ;
#306 = DIRECTION ( 'NONE',  ( 1.000000000000000000, 0.000000000000000000, -1.224646799147353207E-16 ) ) ;
#307 = FILL_AREA_STYLE_COLOUR ( '', #159 ) ;
#308 = DIMENSIONAL_EXPONENTS ( 1.000000000000000000, 0.000000000000000000, 0.000000000000000000, 0.000000000000000000, 0.000000000000000000, 0.000000000000000000, 0.000000000000000000 ) ;
#309 = CARTESIAN_POINT ( 'NONE',  ( 0.000000000000000000, 0.5000000000000000000, 0.000000000000000000 ) ) ;
#310 = FILL_AREA_STYLE ('',( #367 ) ) ;
#311 = STYLED_ITEM ( 'NONE', ( #245 ), #269 ) ;
#312 = DIRECTION ( 'NONE',  ( -1.000000000000000000, 0.000000000000000000, 0.000000000000000000 ) ) ;
#313 =( CONVERSION_BASED_UNIT ( 'INCH', #336 ) LENGTH_UNIT ( ) NAMED_UNIT ( #308 ) );
#314 = EDGE_CURVE ( 'NONE', #100, #65, #58, .T. ) ;
#315 = PLANE ( 'NONE',  #126 ) ;
#316 = DIRECTION ( 'NONE',  ( -0.000000000000000000, -1.000000000000000000, -0.000000000000000000 ) ) ;
#317 = VERTEX_POINT ( 'NONE', #345 ) ;
#318 = CIRCLE ( 'NONE', #290, 0.1874999999999998335 ) ;
#319 =( GEOMETRIC_REPRESENTATION_CONTEXT ( 3 ) GLOBAL_UNCERTAINTY_ASSIGNED_CONTEXT ( ( #197 ) ) GLOBAL_UNIT_ASSIGNED_CONTEXT ( ( #218, #110, #53 ) ) REPRESENTATION_CONTEXT ( 'NONE', 'WORKASPACE' ) );
#320 = ORIENTED_EDGE ( 'NONE', *, *, #82, .T. ) ;
#321 = DIMENSIONAL_EXPONENTS ( 1.000000000000000000, 0.000000000000000000, 0.000000000000000000, 0.000000000000000000, 0.000000000000000000, 0.000000000000000000, 0.000000000000000000 ) ;
#322 = CARTESIAN_POINT ( 'NONE',  ( -0.1874999999999997780, 2.000000000000000000, 0.000000000000000000 ) ) ;
#323 = CIRCLE ( 'NONE', #186, 0.1874999999999998335 ) ;
#324 =( CONVERSION_BASED_UNIT ( 'INCH', #353 ) LENGTH_UNIT ( ) NAMED_UNIT ( #46 ) );
#325 = STYLED_ITEM ( 'NONE', ( #87 ), #93 ) ;
#326 = EDGE_LOOP ( 'NONE', ( #38, #349, #97, #69 ) ) ;
#327 = CYLINDRICAL_SURFACE ( 'NONE', #205, 0.1874999999999999722 ) ;
#328 = PRODUCT_RELATED_PRODUCT_CATEGORY ( 'part', '', ( #185 ) ) ;
#329 = SURFACE_STYLE_USAGE ( .BOTH. , #127 ) ;
#330 = LINE ( 'NONE', #175, #343 ) ;
#331 = AXIS2_PLACEMENT_3D ( 'NONE', #89, #257, #227 ) ;
#332 =( NAMED_UNIT ( * ) SI_UNIT ( $, .STERADIAN. ) SOLID_ANGLE_UNIT ( ) );
#333 = SURFACE_SIDE_STYLE ('',( #280 ) ) ;
#334 = CARTESIAN_POINT ( 'NONE',  ( 0.000000000000000000, 0.000000000000000000, -0.1874999999999999722 ) ) ;
#335 = CARTESIAN_POINT ( 'NONE',  ( 6.123233995736766036E-17, 2.000000000000000000, 0.000000000000000000 ) ) ;
#336 = LENGTH_MEASURE_WITH_UNIT ( LENGTH_MEASURE( 0.02539999999999999897 ), #57 );
#337 = MECHANICAL_DESIGN_GEOMETRIC_PRESENTATION_REPRESENTATION (  '', ( #199 ), #111 ) ;
#338 = PLANE ( 'NONE',  #195 ) ;
#339 =( LENGTH_UNIT ( ) NAMED_UNIT ( * ) SI_UNIT ( $, .METRE. ) );
#340 = DIMENSIONAL_EXPONENTS ( 1.000000000000000000, 0.000000000000000000, 0.000000000000000000, 0.000000000000000000, 0.000000000000000000, 0.000000000000000000, 0.000000000000000000 ) ;
#341 = CARTESIAN_POINT ( 'NONE',  ( 0.1874999999999999167, 2.000000000000000000, 0.000000000000000000 ) ) ;
#342 = MANIFOLD_SOLID_BREP ( 'Revolve - Cutting Edge', #67 ) ;
#343 = VECTOR ( 'NONE', #267, 39.37007874015748143 ) ;
#344 = DIRECTION ( 'NONE',  ( 0.000000000000000000, 0.000000000000000000, 1.000000000000000000 ) ) ;
#345 = CARTESIAN_POINT ( 'NONE',  ( -0.1875000000000000278, 0.1875000000000000555, 2.296212748401287109E-17 ) ) ;
#346 = DIRECTION ( 'NONE',  ( 0.000000000000000000, 0.000000000000000000, -1.000000000000000000 ) ) ;
#347 = AXIS2_PLACEMENT_3D ( 'NONE', #158, #81, #249 ) ;
#348 = DIRECTION ( 'NONE',  ( -1.215801698091266626E-16, 1.000000000000000000, -0.000000000000000000 ) ) ;
#349 = ORIENTED_EDGE ( 'NONE', *, *, #96, .T. ) ;
#350 = PRESENTATION_STYLE_ASSIGNMENT (( #77 ) ) ;
#351 = ORIENTED_EDGE ( 'NONE', *, *, #15, .T. ) ;
#352 = FACE_OUTER_BOUND ( 'NONE', #170, .T. ) ;
#353 = LENGTH_MEASURE_WITH_UNIT ( LENGTH_MEASURE( 0.02539999999999999897 ), #261 );
#354 = LENGTH_MEASURE_WITH_UNIT ( LENGTH_MEASURE( 0.02539999999999999897 ), #303 );
#355 = AXIS2_PLACEMENT_3D ( 'NONE', #149, #104, #210 ) ;
#356 = ORIENTED_EDGE ( 'NONE', *, *, #34, .F. ) ;
#357 = ORIENTED_EDGE ( 'NONE', *, *, #61, .T. ) ;
#358 = CARTESIAN_POINT ( 'NONE',  ( 6.123233995736766036E-17, 2.000000000000000000, 0.000000000000000000 ) ) ;
#359 = LINE ( 'NONE', #279, #294 ) ;
#360 = DIRECTION ( 'NONE',  ( 0.000000000000000000, -0.000000000000000000, 1.000000000000000000 ) ) ;
#361 = UNCERTAINTY_MEASURE_WITH_UNIT (LENGTH_MEASURE( 1.000000000000000082E-05 ), #9, 'distance_accuracy_value', 'NONE');
#362 = DIMENSIONAL_EXPONENTS ( 1.000000000000000000, 0.000000000000000000, 0.000000000000000000, 0.000000000000000000, 0.000000000000000000, 0.000000000000000000, 0.000000000000000000 ) ;
#363 =( GEOMETRIC_REPRESENTATION_CONTEXT ( 3 ) GLOBAL_UNCERTAINTY_ASSIGNED_CONTEXT ( ( #288 ) ) GLOBAL_UNIT_ASSIGNED_CONTEXT ( ( #259, #254, #41 ) ) REPRESENTATION_CONTEXT ( 'NONE', 'WORKASPACE' ) );
#364 = APPLICATION_CONTEXT ( 'automotive_design' ) ;
#365 = FACE_OUTER_BOUND ( 'NONE', #171, .T. ) ;
#366 = DIRECTION ( 'NONE',  ( -1.215801698091266626E-16, 1.000000000000000000, 0.000000000000000000 ) ) ;
#367 = FILL_AREA_STYLE_COLOUR ( '', #84 ) ;
#368 = FILL_AREA_STYLE ('',( #283 ) ) ;
#369 = MECHANICAL_DESIGN_GEOMETRIC_PRESENTATION_REPRESENTATION (  '', ( #311 ), #319 ) ;
#370 = ADVANCED_FACE ( 'NONE', ( #293 ), #166, .T. ) ;
#371 = DIRECTION ( 'NONE',  ( 0.000000000000000000, 0.000000000000000000, -1.000000000000000000 ) ) ;
#372 = CIRCLE ( 'NONE', #263, 0.1875000000000000278 ) ;
#373 = AXIS2_PLACEMENT_3D ( 'NONE', #32, #192, #251 ) ;
ENDSEC;
END-ISO-10303-21;
