ISO-10303-21;
HEADER;
FILE_DESCRIPTION (( 'STEP AP214' ),
    '1' );
FILE_NAME ('Micro_AEMM-100-2.STEP',
    '2022-03-15T14:29:43',
    ( '' ),
    ( '' ),
    'SwSTEP 2.0',
    'SolidWorks 2022',
    '' );
FILE_SCHEMA (( 'AUTOMOTIVE_DESIGN' ));
ENDSEC;

DATA;
#1 = DIRECTION ( 'NONE',  ( -1.224646799147353207E-16, -0.000000000000000000, -1.000000000000000000 ) ) ;
#2 = SURFACE_SIDE_STYLE ('',( #122 ) ) ;
#3 = AXIS2_PLACEMENT_3D ( 'NONE', #74, #141, #232 ) ;
#4 = CARTESIAN_POINT ( 'NONE',  ( 0.000000000000000000, 0.000000000000000000, 2.834646000000000665 ) ) ;
#5 =( NAMED_UNIT ( * ) PLANE_ANGLE_UNIT ( ) SI_UNIT ( $, .RADIAN. ) );
#6 =( LENGTH_UNIT ( ) NAMED_UNIT ( * ) SI_UNIT ( $, .METRE. ) );
#7 = EDGE_CURVE ( 'NONE', #209, #228, #214, .T. ) ;
#8 =( NAMED_UNIT ( * ) PLANE_ANGLE_UNIT ( ) SI_UNIT ( $, .RADIAN. ) );
#9 = DIRECTION ( 'NONE',  ( 1.000000000000000000, 0.000000000000000000, -0.000000000000000000 ) ) ;
#10 = CIRCLE ( 'NONE', #92, 0.1968504999999999838 ) ;
#11 = ORIENTED_EDGE ( 'NONE', *, *, #155, .T. ) ;
#12 = AXIS2_PLACEMENT_3D ( 'NONE', #130, #14, #203 ) ;
#13 = DIRECTION ( 'NONE',  ( -1.000000000000000000, 0.000000000000000000, 0.000000000000000000 ) ) ;
#14 = DIRECTION ( 'NONE',  ( 0.000000000000000000, 0.000000000000000000, -1.000000000000000000 ) ) ;
#15 = DIRECTION ( 'NONE',  ( -0.000000000000000000, -0.000000000000000000, -1.000000000000000000 ) ) ;
#16 = SHAPE_DEFINITION_REPRESENTATION ( #97, #293 ) ;
#17 = AXIS2_PLACEMENT_3D ( 'NONE', #84, #37, #248 ) ;
#18 = DIRECTION ( 'NONE',  ( 1.224646799147353207E-16, 0.000000000000000000, 1.000000000000000000 ) ) ;
#19 = ADVANCED_FACE ( 'NONE', ( #259 ), #116, .T. ) ;
#20 = ORIENTED_EDGE ( 'NONE', *, *, #7, .T. ) ;
#21 = UNCERTAINTY_MEASURE_WITH_UNIT (LENGTH_MEASURE( 1.000000000000000082E-05 ), #184, 'distance_accuracy_value', 'NONE');
#22 = AXIS2_PLACEMENT_3D ( 'NONE', #287, #238, #50 ) ;
#23 = DIRECTION ( 'NONE',  ( -1.000000000000000000, 0.000000000000000000, 1.224646799147353207E-16 ) ) ;
#24 = MECHANICAL_DESIGN_GEOMETRIC_PRESENTATION_REPRESENTATION (  '', ( #161 ), #59 ) ;
#25 = ORIENTED_EDGE ( 'NONE', *, *, #223, .T. ) ;
#26 = APPLICATION_PROTOCOL_DEFINITION ( 'draft international standard', 'automotive_design', 1998, #36 ) ;
#27 = CARTESIAN_POINT ( 'NONE',  ( 0.1968504999999999838, 2.410723347355560646E-17, 2.819646000000000097 ) ) ;
#28 = FILL_AREA_STYLE ('',( #128 ) ) ;
#29 = FILL_AREA_STYLE ('',( #191 ) ) ;
#30 = VERTEX_POINT ( 'NONE', #281 ) ;
#31 = VECTOR ( 'NONE', #257, 39.37007874015747433 ) ;
#32 = DIRECTION ( 'NONE',  ( 0.000000000000000000, 0.000000000000000000, -1.000000000000000000 ) ) ;
#33 = EDGE_CURVE ( 'NONE', #258, #166, #299, .T. ) ;
#34 = UNCERTAINTY_MEASURE_WITH_UNIT (LENGTH_MEASURE( 1.000000000000000082E-05 ), #289, 'distance_accuracy_value', 'NONE');
#35 = DIRECTION ( 'NONE',  ( 0.7071067811865354713, 8.659560562354783714E-17, -0.7071067811865594521 ) ) ;
#36 = APPLICATION_CONTEXT ( 'automotive_design' ) ;
#37 = DIRECTION ( 'NONE',  ( 0.000000000000000000, 0.000000000000000000, 1.000000000000000000 ) ) ;
#38 = ORIENTED_EDGE ( 'NONE', *, *, #117, .F. ) ;
#39 = AXIS2_PLACEMENT_3D ( 'NONE', #182, #1, #156 ) ;
#40 = EDGE_CURVE ( 'NONE', #228, #237, #101, .T. ) ;
#41 = CARTESIAN_POINT ( 'NONE',  ( -0.1966536494999998608, 2.408312624008205170E-17, 0.9842519999999999047 ) ) ;
#42 = LINE ( 'NONE', #133, #73 ) ;
#43 = ORIENTED_EDGE ( 'NONE', *, *, #290, .F. ) ;
#44 = CARTESIAN_POINT ( 'NONE',  ( 0.1968505000000001226, 2.410723347355561878E-17, 0.9853683946618325695 ) ) ;
#45 = ADVANCED_FACE ( 'NONE', ( #170 ), #153, .F. ) ;
#46 = APPLICATION_PROTOCOL_DEFINITION ( 'draft international standard', 'automotive_design', 1998, #86 ) ;
#47 = AXIS2_PLACEMENT_3D ( 'NONE', #217, #167, #49 ) ;
#48 =( GEOMETRIC_REPRESENTATION_CONTEXT ( 3 ) GLOBAL_UNCERTAINTY_ASSIGNED_CONTEXT ( ( #54 ) ) GLOBAL_UNIT_ASSIGNED_CONTEXT ( ( #103, #239, #201 ) ) REPRESENTATION_CONTEXT ( 'NONE', 'WORKASPACE' ) );
#49 = DIRECTION ( 'NONE',  ( -1.000000000000000000, 0.000000000000000000, 0.000000000000000000 ) ) ;
#50 = DIRECTION ( 'NONE',  ( -1.000000000000000000, 0.000000000000000000, 1.224646799147353207E-16 ) ) ;
#51 = PRESENTATION_STYLE_ASSIGNMENT (( #216 ) ) ;
#52 = DIRECTION ( 'NONE',  ( -0.000000000000000000, -0.000000000000000000, -1.000000000000000000 ) ) ;
#53 = ORIENTED_EDGE ( 'NONE', *, *, #78, .F. ) ;
#54 = UNCERTAINTY_MEASURE_WITH_UNIT (LENGTH_MEASURE( 1.000000000000000082E-05 ), #103, 'distance_accuracy_value', 'NONE');
#55 = ORIENTED_EDGE ( 'NONE', *, *, #78, .T. ) ;
#56 = FACE_OUTER_BOUND ( 'NONE', #131, .T. ) ;
#57 = EDGE_CURVE ( 'NONE', #172, #30, #58, .T. ) ;
#58 = CIRCLE ( 'NONE', #85, 0.1966536494999999996 ) ;
#59 =( GEOMETRIC_REPRESENTATION_CONTEXT ( 3 ) GLOBAL_UNCERTAINTY_ASSIGNED_CONTEXT ( ( #34 ) ) GLOBAL_UNIT_ASSIGNED_CONTEXT ( ( #289, #5, #268 ) ) REPRESENTATION_CONTEXT ( 'NONE', 'WORKASPACE' ) );
#60 = ORIENTED_EDGE ( 'NONE', *, *, #57, .T. ) ;
#61 = ADVANCED_FACE ( 'NONE', ( #89 ), #63, .T. ) ;
#62 = DIRECTION ( 'NONE',  ( -1.000000000000000000, 0.000000000000000000, 0.000000000000000000 ) ) ;
#63 = CONICAL_SURFACE ( 'NONE', #12, 0.1818505000000002481, 0.7853981633974312926 ) ;
#64 = CARTESIAN_POINT ( 'NONE',  ( 0.000000000000000000, 0.000000000000000000, 2.819646000000000097 ) ) ;
#65 = DIRECTION ( 'NONE',  ( -1.000000000000000000, 0.000000000000000000, 1.224646799147353207E-16 ) ) ;
#66 = PRODUCT_DEFINITION ( 'UNKNOWN', '', #199, #218 ) ;
#67 = CARTESIAN_POINT ( 'NONE',  ( -0.1818505000000002481, 0.000000000000000000, 2.834646000000000665 ) ) ;
#68 = CIRCLE ( 'NONE', #235, 0.1818505000000002481 ) ;
#69 = DIRECTION ( 'NONE',  ( -1.000000000000000000, 0.000000000000000000, 1.224646799147353207E-16 ) ) ;
#70 = ORIENTED_EDGE ( 'NONE', *, *, #117, .T. ) ;
#71 = EDGE_CURVE ( 'NONE', #258, #209, #111, .T. ) ;
#72 = ORIENTED_EDGE ( 'NONE', *, *, #290, .T. ) ;
#73 = VECTOR ( 'NONE', #222, 39.37007874015748143 ) ;
#74 = CARTESIAN_POINT ( 'NONE',  ( 0.000000000000000000, 0.000000000000000000, 2.834646000000000665 ) ) ;
#75 = CARTESIAN_POINT ( 'NONE',  ( -0.1968504999999998450, 0.000000000000000000, 0.9853683946618325695 ) ) ;
#76 = SURFACE_SIDE_STYLE ('',( #284 ) ) ;
#77 = VERTEX_POINT ( 'NONE', #204 ) ;
#78 = EDGE_CURVE ( 'NONE', #228, #209, #244, .T. ) ;
#79 = DIRECTION ( 'NONE',  ( -0.000000000000000000, -0.000000000000000000, -1.000000000000000000 ) ) ;
#80 = LENGTH_MEASURE_WITH_UNIT ( LENGTH_MEASURE( 0.02539999999999999897 ), #140 );
#81 = VECTOR ( 'NONE', #165, 39.37007874015748854 ) ;
#82 = CARTESIAN_POINT ( 'NONE',  ( 0.1818505000000002481, 2.318874837419510283E-17, 2.834646000000000665 ) ) ;
#83 = ORIENTED_EDGE ( 'NONE', *, *, #57, .F. ) ;
#84 = CARTESIAN_POINT ( 'NONE',  ( 0.000000000000000000, 0.000000000000000000, 0.000000000000000000 ) ) ;
#85 = AXIS2_PLACEMENT_3D ( 'NONE', #241, #274, #13 ) ;
#86 = APPLICATION_CONTEXT ( 'automotive_design' ) ;
#87 = VERTEX_POINT ( 'NONE', #220 ) ;
#88 = CARTESIAN_POINT ( 'NONE',  ( 0.000000000000000000, 0.000000000000000000, 2.834646000000000665 ) ) ;
#89 = FACE_OUTER_BOUND ( 'NONE', #205, .T. ) ;
#90 = ADVANCED_FACE ( 'NONE', ( #219 ), #107, .T. ) ;
#91 = CARTESIAN_POINT ( 'NONE',  ( 2.949332346337811403E-33, 0.000000000000000000, 2.408312624008205170E-17 ) ) ;
#92 = AXIS2_PLACEMENT_3D ( 'NONE', #175, #154, #269 ) ;
#93 = LENGTH_MEASURE_WITH_UNIT ( LENGTH_MEASURE( 0.02539999999999999897 ), #149 );
#94 = CARTESIAN_POINT ( 'NONE',  ( 0.000000000000000000, 0.000000000000000000, 0.000000000000000000 ) ) ;
#95 = EDGE_CURVE ( 'NONE', #237, #176, #10, .T. ) ;
#96 = ORIENTED_EDGE ( 'NONE', *, *, #7, .F. ) ;
#97 = PRODUCT_DEFINITION_SHAPE ( 'NONE', 'NONE',  #66 ) ;
#98 = AXIS2_PLACEMENT_3D ( 'NONE', #94, #279, #69 ) ;
#99 = DIRECTION ( 'NONE',  ( -1.224646799147353207E-16, -0.000000000000000000, -1.000000000000000000 ) ) ;
#100 = ORIENTED_EDGE ( 'NONE', *, *, #40, .F. ) ;
#101 = LINE ( 'NONE', #193, #197 ) ;
#102 = FACE_OUTER_BOUND ( 'NONE', #294, .T. ) ;
#103 =( CONVERSION_BASED_UNIT ( 'INCH', #80 ) LENGTH_UNIT ( ) NAMED_UNIT ( #252 ) );
#104 = CIRCLE ( 'NONE', #183, 0.1966536494999999996 ) ;
#105 = PLANE ( 'NONE',  #119 ) ;
#106 = EDGE_CURVE ( 'NONE', #30, #237, #245, .T. ) ;
#107 = CYLINDRICAL_SURFACE ( 'NONE', #253, 0.1968504999999999838 ) ;
#108 = ORIENTED_EDGE ( 'NONE', *, *, #151, .T. ) ;
#109 = COLOUR_RGB ( '',0.7921568627450980005, 0.8196078431372548767, 0.9333333333333333481 ) ;
#110 = ORIENTED_EDGE ( 'NONE', *, *, #186, .T. ) ;
#111 = LINE ( 'NONE', #180, #138 ) ;
#112 = FACE_OUTER_BOUND ( 'NONE', #249, .T. ) ;
#113 = CARTESIAN_POINT ( 'NONE',  ( -0.1966536494999999996, 0.000000000000000000, 2.408312624008205170E-17 ) ) ;
#114 = EDGE_CURVE ( 'NONE', #176, #237, #206, .T. ) ;
#115 = AXIS2_PLACEMENT_3D ( 'NONE', #194, #18, #146 ) ;
#116 = CYLINDRICAL_SURFACE ( 'NONE', #202, 0.1968504999999999838 ) ;
#117 = EDGE_CURVE ( 'NONE', #30, #77, #162, .T. ) ;
#118 = ORIENTED_EDGE ( 'NONE', *, *, #106, .F. ) ;
#119 = AXIS2_PLACEMENT_3D ( 'NONE', #229, #196, #9 ) ;
#120 =( GEOMETRIC_REPRESENTATION_CONTEXT ( 3 ) GLOBAL_UNCERTAINTY_ASSIGNED_CONTEXT ( ( #21 ) ) GLOBAL_UNIT_ASSIGNED_CONTEXT ( ( #184, #8, #190 ) ) REPRESENTATION_CONTEXT ( 'NONE', 'WORKASPACE' ) );
#121 = DIRECTION ( 'NONE',  ( -1.000000000000000000, 0.000000000000000000, 0.000000000000000000 ) ) ;
#122 = SURFACE_STYLE_FILL_AREA ( #28 ) ;
#123 = CARTESIAN_POINT ( 'NONE',  ( -0.1818505000000002481, 0.000000000000000000, 2.834646000000000665 ) ) ;
#124 = ORIENTED_EDGE ( 'NONE', *, *, #33, .F. ) ;
#125 = CARTESIAN_POINT ( 'NONE',  ( 0.000000000000000000, 0.000000000000000000, 0.000000000000000000 ) ) ;
#126 = CARTESIAN_POINT ( 'NONE',  ( 0.000000000000000000, 0.000000000000000000, 0.000000000000000000 ) ) ;
#127 = ORIENTED_EDGE ( 'NONE', *, *, #40, .T. ) ;
#128 = FILL_AREA_STYLE_COLOUR ( '', #148 ) ;
#129 = CARTESIAN_POINT ( 'NONE',  ( 0.000000000000000000, 0.000000000000000000, 2.819646000000000097 ) ) ;
#130 = CARTESIAN_POINT ( 'NONE',  ( 0.000000000000000000, 0.000000000000000000, 2.834646000000000665 ) ) ;
#131 = EDGE_LOOP ( 'NONE', ( #118, #83, #132, #188 ) ) ;
#132 = ORIENTED_EDGE ( 'NONE', *, *, #174, .T. ) ;
#133 = CARTESIAN_POINT ( 'NONE',  ( 0.1966536494999999996, 2.408312624008205170E-17, -2.408312624008205170E-17 ) ) ;
#134 = AXIS2_PLACEMENT_3D ( 'NONE', #129, #164, #262 ) ;
#135 = VECTOR ( 'NONE', #15, 39.37007874015748143 ) ;
#136 = DIMENSIONAL_EXPONENTS ( 1.000000000000000000, 0.000000000000000000, 0.000000000000000000, 0.000000000000000000, 0.000000000000000000, 0.000000000000000000, 0.000000000000000000 ) ;
#137 = ADVANCED_FACE ( 'NONE', ( #210 ), #246, .T. ) ;
#138 = VECTOR ( 'NONE', #35, 39.37007874015748854 ) ;
#139 = DIRECTION ( 'NONE',  ( 0.000000000000000000, 0.000000000000000000, 1.000000000000000000 ) ) ;
#140 =( LENGTH_UNIT ( ) NAMED_UNIT ( * ) SI_UNIT ( $, .METRE. ) );
#141 = DIRECTION ( 'NONE',  ( 0.000000000000000000, 0.000000000000000000, 1.000000000000000000 ) ) ;
#142 = ORIENTED_EDGE ( 'NONE', *, *, #275, .F. ) ;
#143 = STYLED_ITEM ( 'NONE', ( #168 ), #291 ) ;
#144 = DIRECTION ( 'NONE',  ( 1.224646799147353207E-16, 0.000000000000000000, 1.000000000000000000 ) ) ;
#145 = ORIENTED_EDGE ( 'NONE', *, *, #71, .T. ) ;
#146 = DIRECTION ( 'NONE',  ( 1.000000000000000000, 0.000000000000000000, 0.000000000000000000 ) ) ;
#147 = DIRECTION ( 'NONE',  ( 0.000000000000000000, 0.000000000000000000, 1.000000000000000000 ) ) ;
#148 = COLOUR_RGB ( '',0.7921568627450980005, 0.8196078431372548767, 0.9333333333333333481 ) ;
#149 =( LENGTH_UNIT ( ) NAMED_UNIT ( * ) SI_UNIT ( $, .METRE. ) );
#150 = ORIENTED_EDGE ( 'NONE', *, *, #33, .T. ) ;
#151 = EDGE_CURVE ( 'NONE', #172, #87, #42, .T. ) ;
#152 = ORIENTED_EDGE ( 'NONE', *, *, #275, .T. ) ;
#153 = PLANE ( 'NONE',  #226 ) ;
#154 = DIRECTION ( 'NONE',  ( -1.224646799147353207E-16, -0.000000000000000000, -1.000000000000000000 ) ) ;
#155 = EDGE_CURVE ( 'NONE', #77, #87, #104, .T. ) ;
#156 = DIRECTION ( 'NONE',  ( 1.000000000000000000, 0.000000000000000000, 0.000000000000000000 ) ) ;
#157 = LINE ( 'NONE', #159, #211 ) ;
#158 = ORIENTED_EDGE ( 'NONE', *, *, #106, .T. ) ;
#159 = CARTESIAN_POINT ( 'NONE',  ( 0.1966536495000001383, 0.000000000000000000, 0.9842519999999999047 ) ) ;
#160 = AXIS2_PLACEMENT_3D ( 'NONE', #286, #261, #121 ) ;
#161 = STYLED_ITEM ( 'NONE', ( #51 ), #293 ) ;
#162 = LINE ( 'NONE', #113, #215 ) ;
#163 = PRODUCT ( 'Micro_AEMM-100-2', 'Micro_AEMM-100-2', '', ( #181 ) ) ;
#164 = DIRECTION ( 'NONE',  ( 0.000000000000000000, 0.000000000000000000, -1.000000000000000000 ) ) ;
#165 = DIRECTION ( 'NONE',  ( -0.7071067811865354713, 0.000000000000000000, -0.7071067811865594521 ) ) ;
#166 = VERTEX_POINT ( 'NONE', #67 ) ;
#167 = DIRECTION ( 'NONE',  ( 0.000000000000000000, 0.000000000000000000, -1.000000000000000000 ) ) ;
#168 = PRESENTATION_STYLE_ASSIGNMENT (( #264 ) ) ;
#169 = ORIENTED_EDGE ( 'NONE', *, *, #95, .F. ) ;
#170 = FACE_OUTER_BOUND ( 'NONE', #192, .T. ) ;
#171 = DIRECTION ( 'NONE',  ( 1.000000000000000000, 0.000000000000000000, 0.000000000000000000 ) ) ;
#172 = VERTEX_POINT ( 'NONE', #208 ) ;
#173 = CYLINDRICAL_SURFACE ( 'NONE', #282, 0.1966536494999999996 ) ;
#174 = EDGE_CURVE ( 'NONE', #172, #176, #157, .T. ) ;
#175 = CARTESIAN_POINT ( 'NONE',  ( 1.206728250503579029E-16, 0.000000000000000000, 0.9853683946618325695 ) ) ;
#176 = VERTEX_POINT ( 'NONE', #44 ) ;
#177 = DIRECTION ( 'NONE',  ( -0.000000000000000000, -0.000000000000000000, -1.000000000000000000 ) ) ;
#178 = EDGE_LOOP ( 'NONE', ( #298, #20, #127, #251 ) ) ;
#179 = CONICAL_SURFACE ( 'NONE', #47, 0.1818505000000002481, 0.7853981633974312926 ) ;
#180 = CARTESIAN_POINT ( 'NONE',  ( 0.1818505000000002481, 2.227026327483460228E-17, 2.834646000000000665 ) ) ;
#181 = PRODUCT_CONTEXT ( 'NONE', #36, 'mechanical' ) ;
#182 = CARTESIAN_POINT ( 'NONE',  ( 1.206728250503579029E-16, 0.000000000000000000, 0.9853683946618325695 ) ) ;
#183 = AXIS2_PLACEMENT_3D ( 'NONE', #91, #276, #65 ) ;
#184 =( CONVERSION_BASED_UNIT ( 'INCH', #93 ) LENGTH_UNIT ( ) NAMED_UNIT ( #136 ) );
#185 = DIRECTION ( 'NONE',  ( -1.000000000000000000, 0.000000000000000000, 0.000000000000000000 ) ) ;
#186 = EDGE_CURVE ( 'NONE', #209, #176, #225, .T. ) ;
#187 = CLOSED_SHELL ( 'NONE', ( #137, #207, #243, #19, #90, #195, #61, #247, #231, #45 ) ) ;
#188 = ORIENTED_EDGE ( 'NONE', *, *, #114, .T. ) ;
#189 = PRESENTATION_LAYER_ASSIGNMENT (  '', '', ( #161 ) ) ;
#190 =( NAMED_UNIT ( * ) SI_UNIT ( $, .STERADIAN. ) SOLID_ANGLE_UNIT ( ) );
#191 = FILL_AREA_STYLE_COLOUR ( '', #109 ) ;
#192 = EDGE_LOOP ( 'NONE', ( #11, #152 ) ) ;
#193 = CARTESIAN_POINT ( 'NONE',  ( -0.1968504999999999838, 0.000000000000000000, 2.834646000000000665 ) ) ;
#194 = CARTESIAN_POINT ( 'NONE',  ( 1.205361061354380629E-16, 0.000000000000000000, 0.9842519999999999047 ) ) ;
#195 = ADVANCED_FACE ( 'NONE', ( #112 ), #105, .T. ) ;
#196 = DIRECTION ( 'NONE',  ( 0.000000000000000000, 0.000000000000000000, 1.000000000000000000 ) ) ;
#197 = VECTOR ( 'NONE', #79, 39.37007874015748143 ) ;
#198 = DIRECTION ( 'NONE',  ( 1.000000000000000000, 0.000000000000000000, -0.000000000000000000 ) ) ;
#199 = PRODUCT_DEFINITION_FORMATION_WITH_SPECIFIED_SOURCE ( 'ANY', '', #163, .NOT_KNOWN. ) ;
#200 = CARTESIAN_POINT ( 'NONE',  ( 1.205361061354380629E-16, 0.000000000000000000, 0.9842519999999999047 ) ) ;
#201 =( NAMED_UNIT ( * ) SI_UNIT ( $, .STERADIAN. ) SOLID_ANGLE_UNIT ( ) );
#202 = AXIS2_PLACEMENT_3D ( 'NONE', #212, #52, #185 ) ;
#203 = DIRECTION ( 'NONE',  ( -1.000000000000000000, 0.000000000000000000, 0.000000000000000000 ) ) ;
#204 = CARTESIAN_POINT ( 'NONE',  ( -0.1966536494999999996, 0.000000000000000000, 4.816625248016410340E-17 ) ) ;
#205 = EDGE_LOOP ( 'NONE', ( #265, #43, #25, #96 ) ) ;
#206 = CIRCLE ( 'NONE', #39, 0.1968504999999999838 ) ;
#207 = ADVANCED_FACE ( 'NONE', ( #260 ), #266, .T. ) ;
#208 = CARTESIAN_POINT ( 'NONE',  ( 0.1966536495000001383, 0.000000000000000000, 0.9842519999999999047 ) ) ;
#209 = VERTEX_POINT ( 'NONE', #27 ) ;
#210 = FACE_OUTER_BOUND ( 'NONE', #283, .T. ) ;
#211 = VECTOR ( 'NONE', #250, 39.37007874015748143 ) ;
#212 = CARTESIAN_POINT ( 'NONE',  ( 0.000000000000000000, 0.000000000000000000, 2.834646000000000665 ) ) ;
#213 = CARTESIAN_POINT ( 'NONE',  ( -0.1968504999999999838, 0.000000000000000000, 2.819646000000000097 ) ) ;
#214 = CIRCLE ( 'NONE', #134, 0.1968504999999999838 ) ;
#215 = VECTOR ( 'NONE', #277, 39.37007874015748143 ) ;
#216 = SURFACE_STYLE_USAGE ( .BOTH. , #2 ) ;
#217 = CARTESIAN_POINT ( 'NONE',  ( 0.000000000000000000, 0.000000000000000000, 2.834646000000000665 ) ) ;
#218 = PRODUCT_DEFINITION_CONTEXT ( 'detailed design', #86, 'design' ) ;
#219 = FACE_OUTER_BOUND ( 'NONE', #178, .T. ) ;
#220 = CARTESIAN_POINT ( 'NONE',  ( 0.1966536494999999996, 2.408312624008205170E-17, 0.000000000000000000 ) ) ;
#221 = ORIENTED_EDGE ( 'NONE', *, *, #95, .T. ) ;
#222 = DIRECTION ( 'NONE',  ( -1.224646799147353207E-16, -0.000000000000000000, -1.000000000000000000 ) ) ;
#223 = EDGE_CURVE ( 'NONE', #166, #228, #233, .T. ) ;
#224 = AXIS2_PLACEMENT_3D ( 'NONE', #64, #32, #272 ) ;
#225 = LINE ( 'NONE', #254, #135 ) ;
#226 = AXIS2_PLACEMENT_3D ( 'NONE', #125, #147, #198 ) ;
#227 = PRODUCT_RELATED_PRODUCT_CATEGORY ( 'part', '', ( #163 ) ) ;
#228 = VERTEX_POINT ( 'NONE', #213 ) ;
#229 = CARTESIAN_POINT ( 'NONE',  ( 0.000000000000000000, 0.000000000000000000, 2.834646000000000665 ) ) ;
#230 = LENGTH_MEASURE_WITH_UNIT ( LENGTH_MEASURE( 0.02539999999999999897 ), #6 );
#231 = ADVANCED_FACE ( 'NONE', ( #102 ), #173, .T. ) ;
#232 = DIRECTION ( 'NONE',  ( 1.000000000000000000, 0.000000000000000000, 0.000000000000000000 ) ) ;
#233 = LINE ( 'NONE', #123, #81 ) ;
#234 = ORIENTED_EDGE ( 'NONE', *, *, #151, .F. ) ;
#235 = AXIS2_PLACEMENT_3D ( 'NONE', #4, #139, #171 ) ;
#236 = DIRECTION ( 'NONE',  ( 1.000000000000000000, 0.000000000000000000, 0.000000000000000000 ) ) ;
#237 = VERTEX_POINT ( 'NONE', #75 ) ;
#238 = DIRECTION ( 'NONE',  ( -1.224646799147353207E-16, -0.000000000000000000, -1.000000000000000000 ) ) ;
#239 =( NAMED_UNIT ( * ) PLANE_ANGLE_UNIT ( ) SI_UNIT ( $, .RADIAN. ) );
#240 = CONICAL_SURFACE ( 'NONE', #115, 0.1966536494999999996, 0.1745329251994338360 ) ;
#241 = CARTESIAN_POINT ( 'NONE',  ( 1.205361061354380629E-16, 0.000000000000000000, 0.9842519999999999047 ) ) ;
#242 = ORIENTED_EDGE ( 'NONE', *, *, #174, .F. ) ;
#243 = ADVANCED_FACE ( 'NONE', ( #267 ), #179, .T. ) ;
#244 = CIRCLE ( 'NONE', #224, 0.1968504999999999838 ) ;
#245 = LINE ( 'NONE', #41, #31 ) ;
#246 = CYLINDRICAL_SURFACE ( 'NONE', #98, 0.1966536494999999996 ) ;
#247 = ADVANCED_FACE ( 'NONE', ( #56 ), #240, .T. ) ;
#248 = DIRECTION ( 'NONE',  ( 1.000000000000000000, 0.000000000000000000, 0.000000000000000000 ) ) ;
#249 = EDGE_LOOP ( 'NONE', ( #72, #150 ) ) ;
#250 = DIRECTION ( 'NONE',  ( 0.1736481776669313304, 0.000000000000000000, 0.9848077530122077983 ) ) ;
#251 = ORIENTED_EDGE ( 'NONE', *, *, #114, .F. ) ;
#252 = DIMENSIONAL_EXPONENTS ( 1.000000000000000000, 0.000000000000000000, 0.000000000000000000, 0.000000000000000000, 0.000000000000000000, 0.000000000000000000, 0.000000000000000000 ) ;
#253 = AXIS2_PLACEMENT_3D ( 'NONE', #88, #177, #62 ) ;
#254 = CARTESIAN_POINT ( 'NONE',  ( 0.1968504999999999838, 2.410723347355560646E-17, 2.834646000000000665 ) ) ;
#255 = EDGE_LOOP ( 'NONE', ( #124, #145, #53, #278 ) ) ;
#256 = EDGE_CURVE ( 'NONE', #30, #172, #295, .T. ) ;
#257 = DIRECTION ( 'NONE',  ( -0.1736481776669311639, 2.126576849575782392E-17, 0.9848077530122080203 ) ) ;
#258 = VERTEX_POINT ( 'NONE', #82 ) ;
#259 = FACE_OUTER_BOUND ( 'NONE', #280, .T. ) ;
#260 = FACE_OUTER_BOUND ( 'NONE', #270, .T. ) ;
#261 = DIRECTION ( 'NONE',  ( -1.224646799147353207E-16, -0.000000000000000000, -1.000000000000000000 ) ) ;
#262 = DIRECTION ( 'NONE',  ( 1.000000000000000000, 0.000000000000000000, 0.000000000000000000 ) ) ;
#263 = ORIENTED_EDGE ( 'NONE', *, *, #256, .F. ) ;
#264 = SURFACE_STYLE_USAGE ( .BOTH. , #76 ) ;
#265 = ORIENTED_EDGE ( 'NONE', *, *, #71, .F. ) ;
#266 = CONICAL_SURFACE ( 'NONE', #271, 0.1966536494999999996, 0.1745329251994338360 ) ;
#267 = FACE_OUTER_BOUND ( 'NONE', #255, .T. ) ;
#268 =( NAMED_UNIT ( * ) SI_UNIT ( $, .STERADIAN. ) SOLID_ANGLE_UNIT ( ) );
#269 = DIRECTION ( 'NONE',  ( 1.000000000000000000, 0.000000000000000000, 0.000000000000000000 ) ) ;
#270 = EDGE_LOOP ( 'NONE', ( #263, #158, #221, #242 ) ) ;
#271 = AXIS2_PLACEMENT_3D ( 'NONE', #200, #144, #236 ) ;
#272 = DIRECTION ( 'NONE',  ( 1.000000000000000000, 0.000000000000000000, 0.000000000000000000 ) ) ;
#273 = PRESENTATION_LAYER_ASSIGNMENT (  '', '', ( #143 ) ) ;
#274 = DIRECTION ( 'NONE',  ( -1.224646799147353207E-16, -0.000000000000000000, -1.000000000000000000 ) ) ;
#275 = EDGE_CURVE ( 'NONE', #87, #77, #288, .T. ) ;
#276 = DIRECTION ( 'NONE',  ( -1.224646799147353207E-16, -0.000000000000000000, -1.000000000000000000 ) ) ;
#277 = DIRECTION ( 'NONE',  ( -1.224646799147353207E-16, -0.000000000000000000, -1.000000000000000000 ) ) ;
#278 = ORIENTED_EDGE ( 'NONE', *, *, #223, .F. ) ;
#279 = DIRECTION ( 'NONE',  ( -1.224646799147353207E-16, -0.000000000000000000, -1.000000000000000000 ) ) ;
#280 = EDGE_LOOP ( 'NONE', ( #55, #110, #169, #100 ) ) ;
#281 = CARTESIAN_POINT ( 'NONE',  ( -0.1966536494999998608, 2.409517985681882600E-17, 0.9842519999999999047 ) ) ;
#282 = AXIS2_PLACEMENT_3D ( 'NONE', #126, #99, #23 ) ;
#283 = EDGE_LOOP ( 'NONE', ( #285, #108, #297, #38 ) ) ;
#284 = SURFACE_STYLE_FILL_AREA ( #29 ) ;
#285 = ORIENTED_EDGE ( 'NONE', *, *, #256, .T. ) ;
#286 = CARTESIAN_POINT ( 'NONE',  ( 1.205361061354380629E-16, 0.000000000000000000, 0.9842519999999999047 ) ) ;
#287 = CARTESIAN_POINT ( 'NONE',  ( 2.949332346337811403E-33, 0.000000000000000000, 2.408312624008205170E-17 ) ) ;
#288 = CIRCLE ( 'NONE', #22, 0.1966536494999999996 ) ;
#289 =( CONVERSION_BASED_UNIT ( 'INCH', #230 ) LENGTH_UNIT ( ) NAMED_UNIT ( #292 ) );
#290 = EDGE_CURVE ( 'NONE', #166, #258, #68, .T. ) ;
#291 = MANIFOLD_SOLID_BREP ( 'Cut-Revolve1', #187 ) ;
#292 = DIMENSIONAL_EXPONENTS ( 1.000000000000000000, 0.000000000000000000, 0.000000000000000000, 0.000000000000000000, 0.000000000000000000, 0.000000000000000000, 0.000000000000000000 ) ;
#293 = ADVANCED_BREP_SHAPE_REPRESENTATION ( 'Micro_AEMM-100-2', ( #291, #17 ), #48 ) ;
#294 = EDGE_LOOP ( 'NONE', ( #234, #60, #70, #142 ) ) ;
#295 = CIRCLE ( 'NONE', #160, 0.1966536494999999996 ) ;
#296 = MECHANICAL_DESIGN_GEOMETRIC_PRESENTATION_REPRESENTATION (  '', ( #143 ), #120 ) ;
#297 = ORIENTED_EDGE ( 'NONE', *, *, #155, .F. ) ;
#298 = ORIENTED_EDGE ( 'NONE', *, *, #186, .F. ) ;
#299 = CIRCLE ( 'NONE', #3, 0.1818505000000002481 ) ;
ENDSEC;
END-ISO-10303-21;
