ISO-10303-21;
HEADER;
FILE_DESCRIPTION (( 'STEP AP214' ),
    '1' );
FILE_NAME ('Micro_RTC-312-24.STEP',
    '2021-09-03T18:15:30',
    ( '' ),
    ( '' ),
    'SwSTEP 2.0',
    'SolidWorks 2020',
    '' );
FILE_SCHEMA (( 'AUTOMOTIVE_DESIGN' ));
ENDSEC;

DATA;
#1 = ORIENTED_EDGE ( 'NONE', *, *, #138, .F. ) ;
#2 = FILL_AREA_STYLE ('',( #115 ) ) ;
#3 = EDGE_CURVE ( 'NONE', #8, #83, #28, .T. ) ;
#4 = AXIS2_PLACEMENT_3D ( 'NONE', #217, #194, #101 ) ;
#5 = ORIENTED_EDGE ( 'NONE', *, *, #197, .F. ) ;
#6 = CARTESIAN_POINT ( 'NONE',  ( 0.1562500000000000000, 1.913510623667739463E-17, 4.000000000000000000 ) ) ;
#7 = ORIENTED_EDGE ( 'NONE', *, *, #18, .T. ) ;
#8 = VERTEX_POINT ( 'NONE', #222 ) ;
#9 = DIMENSIONAL_EXPONENTS ( 1.000000000000000000, 0.0000000000000000000, 0.0000000000000000000, 0.0000000000000000000, 0.0000000000000000000, 0.0000000000000000000, 0.0000000000000000000 ) ;
#10 = ORIENTED_EDGE ( 'NONE', *, *, #130, .T. ) ;
#11 =( CONVERSION_BASED_UNIT ( 'INCH', #51 ) LENGTH_UNIT ( ) NAMED_UNIT ( #9 ) );
#12 = LINE ( 'NONE', #165, #183 ) ;
#13 = DIRECTION ( 'NONE',  ( -0.0000000000000000000, -0.0000000000000000000, -1.000000000000000000 ) ) ;
#14 = FILL_AREA_STYLE ('',( #150 ) ) ;
#15 = PRODUCT_DEFINITION ( 'UNKNOWN', '', #237, #118 ) ;
#16 = PRODUCT_CONTEXT ( 'NONE', #238, 'mechanical' ) ;
#17 = DIRECTION ( 'NONE',  ( 0.0000000000000000000, 0.0000000000000000000, 1.000000000000000000 ) ) ;
#18 = EDGE_CURVE ( 'NONE', #82, #220, #145, .T. ) ;
#19 = DIRECTION ( 'NONE',  ( -0.0000000000000000000, -0.0000000000000000000, -1.000000000000000000 ) ) ;
#20 = DIRECTION ( 'NONE',  ( 0.0000000000000000000, 0.0000000000000000000, 1.000000000000000000 ) ) ;
#21 = EDGE_CURVE ( 'NONE', #124, #82, #204, .T. ) ;
#22 = ORIENTED_EDGE ( 'NONE', *, *, #110, .F. ) ;
#23 = APPLICATION_CONTEXT ( 'automotive_design' ) ;
#24 = ORIENTED_EDGE ( 'NONE', *, *, #42, .F. ) ;
#25 = APPLICATION_PROTOCOL_DEFINITION ( 'draft international standard', 'automotive_design', 1998, #23 ) ;
#26 = EDGE_LOOP ( 'NONE', ( #66, #10, #215, #22 ) ) ;
#27 = EDGE_CURVE ( 'NONE', #83, #240, #12, .T. ) ;
#28 = CIRCLE ( 'NONE', #171, 0.003999999999999999216 ) ;
#29 = AXIS2_PLACEMENT_3D ( 'NONE', #79, #19, #152 ) ;
#30 = ORIENTED_EDGE ( 'NONE', *, *, #57, .F. ) ;
#31 = FACE_OUTER_BOUND ( 'NONE', #26, .T. ) ;
#32 = DIRECTION ( 'NONE',  ( 0.0000000000000000000, 0.0000000000000000000, 1.000000000000000000 ) ) ;
#33 = SURFACE_STYLE_FILL_AREA ( #14 ) ;
#34 = AXIS2_PLACEMENT_3D ( 'NONE', #179, #49, #207 ) ;
#35 = AXIS2_PLACEMENT_3D ( 'NONE', #53, #245, #129 ) ;
#36 =( LENGTH_UNIT ( ) NAMED_UNIT ( * ) SI_UNIT ( $, .METRE. ) );
#37 = ADVANCED_FACE ( 'NONE', ( #142 ), #46, .T. ) ;
#38 = ORIENTED_EDGE ( 'NONE', *, *, #18, .F. ) ;
#39 = EDGE_CURVE ( 'NONE', #240, #76, #177, .T. ) ;
#40 = AXIS2_PLACEMENT_3D ( 'NONE', #184, #13, #225 ) ;
#41 = DIRECTION ( 'NONE',  ( 1.000000000000000000, 0.0000000000000000000, 0.0000000000000000000 ) ) ;
#42 = EDGE_CURVE ( 'NONE', #159, #240, #62, .T. ) ;
#43 = CARTESIAN_POINT ( 'NONE',  ( 0.0000000000000000000, 0.0000000000000000000, 4.000000000000000000 ) ) ;
#44 = EDGE_CURVE ( 'NONE', #83, #8, #147, .T. ) ;
#45 = ORIENTED_EDGE ( 'NONE', *, *, #21, .F. ) ;
#46 = CONICAL_SURFACE ( 'NONE', #80, 0.003999999999999999216, 0.2617993877991502960 ) ;
#47 = CONICAL_SURFACE ( 'NONE', #161, 0.003999999999999999216, 0.2617993877991502960 ) ;
#48 = CARTESIAN_POINT ( 'NONE',  ( -0.003999999999999999216, 4.898587196589411612E-19, 0.0000000000000000000 ) ) ;
#49 = DIRECTION ( 'NONE',  ( 0.0000000000000000000, 0.0000000000000000000, -1.000000000000000000 ) ) ;
#50 = DIRECTION ( 'NONE',  ( -1.000000000000000000, 0.0000000000000000000, 0.0000000000000000000 ) ) ;
#51 = LENGTH_MEASURE_WITH_UNIT ( LENGTH_MEASURE( 0.02539999999999999897 ), #111 );
#52 = CARTESIAN_POINT ( 'NONE',  ( -0.1562500000000000000, 0.0000000000000000000, 4.000000000000000000 ) ) ;
#53 = CARTESIAN_POINT ( 'NONE',  ( 0.0000000000000000000, 0.0000000000000000000, 3.431795264547640834 ) ) ;
#54 = CARTESIAN_POINT ( 'NONE',  ( 0.1562500000000000000, 1.913510623667739463E-17, 3.431795264547640834 ) ) ;
#55 = EDGE_CURVE ( 'NONE', #124, #76, #231, .T. ) ;
#56 = CARTESIAN_POINT ( 'NONE',  ( 0.0000000000000000000, 0.0000000000000000000, 0.0000000000000000000 ) ) ;
#57 = EDGE_CURVE ( 'NONE', #8, #159, #178, .T. ) ;
#58 = DIRECTION ( 'NONE',  ( 1.000000000000000000, 0.0000000000000000000, -0.0000000000000000000 ) ) ;
#59 = SHAPE_DEFINITION_REPRESENTATION ( #175, #136 ) ;
#60 = EDGE_LOOP ( 'NONE', ( #191, #221, #239, #85 ) ) ;
#61 = UNCERTAINTY_MEASURE_WITH_UNIT (LENGTH_MEASURE( 1.000000000000000082E-05 ), #11, 'distance_accuracy_value', 'NONE');
#62 = CIRCLE ( 'NONE', #4, 0.1562500000000000000 ) ;
#63 =( GEOMETRIC_REPRESENTATION_CONTEXT ( 3 ) GLOBAL_UNCERTAINTY_ASSIGNED_CONTEXT ( ( #246 ) ) GLOBAL_UNIT_ASSIGNED_CONTEXT ( ( #232, #230, #137 ) ) REPRESENTATION_CONTEXT ( 'NONE', 'WORKASPACE' ) );
#64 = ORIENTED_EDGE ( 'NONE', *, *, #27, .T. ) ;
#65 = ORIENTED_EDGE ( 'NONE', *, *, #55, .F. ) ;
#66 = ORIENTED_EDGE ( 'NONE', *, *, #39, .F. ) ;
#67 = PRESENTATION_STYLE_ASSIGNMENT (( #107 ) ) ;
#68 = DIRECTION ( 'NONE',  ( -0.0000000000000000000, -0.0000000000000000000, -1.000000000000000000 ) ) ;
#69 =( NAMED_UNIT ( * ) PLANE_ANGLE_UNIT ( ) SI_UNIT ( $, .RADIAN. ) );
#70 = CARTESIAN_POINT ( 'NONE',  ( 0.0000000000000000000, 0.0000000000000000000, 0.0000000000000000000 ) ) ;
#71 = MECHANICAL_DESIGN_GEOMETRIC_PRESENTATION_REPRESENTATION (  '', ( #233 ), #141 ) ;
#72 = ADVANCED_FACE ( 'NONE', ( #195 ), #166, .T. ) ;
#73 =( NAMED_UNIT ( * ) PLANE_ANGLE_UNIT ( ) SI_UNIT ( $, .RADIAN. ) );
#74 = SURFACE_STYLE_USAGE ( .BOTH. , #156 ) ;
#75 = MANIFOLD_SOLID_BREP ( 'Mirror1', #140 ) ;
#76 = VERTEX_POINT ( 'NONE', #205 ) ;
#77 = CIRCLE ( 'NONE', #40, 0.1562500000000000000 ) ;
#78 = PLANE ( 'NONE',  #236 ) ;
#79 = CARTESIAN_POINT ( 'NONE',  ( 0.0000000000000000000, 0.0000000000000000000, 0.0000000000000000000 ) ) ;
#80 = AXIS2_PLACEMENT_3D ( 'NONE', #43, #119, #100 ) ;
#81 = AXIS2_PLACEMENT_3D ( 'NONE', #169, #226, #202 ) ;
#82 = VERTEX_POINT ( 'NONE', #209 ) ;
#83 = VERTEX_POINT ( 'NONE', #203 ) ;
#84 = DIRECTION ( 'NONE',  ( 0.0000000000000000000, 0.0000000000000000000, -1.000000000000000000 ) ) ;
#85 = ORIENTED_EDGE ( 'NONE', *, *, #27, .F. ) ;
#86 = FACE_OUTER_BOUND ( 'NONE', #122, .T. ) ;
#87 = EDGE_LOOP ( 'NONE', ( #163, #7, #234, #65 ) ) ;
#88 = CARTESIAN_POINT ( 'NONE',  ( 0.0000000000000000000, 0.0000000000000000000, 0.5682047354523593885 ) ) ;
#89 = STYLED_ITEM ( 'NONE', ( #67 ), #75 ) ;
#90 = CARTESIAN_POINT ( 'NONE',  ( 0.0000000000000000000, 0.0000000000000000000, 4.000000000000000000 ) ) ;
#91 = ADVANCED_FACE ( 'NONE', ( #86 ), #229, .T. ) ;
#92 = CARTESIAN_POINT ( 'NONE',  ( 0.0000000000000000000, 0.0000000000000000000, 4.000000000000000000 ) ) ;
#93 = VECTOR ( 'NONE', #193, 39.37007874015748143 ) ;
#94 = CARTESIAN_POINT ( 'NONE',  ( 0.0000000000000000000, 0.0000000000000000000, 0.0000000000000000000 ) ) ;
#95 =( LENGTH_UNIT ( ) NAMED_UNIT ( * ) SI_UNIT ( $, .METRE. ) );
#96 = CARTESIAN_POINT ( 'NONE',  ( -0.1562500000000000000, 0.0000000000000000000, 0.5682047354523593885 ) ) ;
#97 = DIMENSIONAL_EXPONENTS ( 1.000000000000000000, 0.0000000000000000000, 0.0000000000000000000, 0.0000000000000000000, 0.0000000000000000000, 0.0000000000000000000, 0.0000000000000000000 ) ;
#98 = FACE_OUTER_BOUND ( 'NONE', #214, .T. ) ;
#99 = COLOUR_RGB ( '',0.7921568627450980005, 0.8196078431372548767, 0.9333333333333333481 ) ;
#100 = DIRECTION ( 'NONE',  ( 1.000000000000000000, 0.0000000000000000000, 0.0000000000000000000 ) ) ;
#101 = DIRECTION ( 'NONE',  ( -1.000000000000000000, 0.0000000000000000000, 0.0000000000000000000 ) ) ;
#102 = ORIENTED_EDGE ( 'NONE', *, *, #42, .T. ) ;
#103 = AXIS2_PLACEMENT_3D ( 'NONE', #139, #20, #41 ) ;
#104 = ORIENTED_EDGE ( 'NONE', *, *, #21, .T. ) ;
#105 = CARTESIAN_POINT ( 'NONE',  ( 0.0000000000000000000, 0.0000000000000000000, 4.000000000000000000 ) ) ;
#106 = DIRECTION ( 'NONE',  ( -0.0000000000000000000, -0.0000000000000000000, -1.000000000000000000 ) ) ;
#107 = SURFACE_STYLE_USAGE ( .BOTH. , #187 ) ;
#108 = CONICAL_SURFACE ( 'NONE', #103, 0.003999999999999999216, 0.2617993877991502960 ) ;
#109 = DIRECTION ( 'NONE',  ( -1.000000000000000000, 0.0000000000000000000, 0.0000000000000000000 ) ) ;
#110 = EDGE_CURVE ( 'NONE', #76, #220, #200, .T. ) ;
#111 =( LENGTH_UNIT ( ) NAMED_UNIT ( * ) SI_UNIT ( $, .METRE. ) );
#112 = CIRCLE ( 'NONE', #29, 0.003999999999999999216 ) ;
#113 = APPLICATION_PROTOCOL_DEFINITION ( 'draft international standard', 'automotive_design', 1998, #238 ) ;
#114 = LENGTH_MEASURE_WITH_UNIT ( LENGTH_MEASURE( 0.02539999999999999897 ), #36 );
#115 = FILL_AREA_STYLE_COLOUR ( '', #206 ) ;
#116 =( GEOMETRIC_REPRESENTATION_CONTEXT ( 3 ) GLOBAL_UNCERTAINTY_ASSIGNED_CONTEXT ( ( #61 ) ) GLOBAL_UNIT_ASSIGNED_CONTEXT ( ( #11, #69, #170 ) ) REPRESENTATION_CONTEXT ( 'NONE', 'WORKASPACE' ) );
#117 = CARTESIAN_POINT ( 'NONE',  ( 0.003999999999999999216, 0.0000000000000000000, 0.0000000000000000000 ) ) ;
#118 = PRODUCT_DEFINITION_CONTEXT ( 'detailed design', #23, 'design' ) ;
#119 = DIRECTION ( 'NONE',  ( 0.0000000000000000000, 0.0000000000000000000, -1.000000000000000000 ) ) ;
#120 = PRESENTATION_LAYER_ASSIGNMENT (  '', '', ( #89 ) ) ;
#121 = DIRECTION ( 'NONE',  ( 0.2588190451025216832, 0.0000000000000000000, 0.9659258262890679791 ) ) ;
#122 = EDGE_LOOP ( 'NONE', ( #162, #146 ) ) ;
#123 = DIRECTION ( 'NONE',  ( -0.2588190451025216832, -3.169619151431776035E-17, -0.9659258262890679791 ) ) ;
#124 = VERTEX_POINT ( 'NONE', #249 ) ;
#125 = CARTESIAN_POINT ( 'NONE',  ( 0.0000000000000000000, 0.0000000000000000000, 0.0000000000000000000 ) ) ;
#126 = AXIS2_PLACEMENT_3D ( 'NONE', #56, #17, #213 ) ;
#127 = DIRECTION ( 'NONE',  ( -0.0000000000000000000, -0.0000000000000000000, -1.000000000000000000 ) ) ;
#128 = CYLINDRICAL_SURFACE ( 'NONE', #188, 0.1562500000000000000 ) ;
#129 = DIRECTION ( 'NONE',  ( -1.000000000000000000, 0.0000000000000000000, 0.0000000000000000000 ) ) ;
#130 = EDGE_CURVE ( 'NONE', #240, #159, #185, .T. ) ;
#131 = DIRECTION ( 'NONE',  ( 1.000000000000000000, 0.0000000000000000000, 0.0000000000000000000 ) ) ;
#132 = AXIS2_PLACEMENT_3D ( 'NONE', #92, #151, #208 ) ;
#133 = ADVANCED_FACE ( 'NONE', ( #148 ), #47, .T. ) ;
#134 = DIRECTION ( 'NONE',  ( -0.0000000000000000000, -0.0000000000000000000, -1.000000000000000000 ) ) ;
#135 = PRODUCT_RELATED_PRODUCT_CATEGORY ( 'part', '', ( #216 ) ) ;
#136 = ADVANCED_BREP_SHAPE_REPRESENTATION ( 'Micro_RTC-312-24', ( #75, #126 ), #63 ) ;
#137 =( NAMED_UNIT ( * ) SI_UNIT ( $, .STERADIAN. ) SOLID_ANGLE_UNIT ( ) );
#138 = EDGE_CURVE ( 'NONE', #220, #76, #77, .T. ) ;
#139 = CARTESIAN_POINT ( 'NONE',  ( 0.0000000000000000000, 0.0000000000000000000, 0.0000000000000000000 ) ) ;
#140 = CLOSED_SHELL ( 'NONE', ( #72, #228, #190, #174, #133, #242, #37, #91 ) ) ;
#141 =( GEOMETRIC_REPRESENTATION_CONTEXT ( 3 ) GLOBAL_UNCERTAINTY_ASSIGNED_CONTEXT ( ( #157 ) ) GLOBAL_UNIT_ASSIGNED_CONTEXT ( ( #211, #73, #172 ) ) REPRESENTATION_CONTEXT ( 'NONE', 'WORKASPACE' ) );
#142 = FACE_OUTER_BOUND ( 'NONE', #144, .T. ) ;
#143 = DIRECTION ( 'NONE',  ( -0.0000000000000000000, -0.0000000000000000000, -1.000000000000000000 ) ) ;
#144 = EDGE_LOOP ( 'NONE', ( #30, #212, #64, #24 ) ) ;
#145 = LINE ( 'NONE', #48, #93 ) ;
#146 = ORIENTED_EDGE ( 'NONE', *, *, #3, .F. ) ;
#147 = CIRCLE ( 'NONE', #34, 0.003999999999999999216 ) ;
#148 = FACE_OUTER_BOUND ( 'NONE', #181, .T. ) ;
#149 = AXIS2_PLACEMENT_3D ( 'NONE', #88, #164, #50 ) ;
#150 = FILL_AREA_STYLE_COLOUR ( '', #99 ) ;
#151 = DIRECTION ( 'NONE',  ( 0.0000000000000000000, 0.0000000000000000000, -1.000000000000000000 ) ) ;
#152 = DIRECTION ( 'NONE',  ( -1.000000000000000000, 0.0000000000000000000, 0.0000000000000000000 ) ) ;
#153 = MECHANICAL_DESIGN_GEOMETRIC_PRESENTATION_REPRESENTATION (  '', ( #89 ), #116 ) ;
#154 = DIRECTION ( 'NONE',  ( 0.0000000000000000000, 0.0000000000000000000, 1.000000000000000000 ) ) ;
#155 = DIMENSIONAL_EXPONENTS ( 1.000000000000000000, 0.0000000000000000000, 0.0000000000000000000, 0.0000000000000000000, 0.0000000000000000000, 0.0000000000000000000, 0.0000000000000000000 ) ;
#156 = SURFACE_SIDE_STYLE ('',( #173 ) ) ;
#157 = UNCERTAINTY_MEASURE_WITH_UNIT (LENGTH_MEASURE( 1.000000000000000082E-05 ), #211, 'distance_accuracy_value', 'NONE');
#158 = ORIENTED_EDGE ( 'NONE', *, *, #55, .T. ) ;
#159 = VERTEX_POINT ( 'NONE', #227 ) ;
#160 = EDGE_LOOP ( 'NONE', ( #102, #244, #1, #5 ) ) ;
#161 = AXIS2_PLACEMENT_3D ( 'NONE', #70, #32, #131 ) ;
#162 = ORIENTED_EDGE ( 'NONE', *, *, #44, .F. ) ;
#163 = ORIENTED_EDGE ( 'NONE', *, *, #201, .F. ) ;
#164 = DIRECTION ( 'NONE',  ( -0.0000000000000000000, -0.0000000000000000000, -1.000000000000000000 ) ) ;
#165 = CARTESIAN_POINT ( 'NONE',  ( 0.003999999999999999216, 0.0000000000000000000, 4.000000000000000000 ) ) ;
#166 = CONICAL_SURFACE ( 'NONE', #132, 0.003999999999999999216, 0.2617993877991502960 ) ;
#167 = FACE_OUTER_BOUND ( 'NONE', #160, .T. ) ;
#168 = CYLINDRICAL_SURFACE ( 'NONE', #218, 0.1562500000000000000 ) ;
#169 = CARTESIAN_POINT ( 'NONE',  ( 0.0000000000000000000, 0.0000000000000000000, 4.000000000000000000 ) ) ;
#170 =( NAMED_UNIT ( * ) SI_UNIT ( $, .STERADIAN. ) SOLID_ANGLE_UNIT ( ) );
#171 = AXIS2_PLACEMENT_3D ( 'NONE', #105, #84, #243 ) ;
#172 =( NAMED_UNIT ( * ) SI_UNIT ( $, .STERADIAN. ) SOLID_ANGLE_UNIT ( ) );
#173 = SURFACE_STYLE_FILL_AREA ( #2 ) ;
#174 = ADVANCED_FACE ( 'NONE', ( #31 ), #128, .T. ) ;
#175 = PRODUCT_DEFINITION_SHAPE ( 'NONE', 'NONE',  #15 ) ;
#176 = VECTOR ( 'NONE', #121, 39.37007874015748143 ) ;
#177 = LINE ( 'NONE', #6, #223 ) ;
#178 = LINE ( 'NONE', #219, #192 ) ;
#179 = CARTESIAN_POINT ( 'NONE',  ( 0.0000000000000000000, 0.0000000000000000000, 4.000000000000000000 ) ) ;
#180 = ORIENTED_EDGE ( 'NONE', *, *, #110, .T. ) ;
#181 = EDGE_LOOP ( 'NONE', ( #38, #45, #158, #180 ) ) ;
#182 = DIRECTION ( 'NONE',  ( -1.000000000000000000, 0.0000000000000000000, 0.0000000000000000000 ) ) ;
#183 = VECTOR ( 'NONE', #247, 39.37007874015748143 ) ;
#184 = CARTESIAN_POINT ( 'NONE',  ( 0.0000000000000000000, 0.0000000000000000000, 0.5682047354523593885 ) ) ;
#185 = CIRCLE ( 'NONE', #35, 0.1562500000000000000 ) ;
#186 = LINE ( 'NONE', #52, #224 ) ;
#187 = SURFACE_SIDE_STYLE ('',( #33 ) ) ;
#188 = AXIS2_PLACEMENT_3D ( 'NONE', #90, #106, #182 ) ;
#189 = PRESENTATION_STYLE_ASSIGNMENT (( #74 ) ) ;
#190 = ADVANCED_FACE ( 'NONE', ( #167 ), #168, .T. ) ;
#191 = ORIENTED_EDGE ( 'NONE', *, *, #44, .T. ) ;
#192 = VECTOR ( 'NONE', #123, 39.37007874015748143 ) ;
#193 = DIRECTION ( 'NONE',  ( -0.2588190451025216832, 3.169619151431776035E-17, 0.9659258262890679791 ) ) ;
#194 = DIRECTION ( 'NONE',  ( 0.0000000000000000000, 0.0000000000000000000, -1.000000000000000000 ) ) ;
#195 = FACE_OUTER_BOUND ( 'NONE', #60, .T. ) ;
#196 = ORIENTED_EDGE ( 'NONE', *, *, #201, .T. ) ;
#197 = EDGE_CURVE ( 'NONE', #159, #220, #186, .T. ) ;
#198 = DIRECTION ( 'NONE',  ( -1.000000000000000000, 0.0000000000000000000, 0.0000000000000000000 ) ) ;
#199 = AXIS2_PLACEMENT_3D ( 'NONE', #125, #127, #198 ) ;
#200 = CIRCLE ( 'NONE', #149, 0.1562500000000000000 ) ;
#201 = EDGE_CURVE ( 'NONE', #82, #124, #112, .T. ) ;
#202 = DIRECTION ( 'NONE',  ( 1.000000000000000000, 0.0000000000000000000, -0.0000000000000000000 ) ) ;
#203 = CARTESIAN_POINT ( 'NONE',  ( 0.003999999999999999216, 0.0000000000000000000, 4.000000000000000000 ) ) ;
#204 = CIRCLE ( 'NONE', #199, 0.003999999999999999216 ) ;
#205 = CARTESIAN_POINT ( 'NONE',  ( 0.1562500000000000000, 1.913510623667739463E-17, 0.5682047354523593885 ) ) ;
#206 = COLOUR_RGB ( '',0.7921568627450980005, 0.8196078431372548767, 0.9333333333333333481 ) ;
#207 = DIRECTION ( 'NONE',  ( -1.000000000000000000, 0.0000000000000000000, 0.0000000000000000000 ) ) ;
#208 = DIRECTION ( 'NONE',  ( 1.000000000000000000, 0.0000000000000000000, 0.0000000000000000000 ) ) ;
#209 = CARTESIAN_POINT ( 'NONE',  ( -0.003999999999999999216, 9.812482478168164334E-18, 0.0000000000000000000 ) ) ;
#210 = FACE_OUTER_BOUND ( 'NONE', #87, .T. ) ;
#211 =( CONVERSION_BASED_UNIT ( 'INCH', #235 ) LENGTH_UNIT ( ) NAMED_UNIT ( #155 ) );
#212 = ORIENTED_EDGE ( 'NONE', *, *, #3, .T. ) ;
#213 = DIRECTION ( 'NONE',  ( 1.000000000000000000, 0.0000000000000000000, 0.0000000000000000000 ) ) ;
#214 = EDGE_LOOP ( 'NONE', ( #104, #196 ) ) ;
#215 = ORIENTED_EDGE ( 'NONE', *, *, #197, .T. ) ;
#216 = PRODUCT ( 'Micro_RTC-312-24', 'Micro_RTC-312-24', '', ( #16 ) ) ;
#217 = CARTESIAN_POINT ( 'NONE',  ( 0.0000000000000000000, 0.0000000000000000000, 3.431795264547640834 ) ) ;
#218 = AXIS2_PLACEMENT_3D ( 'NONE', #248, #68, #109 ) ;
#219 = CARTESIAN_POINT ( 'NONE',  ( -0.003999999999999999216, -4.898587196589411612E-19, 4.000000000000000000 ) ) ;
#220 = VERTEX_POINT ( 'NONE', #96 ) ;
#221 = ORIENTED_EDGE ( 'NONE', *, *, #57, .T. ) ;
#222 = CARTESIAN_POINT ( 'NONE',  ( -0.003999999999999999216, -9.812482478168161252E-18, 4.000000000000000000 ) ) ;
#223 = VECTOR ( 'NONE', #143, 39.37007874015748143 ) ;
#224 = VECTOR ( 'NONE', #134, 39.37007874015748143 ) ;
#225 = DIRECTION ( 'NONE',  ( -1.000000000000000000, 0.0000000000000000000, 0.0000000000000000000 ) ) ;
#226 = DIRECTION ( 'NONE',  ( 0.0000000000000000000, 0.0000000000000000000, 1.000000000000000000 ) ) ;
#227 = CARTESIAN_POINT ( 'NONE',  ( -0.1562500000000000000, 0.0000000000000000000, 3.431795264547640834 ) ) ;
#228 = ADVANCED_FACE ( 'NONE', ( #210 ), #108, .T. ) ;
#229 = PLANE ( 'NONE',  #81 ) ;
#230 =( NAMED_UNIT ( * ) PLANE_ANGLE_UNIT ( ) SI_UNIT ( $, .RADIAN. ) );
#231 = LINE ( 'NONE', #117, #176 ) ;
#232 =( CONVERSION_BASED_UNIT ( 'INCH', #114 ) LENGTH_UNIT ( ) NAMED_UNIT ( #97 ) );
#233 = STYLED_ITEM ( 'NONE', ( #189 ), #136 ) ;
#234 = ORIENTED_EDGE ( 'NONE', *, *, #138, .T. ) ;
#235 = LENGTH_MEASURE_WITH_UNIT ( LENGTH_MEASURE( 0.02539999999999999897 ), #95 );
#236 = AXIS2_PLACEMENT_3D ( 'NONE', #94, #154, #58 ) ;
#237 = PRODUCT_DEFINITION_FORMATION_WITH_SPECIFIED_SOURCE ( 'ANY', '', #216, .NOT_KNOWN. ) ;
#238 = APPLICATION_CONTEXT ( 'automotive_design' ) ;
#239 = ORIENTED_EDGE ( 'NONE', *, *, #130, .F. ) ;
#240 = VERTEX_POINT ( 'NONE', #54 ) ;
#241 = PRESENTATION_LAYER_ASSIGNMENT (  '', '', ( #233 ) ) ;
#242 = ADVANCED_FACE ( 'NONE', ( #98 ), #78, .F. ) ;
#243 = DIRECTION ( 'NONE',  ( -1.000000000000000000, 0.0000000000000000000, 0.0000000000000000000 ) ) ;
#244 = ORIENTED_EDGE ( 'NONE', *, *, #39, .T. ) ;
#245 = DIRECTION ( 'NONE',  ( 0.0000000000000000000, 0.0000000000000000000, -1.000000000000000000 ) ) ;
#246 = UNCERTAINTY_MEASURE_WITH_UNIT (LENGTH_MEASURE( 1.000000000000000082E-05 ), #232, 'distance_accuracy_value', 'NONE');
#247 = DIRECTION ( 'NONE',  ( 0.2588190451025216832, 0.0000000000000000000, -0.9659258262890679791 ) ) ;
#248 = CARTESIAN_POINT ( 'NONE',  ( 0.0000000000000000000, 0.0000000000000000000, 4.000000000000000000 ) ) ;
#249 = CARTESIAN_POINT ( 'NONE',  ( 0.003999999999999999216, 0.0000000000000000000, 0.0000000000000000000 ) ) ;
ENDSEC;
END-ISO-10303-21;
