ISO-10303-21;
HEADER;
FILE_DESCRIPTION (( 'STEP AP214' ),
    '1' );
FILE_NAME ('48656.STEP',
    '2023-06-22T21:57:04',
    ( '' ),
    ( '' ),
    'SwSTEP 2.0',
    'SolidWorks 2023',
    '' );
FILE_SCHEMA (( 'AUTOMOTIVE_DESIGN' ));
ENDSEC;

DATA;
#1 = PRESENTATION_STYLE_ASSIGNMENT (( #4 ) ) ;
#2 = ADVANCED_FACE ( 'NONE', ( #294 ), #155, .T. ) ;
#3 = AXIS2_PLACEMENT_3D ( 'NONE', #70, #167, #145 ) ;
#4 = SURFACE_STYLE_USAGE ( .BOTH. , #127 ) ;
#5 =( GEOMETRIC_REPRESENTATION_CONTEXT ( 3 ) GLOBAL_UNCERTAINTY_ASSIGNED_CONTEXT ( ( #59 ) ) GLOBAL_UNIT_ASSIGNED_CONTEXT ( ( #121, #284, #141 ) ) REPRESENTATION_CONTEXT ( 'NONE', 'WORKASPACE' ) );
#6 = SURFACE_STYLE_FILL_AREA ( #245 ) ;
#7 = CARTESIAN_POINT ( 'NONE',  ( 0.000000000000000000, 0.000000000000000000, 0.000000000000000000 ) ) ;
#8 =( NAMED_UNIT ( * ) PLANE_ANGLE_UNIT ( ) SI_UNIT ( $, .RADIAN. ) );
#9 = DIRECTION ( 'NONE',  ( -0.000000000000000000, -1.000000000000000000, -0.000000000000000000 ) ) ;
#10 = EDGE_CURVE ( 'NONE', #253, #135, #246, .T. ) ;
#11 = VERTEX_POINT ( 'NONE', #96 ) ;
#12 = MECHANICAL_DESIGN_GEOMETRIC_PRESENTATION_REPRESENTATION (  '', ( #247 ), #202 ) ;
#13 =( NAMED_UNIT ( * ) SI_UNIT ( $, .STERADIAN. ) SOLID_ANGLE_UNIT ( ) );
#14 = CARTESIAN_POINT ( 'NONE',  ( 4.592425496802575451E-17, 0.000000000000000000, 0.3750000000000000555 ) ) ;
#15 = ORIENTED_EDGE ( 'NONE', *, *, #250, .T. ) ;
#16 = CARTESIAN_POINT ( 'NONE',  ( 1.516480271171051896E-32, 2.250000000000000444, 0.000000000000000000 ) ) ;
#17 = CARTESIAN_POINT ( 'NONE',  ( -1.224646799147353207E-16, 5.000000000000000000, 0.000000000000000000 ) ) ;
#18 = DIRECTION ( 'NONE',  ( 0.000000000000000000, 0.000000000000000000, -1.000000000000000000 ) ) ;
#19 = PRESENTATION_LAYER_ASSIGNMENT (  '', '', ( #214 ) ) ;
#20 = PRODUCT_DEFINITION_FORMATION_WITH_SPECIFIED_SOURCE ( 'ANY', '', #174, .NOT_KNOWN. ) ;
#21 = ADVANCED_FACE ( 'NONE', ( #303 ), #186, .F. ) ;
#22 = CARTESIAN_POINT ( 'NONE',  ( 1.516480271171051896E-32, 2.250000000000000444, 0.000000000000000000 ) ) ;
#23 = SURFACE_SIDE_STYLE ('',( #172 ) ) ;
#24 = EDGE_CURVE ( 'NONE', #11, #53, #215, .T. ) ;
#25 = CARTESIAN_POINT ( 'NONE',  ( 0.000000000000000000, 0.000000000000000000, -0.3750000000000000555 ) ) ;
#26 = DIMENSIONAL_EXPONENTS ( 1.000000000000000000, 0.000000000000000000, 0.000000000000000000, 0.000000000000000000, 0.000000000000000000, 0.000000000000000000, 0.000000000000000000 ) ;
#27 = APPLICATION_CONTEXT ( 'automotive_design' ) ;
#28 =( CONVERSION_BASED_UNIT ( 'INCH', #198 ) LENGTH_UNIT ( ) NAMED_UNIT ( #95 ) );
#29 =( NAMED_UNIT ( * ) PLANE_ANGLE_UNIT ( ) SI_UNIT ( $, .RADIAN. ) );
#30 = AXIS2_PLACEMENT_3D ( 'NONE', #159, #79, #32 ) ;
#31 = EDGE_LOOP ( 'NONE', ( #63, #158 ) ) ;
#32 = DIRECTION ( 'NONE',  ( -1.000000000000000000, 0.000000000000000000, 0.000000000000000000 ) ) ;
#33 = PRODUCT_DEFINITION_CONTEXT ( 'detailed design', #27, 'design' ) ;
#34 =( CONVERSION_BASED_UNIT ( 'INCH', #273 ) LENGTH_UNIT ( ) NAMED_UNIT ( #47 ) );
#35 = MECHANICAL_DESIGN_GEOMETRIC_PRESENTATION_REPRESENTATION (  '', ( #300 ), #217 ) ;
#36 = ORIENTED_EDGE ( 'NONE', *, *, #304, .T. ) ;
#37 = FACE_OUTER_BOUND ( 'NONE', #57, .T. ) ;
#38 = ORIENTED_EDGE ( 'NONE', *, *, #250, .F. ) ;
#39 = SURFACE_SIDE_STYLE ('',( #255 ) ) ;
#40 = CIRCLE ( 'NONE', #163, 0.3750000000000000555 ) ;
#41 = CYLINDRICAL_SURFACE ( 'NONE', #118, 0.3750000000000000555 ) ;
#42 = EDGE_CURVE ( 'NONE', #11, #126, #142, .T. ) ;
#43 = LENGTH_MEASURE_WITH_UNIT ( LENGTH_MEASURE( 0.02539999999999999897 ), #193 );
#44 = DIRECTION ( 'NONE',  ( -4.453261087808557677E-17, 1.000000000000000000, -0.000000000000000000 ) ) ;
#45 = VECTOR ( 'NONE', #44, 39.37007874015748143 ) ;
#46 = DIRECTION ( 'NONE',  ( 4.453261087808557677E-17, -1.000000000000000000, 0.000000000000000000 ) ) ;
#47 = DIMENSIONAL_EXPONENTS ( 1.000000000000000000, 0.000000000000000000, 0.000000000000000000, 0.000000000000000000, 0.000000000000000000, 0.000000000000000000, 0.000000000000000000 ) ;
#48 = VECTOR ( 'NONE', #278, 39.37007874015748143 ) ;
#49 =( NAMED_UNIT ( * ) PLANE_ANGLE_UNIT ( ) SI_UNIT ( $, .RADIAN. ) );
#50 = PRESENTATION_LAYER_ASSIGNMENT (  '', '', ( #223 ) ) ;
#51 = CARTESIAN_POINT ( 'NONE',  ( 0.000000000000000000, 0.000000000000000000, 0.000000000000000000 ) ) ;
#52 = PRESENTATION_STYLE_ASSIGNMENT (( #272 ) ) ;
#53 = VERTEX_POINT ( 'NONE', #25 ) ;
#54 = AXIS2_PLACEMENT_3D ( 'NONE', #189, #164, #232 ) ;
#55 = UNCERTAINTY_MEASURE_WITH_UNIT (LENGTH_MEASURE( 1.000000000000000082E-05 ), #28, 'distance_accuracy_value', 'NONE');
#56 = ORIENTED_EDGE ( 'NONE', *, *, #243, .F. ) ;
#57 = EDGE_LOOP ( 'NONE', ( #36, #15 ) ) ;
#58 = FACE_OUTER_BOUND ( 'NONE', #77, .T. ) ;
#59 = UNCERTAINTY_MEASURE_WITH_UNIT (LENGTH_MEASURE( 1.000000000000000082E-05 ), #121, 'distance_accuracy_value', 'NONE');
#60 = CARTESIAN_POINT ( 'NONE',  ( 0.000000000000000000, 0.000000000000000000, 0.000000000000000000 ) ) ;
#61 = CLOSED_SHELL ( 'NONE', ( #225, #211, #87, #152 ) ) ;
#62 = MECHANICAL_DESIGN_GEOMETRIC_PRESENTATION_REPRESENTATION (  '', ( #223 ), #5 ) ;
#63 = ORIENTED_EDGE ( 'NONE', *, *, #254, .T. ) ;
#64 = DIRECTION ( 'NONE',  ( -0.000000000000000000, -1.000000000000000000, -0.000000000000000000 ) ) ;
#65 =( NAMED_UNIT ( * ) PLANE_ANGLE_UNIT ( ) SI_UNIT ( $, .RADIAN. ) );
#66 = FILL_AREA_STYLE_COLOUR ( '', #280 ) ;
#67 =( GEOMETRIC_REPRESENTATION_CONTEXT ( 3 ) GLOBAL_UNCERTAINTY_ASSIGNED_CONTEXT ( ( #131 ) ) GLOBAL_UNIT_ASSIGNED_CONTEXT ( ( #34, #65, #160 ) ) REPRESENTATION_CONTEXT ( 'NONE', 'WORKASPACE' ) );
#68 = PLANE ( 'NONE',  #54 ) ;
#69 =( NAMED_UNIT ( * ) SI_UNIT ( $, .STERADIAN. ) SOLID_ANGLE_UNIT ( ) );
#70 = CARTESIAN_POINT ( 'NONE',  ( 0.000000000000000000, 2.250000000000000000, 0.000000000000000000 ) ) ;
#71 = SURFACE_SIDE_STYLE ('',( #165 ) ) ;
#72 = FILL_AREA_STYLE_COLOUR ( '', #130 ) ;
#73 = PLANE ( 'NONE',  #218 ) ;
#74 =( GEOMETRIC_REPRESENTATION_CONTEXT ( 3 ) GLOBAL_UNCERTAINTY_ASSIGNED_CONTEXT ( ( #271 ) ) GLOBAL_UNIT_ASSIGNED_CONTEXT ( ( #227, #49, #256 ) ) REPRESENTATION_CONTEXT ( 'NONE', 'WORKASPACE' ) );
#75 =( LENGTH_UNIT ( ) NAMED_UNIT ( * ) SI_UNIT ( $, .METRE. ) );
#76 = ADVANCED_FACE ( 'NONE', ( #123 ), #73, .F. ) ;
#77 = EDGE_LOOP ( 'NONE', ( #105, #179, #86, #184 ) ) ;
#78 = EDGE_LOOP ( 'NONE', ( #201, #290, #226, #222 ) ) ;
#79 = DIRECTION ( 'NONE',  ( -4.453261087808557677E-17, 1.000000000000000000, -0.000000000000000000 ) ) ;
#80 = COLOUR_RGB ( '',1.000000000000000000, 0.000000000000000000, 0.000000000000000000 ) ;
#81 = UNCERTAINTY_MEASURE_WITH_UNIT (LENGTH_MEASURE( 1.000000000000000082E-05 ), #115, 'distance_accuracy_value', 'NONE');
#82 = DIMENSIONAL_EXPONENTS ( 1.000000000000000000, 0.000000000000000000, 0.000000000000000000, 0.000000000000000000, 0.000000000000000000, 0.000000000000000000, 0.000000000000000000 ) ;
#83 = CARTESIAN_POINT ( 'NONE',  ( 0.3750000000000000555, 5.000000000000000000, 4.592425496802576684E-17 ) ) ;
#84 = CARTESIAN_POINT ( 'NONE',  ( 0.000000000000000000, 0.000000000000000000, 0.000000000000000000 ) ) ;
#85 =( NAMED_UNIT ( * ) SI_UNIT ( $, .STERADIAN. ) SOLID_ANGLE_UNIT ( ) );
#86 = ORIENTED_EDGE ( 'NONE', *, *, #254, .F. ) ;
#87 = ADVANCED_FACE ( 'NONE', ( #151 ), #101, .T. ) ;
#88 = FILL_AREA_STYLE_COLOUR ( '', #170 ) ;
#89 = VERTEX_POINT ( 'NONE', #161 ) ;
#90 = DIRECTION ( 'NONE',  ( 0.000000000000000000, 0.000000000000000000, -1.000000000000000000 ) ) ;
#91 = COLOUR_RGB ( '',1.000000000000000000, 0.000000000000000000, 0.000000000000000000 ) ;
#92 = PLANE ( 'NONE',  #143 ) ;
#93 = EDGE_CURVE ( 'NONE', #89, #135, #182, .T. ) ;
#94 = LENGTH_MEASURE_WITH_UNIT ( LENGTH_MEASURE( 0.02539999999999999897 ), #190 );
#95 = DIMENSIONAL_EXPONENTS ( 1.000000000000000000, 0.000000000000000000, 0.000000000000000000, 0.000000000000000000, 0.000000000000000000, 0.000000000000000000, 0.000000000000000000 ) ;
#96 = CARTESIAN_POINT ( 'NONE',  ( 0.000000000000000000, 2.250000000000000000, -0.3750000000000000555 ) ) ;
#97 = SURFACE_SIDE_STYLE ('',( #153 ) ) ;
#98 = ADVANCED_FACE ( 'NONE', ( #58 ), #205, .T. ) ;
#99 =( CONVERSION_BASED_UNIT ( 'INCH', #266 ) LENGTH_UNIT ( ) NAMED_UNIT ( #26 ) );
#100 = CARTESIAN_POINT ( 'NONE',  ( 4.592425496802575451E-17, 0.000000000000000000, 0.3750000000000000555 ) ) ;
#101 = CYLINDRICAL_SURFACE ( 'NONE', #277, 0.3750000000000000555 ) ;
#102 =( GEOMETRIC_REPRESENTATION_CONTEXT ( 3 ) GLOBAL_UNCERTAINTY_ASSIGNED_CONTEXT ( ( #55 ) ) GLOBAL_UNIT_ASSIGNED_CONTEXT ( ( #28, #124, #291 ) ) REPRESENTATION_CONTEXT ( 'NONE', 'WORKASPACE' ) );
#103 = DIRECTION ( 'NONE',  ( -0.000000000000000000, -1.000000000000000000, -0.000000000000000000 ) ) ;
#104 = FILL_AREA_STYLE_COLOUR ( '', #91 ) ;
#105 = ORIENTED_EDGE ( 'NONE', *, *, #178, .T. ) ;
#106 = DIRECTION ( 'NONE',  ( 0.000000000000000000, 0.000000000000000000, -1.000000000000000000 ) ) ;
#107 = CARTESIAN_POINT ( 'NONE',  ( 0.3750000000000000555, 2.250000000000000444, 4.592425496802576684E-17 ) ) ;
#108 = AXIS2_PLACEMENT_3D ( 'NONE', #17, #137, #129 ) ;
#109 = ORIENTED_EDGE ( 'NONE', *, *, #93, .T. ) ;
#110 = APPLICATION_PROTOCOL_DEFINITION ( 'draft international standard', 'automotive_design', 1998, #187 ) ;
#111 = DIRECTION ( 'NONE',  ( -4.453261087808557677E-17, 1.000000000000000000, -0.000000000000000000 ) ) ;
#112 = CARTESIAN_POINT ( 'NONE',  ( -1.224646799147353207E-16, 5.000000000000000000, 0.000000000000000000 ) ) ;
#113 = DIRECTION ( 'NONE',  ( -0.000000000000000000, -1.000000000000000000, -0.000000000000000000 ) ) ;
#114 = AXIS2_PLACEMENT_3D ( 'NONE', #305, #46, #206 ) ;
#115 =( CONVERSION_BASED_UNIT ( 'INCH', #94 ) LENGTH_UNIT ( ) NAMED_UNIT ( #82 ) );
#116 = FACE_OUTER_BOUND ( 'NONE', #78, .T. ) ;
#117 = SURFACE_STYLE_USAGE ( .BOTH. , #23 ) ;
#118 = AXIS2_PLACEMENT_3D ( 'NONE', #51, #9, #106 ) ;
#119 = EDGE_CURVE ( 'NONE', #126, #11, #40, .T. ) ;
#120 = PRODUCT_CONTEXT ( 'NONE', #187, 'mechanical' ) ;
#121 =( CONVERSION_BASED_UNIT ( 'INCH', #43 ) LENGTH_UNIT ( ) NAMED_UNIT ( #122 ) );
#122 = DIMENSIONAL_EXPONENTS ( 1.000000000000000000, 0.000000000000000000, 0.000000000000000000, 0.000000000000000000, 0.000000000000000000, 0.000000000000000000, 0.000000000000000000 ) ;
#123 = FACE_OUTER_BOUND ( 'NONE', #220, .T. ) ;
#124 =( NAMED_UNIT ( * ) PLANE_ANGLE_UNIT ( ) SI_UNIT ( $, .RADIAN. ) );
#125 = CLOSED_SHELL ( 'NONE', ( #98, #76, #2, #21 ) ) ;
#126 = VERTEX_POINT ( 'NONE', #297 ) ;
#127 = SURFACE_SIDE_STYLE ('',( #299 ) ) ;
#128 = ORIENTED_EDGE ( 'NONE', *, *, #178, .F. ) ;
#129 = DIRECTION ( 'NONE',  ( -1.000000000000000000, 0.000000000000000000, 0.000000000000000000 ) ) ;
#130 = COLOUR_RGB ( '',0.7921568627450980005, 0.8196078431372548767, 0.9333333333333333481 ) ;
#131 = UNCERTAINTY_MEASURE_WITH_UNIT (LENGTH_MEASURE( 1.000000000000000082E-05 ), #34, 'distance_accuracy_value', 'NONE');
#132 = VERTEX_POINT ( 'NONE', #14 ) ;
#133 = DIRECTION ( 'NONE',  ( 0.000000000000000000, 0.000000000000000000, 1.000000000000000000 ) ) ;
#134 = FILL_AREA_STYLE ('',( #88 ) ) ;
#135 = VERTEX_POINT ( 'NONE', #276 ) ;
#136 = DIRECTION ( 'NONE',  ( -4.453261087808557677E-17, 1.000000000000000000, -0.000000000000000000 ) ) ;
#137 = DIRECTION ( 'NONE',  ( -4.453261087808557677E-17, 1.000000000000000000, -0.000000000000000000 ) ) ;
#138 = MECHANICAL_DESIGN_GEOMETRIC_PRESENTATION_REPRESENTATION (  '', ( #219 ), #194 ) ;
#139 = FILL_AREA_STYLE_COLOUR ( '', #80 ) ;
#140 = DIRECTION ( 'NONE',  ( -4.453261087808557677E-17, 1.000000000000000000, -0.000000000000000000 ) ) ;
#141 =( NAMED_UNIT ( * ) SI_UNIT ( $, .STERADIAN. ) SOLID_ANGLE_UNIT ( ) );
#142 = CIRCLE ( 'NONE', #3, 0.3750000000000000555 ) ;
#143 = AXIS2_PLACEMENT_3D ( 'NONE', #188, #279, #210 ) ;
#144 = FILL_AREA_STYLE ('',( #66 ) ) ;
#145 = DIRECTION ( 'NONE',  ( 0.000000000000000000, 0.000000000000000000, -1.000000000000000000 ) ) ;
#146 = LENGTH_MEASURE_WITH_UNIT ( LENGTH_MEASURE( 0.02539999999999999897 ), #239 );
#147 = DIRECTION ( 'NONE',  ( -0.000000000000000000, -1.000000000000000000, -0.000000000000000000 ) ) ;
#148 = PRODUCT_RELATED_PRODUCT_CATEGORY ( 'part', '', ( #174 ) ) ;
#149 = STYLED_ITEM ( 'NONE', ( #52 ), #87 ) ;
#150 = ORIENTED_EDGE ( 'NONE', *, *, #24, .T. ) ;
#151 = FACE_OUTER_BOUND ( 'NONE', #181, .T. ) ;
#152 = ADVANCED_FACE ( 'NONE', ( #37 ), #92, .T. ) ;
#153 = SURFACE_STYLE_FILL_AREA ( #192 ) ;
#154 = UNCERTAINTY_MEASURE_WITH_UNIT (LENGTH_MEASURE( 1.000000000000000082E-05 ), #99, 'distance_accuracy_value', 'NONE');
#155 = CYLINDRICAL_SURFACE ( 'NONE', #207, 0.3750000000000001110 ) ;
#156 =( LENGTH_UNIT ( ) NAMED_UNIT ( * ) SI_UNIT ( $, .METRE. ) );
#157 = DIRECTION ( 'NONE',  ( 1.000000000000000000, 0.000000000000000000, 0.000000000000000000 ) ) ;
#158 = ORIENTED_EDGE ( 'NONE', *, *, #10, .T. ) ;
#159 = CARTESIAN_POINT ( 'NONE',  ( -1.224646799147353207E-16, 5.000000000000000000, 0.000000000000000000 ) ) ;
#160 =( NAMED_UNIT ( * ) SI_UNIT ( $, .STERADIAN. ) SOLID_ANGLE_UNIT ( ) );
#161 = CARTESIAN_POINT ( 'NONE',  ( -0.3750000000000000555, 2.250000000000000444, 0.000000000000000000 ) ) ;
#162 =( CONVERSION_BASED_UNIT ( 'INCH', #146 ) LENGTH_UNIT ( ) NAMED_UNIT ( #270 ) );
#163 = AXIS2_PLACEMENT_3D ( 'NONE', #224, #230, #18 ) ;
#164 = DIRECTION ( 'NONE',  ( 0.000000000000000000, 1.000000000000000000, 0.000000000000000000 ) ) ;
#165 = SURFACE_STYLE_FILL_AREA ( #144 ) ;
#166 = ADVANCED_BREP_SHAPE_REPRESENTATION ( '48656', ( #199, #196, #261 ), #67 ) ;
#167 = DIRECTION ( 'NONE',  ( -0.000000000000000000, -1.000000000000000000, -0.000000000000000000 ) ) ;
#168 = CARTESIAN_POINT ( 'NONE',  ( -1.224646799147353207E-16, 5.000000000000000000, 0.000000000000000000 ) ) ;
#169 = CARTESIAN_POINT ( 'NONE',  ( 0.000000000000000000, 0.000000000000000000, -0.3750000000000000555 ) ) ;
#170 = COLOUR_RGB ( '',1.000000000000000000, 0.000000000000000000, 0.000000000000000000 ) ;
#171 = SURFACE_STYLE_USAGE ( .BOTH. , #97 ) ;
#172 = SURFACE_STYLE_FILL_AREA ( #234 ) ;
#173 = CARTESIAN_POINT ( 'NONE',  ( 3.718412684285598933E-34, 2.250000000000000000, 0.000000000000000000 ) ) ;
#174 = PRODUCT ( '48656', '48656', '', ( #120 ) ) ;
#175 = DIRECTION ( 'NONE',  ( -1.000000000000000000, 0.000000000000000000, 0.000000000000000000 ) ) ;
#176 = SHAPE_DEFINITION_REPRESENTATION ( #191, #166 ) ;
#177 = PRESENTATION_LAYER_ASSIGNMENT (  '', '', ( #219 ) ) ;
#178 = EDGE_CURVE ( 'NONE', #89, #296, #264, .T. ) ;
#179 = ORIENTED_EDGE ( 'NONE', *, *, #195, .T. ) ;
#180 = CIRCLE ( 'NONE', #257, 0.3750000000000000555 ) ;
#181 = EDGE_LOOP ( 'NONE', ( #56, #221, #150, #38 ) ) ;
#182 = LINE ( 'NONE', #274, #292 ) ;
#183 = ORIENTED_EDGE ( 'NONE', *, *, #282, .T. ) ;
#184 = ORIENTED_EDGE ( 'NONE', *, *, #93, .F. ) ;
#185 = AXIS2_PLACEMENT_3D ( 'NONE', #22, #140, #213 ) ;
#186 = PLANE ( 'NONE',  #114 ) ;
#187 = APPLICATION_CONTEXT ( 'automotive_design' ) ;
#188 = CARTESIAN_POINT ( 'NONE',  ( 0.000000000000000000, 0.000000000000000000, 0.000000000000000000 ) ) ;
#189 = CARTESIAN_POINT ( 'NONE',  ( 0.000000000000000000, 2.250000000000000000, 0.000000000000000000 ) ) ;
#190 =( LENGTH_UNIT ( ) NAMED_UNIT ( * ) SI_UNIT ( $, .METRE. ) );
#191 = PRODUCT_DEFINITION_SHAPE ( 'NONE', 'NONE',  #289 ) ;
#192 = FILL_AREA_STYLE ('',( #309 ) ) ;
#193 =( LENGTH_UNIT ( ) NAMED_UNIT ( * ) SI_UNIT ( $, .METRE. ) );
#194 =( GEOMETRIC_REPRESENTATION_CONTEXT ( 3 ) GLOBAL_UNCERTAINTY_ASSIGNED_CONTEXT ( ( #200 ) ) GLOBAL_UNIT_ASSIGNED_CONTEXT ( ( #162, #216, #69 ) ) REPRESENTATION_CONTEXT ( 'NONE', 'WORKASPACE' ) );
#195 = EDGE_CURVE ( 'NONE', #296, #253, #233, .T. ) ;
#196 = MANIFOLD_SOLID_BREP ( 'Revolve - Tool Body (Straight Shanked)', #125 ) ;
#197 = PRESENTATION_LAYER_ASSIGNMENT (  '', '', ( #149 ) ) ;
#198 = LENGTH_MEASURE_WITH_UNIT ( LENGTH_MEASURE( 0.02539999999999999897 ), #248 );
#199 = MANIFOLD_SOLID_BREP ( 'Revolve - Cutting Edge', #61 ) ;
#200 = UNCERTAINTY_MEASURE_WITH_UNIT (LENGTH_MEASURE( 1.000000000000000082E-05 ), #162, 'distance_accuracy_value', 'NONE');
#201 = ORIENTED_EDGE ( 'NONE', *, *, #42, .T. ) ;
#202 =( GEOMETRIC_REPRESENTATION_CONTEXT ( 3 ) GLOBAL_UNCERTAINTY_ASSIGNED_CONTEXT ( ( #154 ) ) GLOBAL_UNIT_ASSIGNED_CONTEXT ( ( #99, #8, #85 ) ) REPRESENTATION_CONTEXT ( 'NONE', 'WORKASPACE' ) );
#203 = EDGE_LOOP ( 'NONE', ( #204, #183, #109, #267 ) ) ;
#204 = ORIENTED_EDGE ( 'NONE', *, *, #195, .F. ) ;
#205 = CYLINDRICAL_SURFACE ( 'NONE', #108, 0.3750000000000001110 ) ;
#206 = DIRECTION ( 'NONE',  ( 1.000000000000000000, 4.453261087808557677E-17, 0.000000000000000000 ) ) ;
#207 = AXIS2_PLACEMENT_3D ( 'NONE', #168, #235, #175 ) ;
#208 = DIRECTION ( 'NONE',  ( 0.000000000000000000, 0.000000000000000000, -1.000000000000000000 ) ) ;
#209 = MECHANICAL_DESIGN_GEOMETRIC_PRESENTATION_REPRESENTATION (  '', ( #214 ), #74 ) ;
#210 = DIRECTION ( 'NONE',  ( 0.000000000000000000, 0.000000000000000000, -1.000000000000000000 ) ) ;
#211 = ADVANCED_FACE ( 'NONE', ( #298 ), #68, .T. ) ;
#212 = FILL_AREA_STYLE ('',( #139 ) ) ;
#213 = DIRECTION ( 'NONE',  ( -1.000000000000000000, 0.000000000000000000, 0.000000000000000000 ) ) ;
#214 = STYLED_ITEM ( 'NONE', ( #240 ), #211 ) ;
#215 = LINE ( 'NONE', #169, #48 ) ;
#216 =( NAMED_UNIT ( * ) PLANE_ANGLE_UNIT ( ) SI_UNIT ( $, .RADIAN. ) );
#217 =( GEOMETRIC_REPRESENTATION_CONTEXT ( 3 ) GLOBAL_UNCERTAINTY_ASSIGNED_CONTEXT ( ( #81 ) ) GLOBAL_UNIT_ASSIGNED_CONTEXT ( ( #115, #29, #13 ) ) REPRESENTATION_CONTEXT ( 'NONE', 'WORKASPACE' ) );
#218 = AXIS2_PLACEMENT_3D ( 'NONE', #173, #301, #258 ) ;
#219 = STYLED_ITEM ( 'NONE', ( #281 ), #196 ) ;
#220 = EDGE_LOOP ( 'NONE', ( #128, #275 ) ) ;
#221 = ORIENTED_EDGE ( 'NONE', *, *, #119, .T. ) ;
#222 = ORIENTED_EDGE ( 'NONE', *, *, #24, .F. ) ;
#223 = STYLED_ITEM ( 'NONE', ( #259 ), #152 ) ;
#224 = CARTESIAN_POINT ( 'NONE',  ( 0.000000000000000000, 2.250000000000000000, 0.000000000000000000 ) ) ;
#225 = ADVANCED_FACE ( 'NONE', ( #116 ), #41, .T. ) ;
#226 = ORIENTED_EDGE ( 'NONE', *, *, #304, .F. ) ;
#227 =( CONVERSION_BASED_UNIT ( 'INCH', #241 ) LENGTH_UNIT ( ) NAMED_UNIT ( #287 ) );
#228 = ORIENTED_EDGE ( 'NONE', *, *, #42, .F. ) ;
#229 = CARTESIAN_POINT ( 'NONE',  ( 0.000000000000000000, 0.000000000000000000, 0.000000000000000000 ) ) ;
#230 = DIRECTION ( 'NONE',  ( -0.000000000000000000, -1.000000000000000000, -0.000000000000000000 ) ) ;
#231 = PRESENTATION_LAYER_ASSIGNMENT (  '', '', ( #247 ) ) ;
#232 = DIRECTION ( 'NONE',  ( 0.000000000000000000, -0.000000000000000000, 1.000000000000000000 ) ) ;
#233 = LINE ( 'NONE', #283, #45 ) ;
#234 = FILL_AREA_STYLE ('',( #72 ) ) ;
#235 = DIRECTION ( 'NONE',  ( -4.453261087808557677E-17, 1.000000000000000000, -0.000000000000000000 ) ) ;
#236 = SURFACE_STYLE_USAGE ( .BOTH. , #71 ) ;
#237 = AXIS2_PLACEMENT_3D ( 'NONE', #16, #136, #269 ) ;
#238 = DIRECTION ( 'NONE',  ( -4.453261087808557677E-17, 1.000000000000000000, -0.000000000000000000 ) ) ;
#239 =( LENGTH_UNIT ( ) NAMED_UNIT ( * ) SI_UNIT ( $, .METRE. ) );
#240 = PRESENTATION_STYLE_ASSIGNMENT (( #171 ) ) ;
#241 = LENGTH_MEASURE_WITH_UNIT ( LENGTH_MEASURE( 0.02539999999999999897 ), #263 );
#242 = LINE ( 'NONE', #100, #252 ) ;
#243 = EDGE_CURVE ( 'NONE', #126, #132, #242, .T. ) ;
#244 = COLOUR_RGB ( '',1.000000000000000000, 0.000000000000000000, 0.000000000000000000 ) ;
#245 = FILL_AREA_STYLE ('',( #104 ) ) ;
#246 = CIRCLE ( 'NONE', #306, 0.3750000000000001665 ) ;
#247 = STYLED_ITEM ( 'NONE', ( #1 ), #225 ) ;
#248 =( LENGTH_UNIT ( ) NAMED_UNIT ( * ) SI_UNIT ( $, .METRE. ) );
#249 = ORIENTED_EDGE ( 'NONE', *, *, #119, .F. ) ;
#250 = EDGE_CURVE ( 'NONE', #132, #53, #180, .T. ) ;
#251 = EDGE_LOOP ( 'NONE', ( #228, #249 ) ) ;
#252 = VECTOR ( 'NONE', #147, 39.37007874015748143 ) ;
#253 = VERTEX_POINT ( 'NONE', #83 ) ;
#254 = EDGE_CURVE ( 'NONE', #135, #253, #288, .T. ) ;
#255 = SURFACE_STYLE_FILL_AREA ( #134 ) ;
#256 =( NAMED_UNIT ( * ) SI_UNIT ( $, .STERADIAN. ) SOLID_ANGLE_UNIT ( ) );
#257 = AXIS2_PLACEMENT_3D ( 'NONE', #7, #103, #295 ) ;
#258 = DIRECTION ( 'NONE',  ( -1.000000000000000000, -4.453261087808557677E-17, 0.000000000000000000 ) ) ;
#259 = PRESENTATION_STYLE_ASSIGNMENT (( #262 ) ) ;
#260 = PRESENTATION_LAYER_ASSIGNMENT (  '', '', ( #300 ) ) ;
#261 = AXIS2_PLACEMENT_3D ( 'NONE', #60, #133, #157 ) ;
#262 = SURFACE_STYLE_USAGE ( .BOTH. , #39 ) ;
#263 =( LENGTH_UNIT ( ) NAMED_UNIT ( * ) SI_UNIT ( $, .METRE. ) );
#264 = CIRCLE ( 'NONE', #185, 0.3750000000000000555 ) ;
#265 = AXIS2_PLACEMENT_3D ( 'NONE', #229, #113, #208 ) ;
#266 = LENGTH_MEASURE_WITH_UNIT ( LENGTH_MEASURE( 0.02539999999999999897 ), #75 );
#267 = ORIENTED_EDGE ( 'NONE', *, *, #10, .F. ) ;
#268 = MECHANICAL_DESIGN_GEOMETRIC_PRESENTATION_REPRESENTATION (  '', ( #149 ), #102 ) ;
#269 = DIRECTION ( 'NONE',  ( -1.000000000000000000, 0.000000000000000000, 0.000000000000000000 ) ) ;
#270 = DIMENSIONAL_EXPONENTS ( 1.000000000000000000, 0.000000000000000000, 0.000000000000000000, 0.000000000000000000, 0.000000000000000000, 0.000000000000000000, 0.000000000000000000 ) ;
#271 = UNCERTAINTY_MEASURE_WITH_UNIT (LENGTH_MEASURE( 1.000000000000000082E-05 ), #227, 'distance_accuracy_value', 'NONE');
#272 = SURFACE_STYLE_USAGE ( .BOTH. , #308 ) ;
#273 = LENGTH_MEASURE_WITH_UNIT ( LENGTH_MEASURE( 0.02539999999999999897 ), #156 );
#274 = CARTESIAN_POINT ( 'NONE',  ( -0.3750000000000002220, 5.000000000000000000, 0.000000000000000000 ) ) ;
#275 = ORIENTED_EDGE ( 'NONE', *, *, #282, .F. ) ;
#276 = CARTESIAN_POINT ( 'NONE',  ( -0.3750000000000002776, 5.000000000000000000, 0.000000000000000000 ) ) ;
#277 = AXIS2_PLACEMENT_3D ( 'NONE', #84, #64, #90 ) ;
#278 = DIRECTION ( 'NONE',  ( -0.000000000000000000, -1.000000000000000000, -0.000000000000000000 ) ) ;
#279 = DIRECTION ( 'NONE',  ( 0.000000000000000000, -1.000000000000000000, -0.000000000000000000 ) ) ;
#280 = COLOUR_RGB ( '',0.7921568627450980005, 0.8196078431372548767, 0.9333333333333333481 ) ;
#281 = PRESENTATION_STYLE_ASSIGNMENT (( #236 ) ) ;
#282 = EDGE_CURVE ( 'NONE', #296, #89, #293, .T. ) ;
#283 = CARTESIAN_POINT ( 'NONE',  ( 0.3749999999999999445, 5.000000000000000000, 4.592425496802576068E-17 ) ) ;
#284 =( NAMED_UNIT ( * ) PLANE_ANGLE_UNIT ( ) SI_UNIT ( $, .RADIAN. ) );
#285 = CIRCLE ( 'NONE', #265, 0.3750000000000000555 ) ;
#286 = APPLICATION_PROTOCOL_DEFINITION ( 'draft international standard', 'automotive_design', 1998, #27 ) ;
#287 = DIMENSIONAL_EXPONENTS ( 1.000000000000000000, 0.000000000000000000, 0.000000000000000000, 0.000000000000000000, 0.000000000000000000, 0.000000000000000000, 0.000000000000000000 ) ;
#288 = CIRCLE ( 'NONE', #30, 0.3750000000000001665 ) ;
#289 = PRODUCT_DEFINITION ( 'UNKNOWN', '', #20, #33 ) ;
#290 = ORIENTED_EDGE ( 'NONE', *, *, #243, .T. ) ;
#291 =( NAMED_UNIT ( * ) SI_UNIT ( $, .STERADIAN. ) SOLID_ANGLE_UNIT ( ) );
#292 = VECTOR ( 'NONE', #111, 39.37007874015748143 ) ;
#293 = CIRCLE ( 'NONE', #237, 0.3750000000000000555 ) ;
#294 = FACE_OUTER_BOUND ( 'NONE', #203, .T. ) ;
#295 = DIRECTION ( 'NONE',  ( 0.000000000000000000, 0.000000000000000000, -1.000000000000000000 ) ) ;
#296 = VERTEX_POINT ( 'NONE', #107 ) ;
#297 = CARTESIAN_POINT ( 'NONE',  ( 4.592425496802575451E-17, 2.250000000000000000, 0.3750000000000000555 ) ) ;
#298 = FACE_OUTER_BOUND ( 'NONE', #251, .T. ) ;
#299 = SURFACE_STYLE_FILL_AREA ( #212 ) ;
#300 = STYLED_ITEM ( 'NONE', ( #302 ), #199 ) ;
#301 = DIRECTION ( 'NONE',  ( -4.453261087808557677E-17, 1.000000000000000000, 0.000000000000000000 ) ) ;
#302 = PRESENTATION_STYLE_ASSIGNMENT (( #117 ) ) ;
#303 = FACE_OUTER_BOUND ( 'NONE', #31, .T. ) ;
#304 = EDGE_CURVE ( 'NONE', #53, #132, #285, .T. ) ;
#305 = CARTESIAN_POINT ( 'NONE',  ( 0.3750000000000000555, 5.000000000000000000, 0.000000000000000000 ) ) ;
#306 = AXIS2_PLACEMENT_3D ( 'NONE', #112, #238, #307 ) ;
#307 = DIRECTION ( 'NONE',  ( -1.000000000000000000, 0.000000000000000000, 0.000000000000000000 ) ) ;
#308 = SURFACE_SIDE_STYLE ('',( #6 ) ) ;
#309 = FILL_AREA_STYLE_COLOUR ( '', #244 ) ;
ENDSEC;
END-ISO-10303-21;
