ISO-10303-21;
HEADER;
FILE_DESCRIPTION (( 'STEP AP214' ),
    '1' );
FILE_NAME ('Micro_AEMM-030-2.STEP',
    '2022-03-15T14:24:02',
    ( '' ),
    ( '' ),
    'SwSTEP 2.0',
    'SolidWorks 2022',
    '' );
FILE_SCHEMA (( 'AUTOMOTIVE_DESIGN' ));
ENDSEC;

DATA;
#1 = DIRECTION ( 'NONE',  ( 1.000000000000000000, 0.000000000000000000, 0.000000000000000000 ) ) ;
#2 = FACE_OUTER_BOUND ( 'NONE', #266, .T. ) ;
#3 = SURFACE_SIDE_STYLE ('',( #189 ) ) ;
#4 = COLOUR_RGB ( '',0.7921568627450980005, 0.8196078431372548767, 0.9333333333333333481 ) ;
#5 = CARTESIAN_POINT ( 'NONE',  ( 3.857159805062494824E-17, 0.000000000000000000, 0.3149609999999999910 ) ) ;
#6 = VECTOR ( 'NONE', #177, 39.37007874015748143 ) ;
#7 = DIRECTION ( 'NONE',  ( -1.000000000000000000, 0.000000000000000000, 0.000000000000000000 ) ) ;
#8 = EDGE_LOOP ( 'NONE', ( #251, #248, #163, #269 ) ) ;
#9 = PRODUCT_DEFINITION ( 'UNKNOWN', '', #24, #121 ) ;
#10 = FACE_OUTER_BOUND ( 'NONE', #285, .T. ) ;
#11 = CIRCLE ( 'NONE', #253, 0.1181100000000000066 ) ;
#12 = EDGE_CURVE ( 'NONE', #197, #13, #70, .T. ) ;
#13 = VERTEX_POINT ( 'NONE', #290 ) ;
#14 =( NAMED_UNIT ( * ) PLANE_ANGLE_UNIT ( ) SI_UNIT ( $, .RADIAN. ) );
#15 = ORIENTED_EDGE ( 'NONE', *, *, #28, .T. ) ;
#16 = FACE_OUTER_BOUND ( 'NONE', #162, .T. ) ;
#17 = VERTEX_POINT ( 'NONE', #209 ) ;
#18 = DIRECTION ( 'NONE',  ( 1.000000000000000000, 0.000000000000000000, 0.000000000000000000 ) ) ;
#19 = COLOUR_RGB ( '',0.7921568627450980005, 0.8196078431372548767, 0.9333333333333333481 ) ;
#20 = ORIENTED_EDGE ( 'NONE', *, *, #252, .T. ) ;
#21 = DIRECTION ( 'NONE',  ( 0.000000000000000000, 0.000000000000000000, 1.000000000000000000 ) ) ;
#22 = PRODUCT ( 'Micro_AEMM-030-2', 'Micro_AEMM-030-2', '', ( #186 ) ) ;
#23 = ADVANCED_FACE ( 'NONE', ( #211 ), #66, .F. ) ;
#24 = PRODUCT_DEFINITION_FORMATION_WITH_SPECIFIED_SOURCE ( 'ANY', '', #22, .NOT_KNOWN. ) ;
#25 = UNCERTAINTY_MEASURE_WITH_UNIT (LENGTH_MEASURE( 1.000000000000000082E-05 ), #37, 'distance_accuracy_value', 'NONE');
#26 = ADVANCED_FACE ( 'NONE', ( #94 ), #184, .T. ) ;
#27 = CARTESIAN_POINT ( 'NONE',  ( 0.1031100000000002570, 1.354581824536888722E-17, 2.244094000000000033 ) ) ;
#28 = EDGE_CURVE ( 'NONE', #59, #272, #257, .T. ) ;
#29 = DIRECTION ( 'NONE',  ( -1.224646799147353207E-16, -0.000000000000000000, -1.000000000000000000 ) ) ;
#30 = DIRECTION ( 'NONE',  ( 1.000000000000000000, 0.000000000000000000, -0.000000000000000000 ) ) ;
#31 = EDGE_CURVE ( 'NONE', #13, #181, #77, .T. ) ;
#32 = STYLED_ITEM ( 'NONE', ( #152 ), #42 ) ;
#33 = DIRECTION ( 'NONE',  ( -1.224646799147353207E-16, -0.000000000000000000, -1.000000000000000000 ) ) ;
#34 = LINE ( 'NONE', #238, #97 ) ;
#35 = SURFACE_SIDE_STYLE ('',( #56 ) ) ;
#36 = DIRECTION ( 'NONE',  ( -0.000000000000000000, -0.000000000000000000, -1.000000000000000000 ) ) ;
#37 =( CONVERSION_BASED_UNIT ( 'INCH', #63 ) LENGTH_UNIT ( ) NAMED_UNIT ( #202 ) );
#38 = EDGE_CURVE ( 'NONE', #160, #181, #119, .T. ) ;
#39 = VERTEX_POINT ( 'NONE', #74 ) ;
#40 = ADVANCED_BREP_SHAPE_REPRESENTATION ( 'Micro_AEMM-030-2', ( #42, #120 ), #289 ) ;
#41 = ORIENTED_EDGE ( 'NONE', *, *, #103, .T. ) ;
#42 = MANIFOLD_SOLID_BREP ( 'Cut-Revolve1', #255 ) ;
#43 = AXIS2_PLACEMENT_3D ( 'NONE', #82, #261, #287 ) ;
#44 = EDGE_LOOP ( 'NONE', ( #175, #41, #64, #292 ) ) ;
#45 = EDGE_CURVE ( 'NONE', #272, #181, #34, .T. ) ;
#46 = ORIENTED_EDGE ( 'NONE', *, *, #69, .T. ) ;
#47 = MECHANICAL_DESIGN_GEOMETRIC_PRESENTATION_REPRESENTATION (  '', ( #32 ), #107 ) ;
#48 = DIRECTION ( 'NONE',  ( -1.000000000000000000, 0.000000000000000000, 0.000000000000000000 ) ) ;
#49 = EDGE_CURVE ( 'NONE', #39, #17, #90, .T. ) ;
#50 = DIRECTION ( 'NONE',  ( 1.224646799147353207E-16, 0.000000000000000000, 1.000000000000000000 ) ) ;
#51 = CARTESIAN_POINT ( 'NONE',  ( 0.000000000000000000, 0.000000000000000000, 2.244094000000000033 ) ) ;
#52 = CARTESIAN_POINT ( 'NONE',  ( 8.847974565113091896E-34, 0.000000000000000000, 7.224919520692329689E-18 ) ) ;
#53 = FACE_OUTER_BOUND ( 'NONE', #143, .T. ) ;
#54 = CARTESIAN_POINT ( 'NONE',  ( 0.000000000000000000, 0.000000000000000000, 2.229093999999999465 ) ) ;
#55 = CARTESIAN_POINT ( 'NONE',  ( 0.000000000000000000, 0.000000000000000000, 2.244094000000000033 ) ) ;
#56 = SURFACE_STYLE_FILL_AREA ( #244 ) ;
#57 = LINE ( 'NONE', #223, #280 ) ;
#58 = PRESENTATION_STYLE_ASSIGNMENT (( #131 ) ) ;
#59 = VERTEX_POINT ( 'NONE', #27 ) ;
#60 = CARTESIAN_POINT ( 'NONE',  ( -0.1181100000000000066, 0.000000000000000000, 2.244094000000000033 ) ) ;
#61 = LINE ( 'NONE', #265, #96 ) ;
#62 = ORIENTED_EDGE ( 'NONE', *, *, #122, .T. ) ;
#63 = LENGTH_MEASURE_WITH_UNIT ( LENGTH_MEASURE( 0.02539999999999999897 ), #195 );
#64 = ORIENTED_EDGE ( 'NONE', *, *, #232, .T. ) ;
#65 = ADVANCED_FACE ( 'NONE', ( #192 ), #149, .T. ) ;
#66 = PLANE ( 'NONE',  #95 ) ;
#67 =( GEOMETRIC_REPRESENTATION_CONTEXT ( 3 ) GLOBAL_UNCERTAINTY_ASSIGNED_CONTEXT ( ( #25 ) ) GLOBAL_UNIT_ASSIGNED_CONTEXT ( ( #37, #294, #89 ) ) REPRESENTATION_CONTEXT ( 'NONE', 'WORKASPACE' ) );
#68 = ORIENTED_EDGE ( 'NONE', *, *, #233, .T. ) ;
#69 = EDGE_CURVE ( 'NONE', #206, #272, #273, .T. ) ;
#70 = CIRCLE ( 'NONE', #200, 0.05899594499999998021 ) ;
#71 = AXIS2_PLACEMENT_3D ( 'NONE', #176, #267, #228 ) ;
#72 = UNCERTAINTY_MEASURE_WITH_UNIT (LENGTH_MEASURE( 1.000000000000000082E-05 ), #254, 'distance_accuracy_value', 'NONE');
#73 = SHAPE_DEFINITION_REPRESENTATION ( #213, #40 ) ;
#74 = CARTESIAN_POINT ( 'NONE',  ( 0.05899594500000001490, 7.224919520692329689E-18, -1.895600338963814870E-33 ) ) ;
#75 = DIRECTION ( 'NONE',  ( 0.000000000000000000, 0.000000000000000000, 1.000000000000000000 ) ) ;
#76 = MECHANICAL_DESIGN_GEOMETRIC_PRESENTATION_REPRESENTATION (  '', ( #275 ), #67 ) ;
#77 = LINE ( 'NONE', #220, #212 ) ;
#78 = LINE ( 'NONE', #279, #141 ) ;
#79 = CARTESIAN_POINT ( 'NONE',  ( -0.05899594499999993857, 1.084461143271085796E-17, 0.3149609999999999910 ) ) ;
#80 = CYLINDRICAL_SURFACE ( 'NONE', #201, 0.1181100000000000066 ) ;
#81 = ORIENTED_EDGE ( 'NONE', *, *, #45, .T. ) ;
#82 = CARTESIAN_POINT ( 'NONE',  ( 0.000000000000000000, 0.000000000000000000, 2.244094000000000033 ) ) ;
#83 = AXIS2_PLACEMENT_3D ( 'NONE', #154, #75, #242 ) ;
#84 =( LENGTH_UNIT ( ) NAMED_UNIT ( * ) SI_UNIT ( $, .METRE. ) );
#85 = ADVANCED_FACE ( 'NONE', ( #10 ), #172, .T. ) ;
#86 = EDGE_LOOP ( 'NONE', ( #227, #182 ) ) ;
#87 = DIRECTION ( 'NONE',  ( -0.1736481776669311916, 2.126576849575783316E-17, 0.9848077530122080203 ) ) ;
#88 = ORIENTED_EDGE ( 'NONE', *, *, #103, .F. ) ;
#89 =( NAMED_UNIT ( * ) SI_UNIT ( $, .STERADIAN. ) SOLID_ANGLE_UNIT ( ) );
#90 = CIRCLE ( 'NONE', #298, 0.05899594500000000796 ) ;
#91 = PRESENTATION_LAYER_ASSIGNMENT (  '', '', ( #275 ) ) ;
#92 = ORIENTED_EDGE ( 'NONE', *, *, #232, .F. ) ;
#93 = ORIENTED_EDGE ( 'NONE', *, *, #233, .F. ) ;
#94 = FACE_OUTER_BOUND ( 'NONE', #44, .T. ) ;
#95 = AXIS2_PLACEMENT_3D ( 'NONE', #250, #21, #297 ) ;
#96 = VECTOR ( 'NONE', #87, 39.37007874015747433 ) ;
#97 = VECTOR ( 'NONE', #237, 39.37007874015748143 ) ;
#98 = FILL_AREA_STYLE ('',( #167 ) ) ;
#99 = CYLINDRICAL_SURFACE ( 'NONE', #165, 0.05899594499999998715 ) ;
#100 = CARTESIAN_POINT ( 'NONE',  ( 0.1031100000000002570, 1.262733314600838667E-17, 2.244094000000000033 ) ) ;
#101 = DIRECTION ( 'NONE',  ( -1.000000000000000000, 0.000000000000000000, 0.000000000000000000 ) ) ;
#102 = DIRECTION ( 'NONE',  ( 0.000000000000000000, 0.000000000000000000, 1.000000000000000000 ) ) ;
#103 = EDGE_CURVE ( 'NONE', #272, #206, #11, .T. ) ;
#104 = DIRECTION ( 'NONE',  ( 1.000000000000000000, 0.000000000000000000, 0.000000000000000000 ) ) ;
#105 = DIRECTION ( 'NONE',  ( 0.000000000000000000, 0.000000000000000000, 1.000000000000000000 ) ) ;
#106 = DIRECTION ( 'NONE',  ( 0.000000000000000000, 0.000000000000000000, -1.000000000000000000 ) ) ;
#107 =( GEOMETRIC_REPRESENTATION_CONTEXT ( 3 ) GLOBAL_UNCERTAINTY_ASSIGNED_CONTEXT ( ( #72 ) ) GLOBAL_UNIT_ASSIGNED_CONTEXT ( ( #254, #150, #260 ) ) REPRESENTATION_CONTEXT ( 'NONE', 'WORKASPACE' ) );
#108 = LINE ( 'NONE', #60, #116 ) ;
#109 = AXIS2_PLACEMENT_3D ( 'NONE', #170, #102, #30 ) ;
#110 = ORIENTED_EDGE ( 'NONE', *, *, #28, .F. ) ;
#111 = CARTESIAN_POINT ( 'NONE',  ( -0.1031100000000002570, 0.000000000000000000, 2.244094000000000033 ) ) ;
#112 = ORIENTED_EDGE ( 'NONE', *, *, #69, .F. ) ;
#113 = ORIENTED_EDGE ( 'NONE', *, *, #38, .T. ) ;
#114 = EDGE_LOOP ( 'NONE', ( #142, #15, #112, #230 ) ) ;
#115 = VECTOR ( 'NONE', #215, 39.37007874015748854 ) ;
#116 = VECTOR ( 'NONE', #264, 39.37007874015748143 ) ;
#117 = DIRECTION ( 'NONE',  ( -1.224646799147353207E-16, -0.000000000000000000, -1.000000000000000000 ) ) ;
#118 = ORIENTED_EDGE ( 'NONE', *, *, #219, .F. ) ;
#119 = CIRCLE ( 'NONE', #145, 0.1181100000000000066 ) ;
#120 = AXIS2_PLACEMENT_3D ( 'NONE', #135, #105, #18 ) ;
#121 = PRODUCT_DEFINITION_CONTEXT ( 'detailed design', #239, 'design' ) ;
#122 = EDGE_CURVE ( 'NONE', #13, #197, #127, .T. ) ;
#123 = CIRCLE ( 'NONE', #83, 0.1031100000000002570 ) ;
#124 =( LENGTH_UNIT ( ) NAMED_UNIT ( * ) SI_UNIT ( $, .METRE. ) );
#125 = CARTESIAN_POINT ( 'NONE',  ( 3.857159805062494824E-17, 0.000000000000000000, 0.3149609999999999910 ) ) ;
#126 = DIRECTION ( 'NONE',  ( 1.000000000000000000, 0.000000000000000000, 0.000000000000000000 ) ) ;
#127 = CIRCLE ( 'NONE', #185, 0.05899594499999998021 ) ;
#128 = CARTESIAN_POINT ( 'NONE',  ( -0.1181099999999999234, 0.000000000000000000, 0.6502134654053797203 ) ) ;
#129 = CARTESIAN_POINT ( 'NONE',  ( -0.05899594499999998715, 0.000000000000000000, 7.224919520692328148E-18 ) ) ;
#130 = CARTESIAN_POINT ( 'NONE',  ( 3.857159805062494824E-17, 0.000000000000000000, 0.3149609999999999910 ) ) ;
#131 = SURFACE_STYLE_USAGE ( .BOTH. , #35 ) ;
#132 = PRODUCT_RELATED_PRODUCT_CATEGORY ( 'part', '', ( #22 ) ) ;
#133 = AXIS2_PLACEMENT_3D ( 'NONE', #51, #148, #48 ) ;
#134 = CIRCLE ( 'NONE', #71, 0.1031100000000002570 ) ;
#135 = CARTESIAN_POINT ( 'NONE',  ( 0.000000000000000000, 0.000000000000000000, 0.000000000000000000 ) ) ;
#136 = ORIENTED_EDGE ( 'NONE', *, *, #38, .F. ) ;
#137 = LINE ( 'NONE', #129, #6 ) ;
#138 = ORIENTED_EDGE ( 'NONE', *, *, #288, .F. ) ;
#139 = EDGE_CURVE ( 'NONE', #295, #206, #78, .T. ) ;
#140 = ORIENTED_EDGE ( 'NONE', *, *, #49, .F. ) ;
#141 = VECTOR ( 'NONE', #259, 39.37007874015748854 ) ;
#142 = ORIENTED_EDGE ( 'NONE', *, *, #217, .F. ) ;
#143 = EDGE_LOOP ( 'NONE', ( #164, #270, #118, #138 ) ) ;
#144 = APPLICATION_PROTOCOL_DEFINITION ( 'draft international standard', 'automotive_design', 1998, #239 ) ;
#145 = AXIS2_PLACEMENT_3D ( 'NONE', #278, #29, #1 ) ;
#146 = CIRCLE ( 'NONE', #299, 0.1181100000000000066 ) ;
#147 = EDGE_CURVE ( 'NONE', #181, #160, #146, .T. ) ;
#148 = DIRECTION ( 'NONE',  ( -0.000000000000000000, -0.000000000000000000, -1.000000000000000000 ) ) ;
#149 = CONICAL_SURFACE ( 'NONE', #222, 0.05899594499999998021, 0.1745329251994338915 ) ;
#150 =( NAMED_UNIT ( * ) PLANE_ANGLE_UNIT ( ) SI_UNIT ( $, .RADIAN. ) );
#151 = DIRECTION ( 'NONE',  ( -1.224646799147353207E-16, -0.000000000000000000, -1.000000000000000000 ) ) ;
#152 = PRESENTATION_STYLE_ASSIGNMENT (( #276 ) ) ;
#153 = DIRECTION ( 'NONE',  ( 1.000000000000000000, 0.000000000000000000, 0.000000000000000000 ) ) ;
#154 = CARTESIAN_POINT ( 'NONE',  ( 0.000000000000000000, 0.000000000000000000, 2.244094000000000033 ) ) ;
#155 = FACE_OUTER_BOUND ( 'NONE', #114, .T. ) ;
#156 = DIRECTION ( 'NONE',  ( -1.224646799147353207E-16, -0.000000000000000000, -1.000000000000000000 ) ) ;
#157 = FILL_AREA_STYLE_COLOUR ( '', #19 ) ;
#158 = ADVANCED_FACE ( 'NONE', ( #258 ), #262, .T. ) ;
#159 = EDGE_CURVE ( 'NONE', #13, #39, #57, .T. ) ;
#160 = VERTEX_POINT ( 'NONE', #128 ) ;
#161 =( CONVERSION_BASED_UNIT ( 'INCH', #174 ) LENGTH_UNIT ( ) NAMED_UNIT ( #247 ) );
#162 = EDGE_LOOP ( 'NONE', ( #110, #93, #226, #88 ) ) ;
#163 = ORIENTED_EDGE ( 'NONE', *, *, #31, .T. ) ;
#164 = ORIENTED_EDGE ( 'NONE', *, *, #12, .T. ) ;
#165 = AXIS2_PLACEMENT_3D ( 'NONE', #190, #291, #271 ) ;
#166 = CYLINDRICAL_SURFACE ( 'NONE', #208, 0.05899594499999998715 ) ;
#167 = FILL_AREA_STYLE_COLOUR ( '', #4 ) ;
#168 = CARTESIAN_POINT ( 'NONE',  ( 7.962818391712065690E-17, 0.000000000000000000, 0.6502134654053797203 ) ) ;
#169 = FACE_OUTER_BOUND ( 'NONE', #196, .T. ) ;
#170 = CARTESIAN_POINT ( 'NONE',  ( 0.000000000000000000, 0.000000000000000000, 2.244094000000000033 ) ) ;
#171 = APPLICATION_PROTOCOL_DEFINITION ( 'draft international standard', 'automotive_design', 1998, #179 ) ;
#172 = CONICAL_SURFACE ( 'NONE', #207, 0.05899594499999998021, 0.1745329251994338915 ) ;
#173 = DIRECTION ( 'NONE',  ( 0.000000000000000000, 0.000000000000000000, -1.000000000000000000 ) ) ;
#174 = LENGTH_MEASURE_WITH_UNIT ( LENGTH_MEASURE( 0.02539999999999999897 ), #84 );
#175 = ORIENTED_EDGE ( 'NONE', *, *, #45, .F. ) ;
#176 = CARTESIAN_POINT ( 'NONE',  ( 0.000000000000000000, 0.000000000000000000, 2.244094000000000033 ) ) ;
#177 = DIRECTION ( 'NONE',  ( -1.224646799147353207E-16, -0.000000000000000000, -1.000000000000000000 ) ) ;
#178 = ORIENTED_EDGE ( 'NONE', *, *, #12, .F. ) ;
#179 = APPLICATION_CONTEXT ( 'automotive_design' ) ;
#180 = DIRECTION ( 'NONE',  ( 0.000000000000000000, 0.000000000000000000, -1.000000000000000000 ) ) ;
#181 = VERTEX_POINT ( 'NONE', #243 ) ;
#182 = ORIENTED_EDGE ( 'NONE', *, *, #49, .T. ) ;
#183 = ADVANCED_FACE ( 'NONE', ( #53 ), #166, .T. ) ;
#184 = CYLINDRICAL_SURFACE ( 'NONE', #133, 0.1181100000000000066 ) ;
#185 = AXIS2_PLACEMENT_3D ( 'NONE', #5, #151, #101 ) ;
#186 = PRODUCT_CONTEXT ( 'NONE', #179, 'mechanical' ) ;
#187 = CONICAL_SURFACE ( 'NONE', #43, 0.1031100000000002570, 0.7853981633974318477 ) ;
#188 = AXIS2_PLACEMENT_3D ( 'NONE', #194, #173, #126 ) ;
#189 = SURFACE_STYLE_FILL_AREA ( #98 ) ;
#190 = CARTESIAN_POINT ( 'NONE',  ( 0.000000000000000000, 0.000000000000000000, 0.000000000000000000 ) ) ;
#191 = DIRECTION ( 'NONE',  ( 0.1736481776669313859, 0.000000000000000000, 0.9848077530122077983 ) ) ;
#192 = FACE_OUTER_BOUND ( 'NONE', #8, .T. ) ;
#193 = DIRECTION ( 'NONE',  ( -1.224646799147353207E-16, -0.000000000000000000, -1.000000000000000000 ) ) ;
#194 = CARTESIAN_POINT ( 'NONE',  ( 0.000000000000000000, 0.000000000000000000, 2.229093999999999465 ) ) ;
#195 =( LENGTH_UNIT ( ) NAMED_UNIT ( * ) SI_UNIT ( $, .METRE. ) );
#196 = EDGE_LOOP ( 'NONE', ( #46, #81, #136, #92 ) ) ;
#197 = VERTEX_POINT ( 'NONE', #79 ) ;
#198 = DIRECTION ( 'NONE',  ( -1.224646799147353207E-16, -0.000000000000000000, -1.000000000000000000 ) ) ;
#199 = DIRECTION ( 'NONE',  ( -1.000000000000000000, 0.000000000000000000, 0.000000000000000000 ) ) ;
#200 = AXIS2_PLACEMENT_3D ( 'NONE', #246, #117, #203 ) ;
#201 = AXIS2_PLACEMENT_3D ( 'NONE', #55, #36, #7 ) ;
#202 = DIMENSIONAL_EXPONENTS ( 1.000000000000000000, 0.000000000000000000, 0.000000000000000000, 0.000000000000000000, 0.000000000000000000, 0.000000000000000000, 0.000000000000000000 ) ;
#203 = DIRECTION ( 'NONE',  ( -1.000000000000000000, 0.000000000000000000, 0.000000000000000000 ) ) ;
#204 = ORIENTED_EDGE ( 'NONE', *, *, #31, .F. ) ;
#205 =( NAMED_UNIT ( * ) SI_UNIT ( $, .STERADIAN. ) SOLID_ANGLE_UNIT ( ) );
#206 = VERTEX_POINT ( 'NONE', #283 ) ;
#207 = AXIS2_PLACEMENT_3D ( 'NONE', #125, #50, #153 ) ;
#208 = AXIS2_PLACEMENT_3D ( 'NONE', #221, #193, #277 ) ;
#209 = CARTESIAN_POINT ( 'NONE',  ( -0.05899594500000000796, 0.000000000000000000, 1.444983904138465938E-17 ) ) ;
#210 = ADVANCED_FACE ( 'NONE', ( #169 ), #80, .T. ) ;
#211 = FACE_OUTER_BOUND ( 'NONE', #86, .T. ) ;
#212 = VECTOR ( 'NONE', #191, 39.37007874015748143 ) ;
#213 = PRODUCT_DEFINITION_SHAPE ( 'NONE', 'NONE',  #9 ) ;
#214 = CONICAL_SURFACE ( 'NONE', #268, 0.1031100000000002570, 0.7853981633974318477 ) ;
#215 = DIRECTION ( 'NONE',  ( 0.7071067811865358044, 8.659560562354788645E-17, -0.7071067811865590080 ) ) ;
#216 = CARTESIAN_POINT ( 'NONE',  ( 8.847974565113091896E-34, 0.000000000000000000, 7.224919520692329689E-18 ) ) ;
#217 = EDGE_CURVE ( 'NONE', #59, #295, #123, .T. ) ;
#218 = DIRECTION ( 'NONE',  ( 1.224646799147353207E-16, 0.000000000000000000, 1.000000000000000000 ) ) ;
#219 = EDGE_CURVE ( 'NONE', #17, #39, #236, .T. ) ;
#220 = CARTESIAN_POINT ( 'NONE',  ( 0.05899594500000002184, 0.000000000000000000, 0.3149609999999999910 ) ) ;
#221 = CARTESIAN_POINT ( 'NONE',  ( 0.000000000000000000, 0.000000000000000000, 0.000000000000000000 ) ) ;
#222 = AXIS2_PLACEMENT_3D ( 'NONE', #130, #218, #224 ) ;
#223 = CARTESIAN_POINT ( 'NONE',  ( 0.05899594499999998715, 7.224919520692328148E-18, -7.224919520692328148E-18 ) ) ;
#224 = DIRECTION ( 'NONE',  ( 1.000000000000000000, 0.000000000000000000, 0.000000000000000000 ) ) ;
#225 = CARTESIAN_POINT ( 'NONE',  ( 0.000000000000000000, 0.000000000000000000, 2.244094000000000033 ) ) ;
#226 = ORIENTED_EDGE ( 'NONE', *, *, #139, .T. ) ;
#227 = ORIENTED_EDGE ( 'NONE', *, *, #219, .T. ) ;
#228 = DIRECTION ( 'NONE',  ( 1.000000000000000000, 0.000000000000000000, 0.000000000000000000 ) ) ;
#229 = ORIENTED_EDGE ( 'NONE', *, *, #288, .T. ) ;
#230 = ORIENTED_EDGE ( 'NONE', *, *, #139, .F. ) ;
#231 = ADVANCED_FACE ( 'NONE', ( #2 ), #99, .T. ) ;
#232 = EDGE_CURVE ( 'NONE', #206, #160, #108, .T. ) ;
#233 = EDGE_CURVE ( 'NONE', #295, #59, #134, .T. ) ;
#234 = LENGTH_MEASURE_WITH_UNIT ( LENGTH_MEASURE( 0.02539999999999999897 ), #124 );
#235 = PRESENTATION_LAYER_ASSIGNMENT (  '', '', ( #32 ) ) ;
#236 = CIRCLE ( 'NONE', #245, 0.05899594500000000796 ) ;
#237 = DIRECTION ( 'NONE',  ( -0.000000000000000000, -0.000000000000000000, -1.000000000000000000 ) ) ;
#238 = CARTESIAN_POINT ( 'NONE',  ( 0.1181100000000000066, 1.446430334472939084E-17, 2.244094000000000033 ) ) ;
#239 = APPLICATION_CONTEXT ( 'automotive_design' ) ;
#240 = DIRECTION ( 'NONE',  ( 1.000000000000000000, 0.000000000000000000, 0.000000000000000000 ) ) ;
#241 = CARTESIAN_POINT ( 'NONE',  ( 0.1181100000000000066, 1.446430334472939084E-17, 2.229093999999999465 ) ) ;
#242 = DIRECTION ( 'NONE',  ( 1.000000000000000000, 0.000000000000000000, 0.000000000000000000 ) ) ;
#243 = CARTESIAN_POINT ( 'NONE',  ( 0.1181100000000000899, 1.446430334472940009E-17, 0.6502134654053797203 ) ) ;
#244 = FILL_AREA_STYLE ('',( #157 ) ) ;
#245 = AXIS2_PLACEMENT_3D ( 'NONE', #216, #198, #286 ) ;
#246 = CARTESIAN_POINT ( 'NONE',  ( 3.857159805062494824E-17, 0.000000000000000000, 0.3149609999999999910 ) ) ;
#247 = DIMENSIONAL_EXPONENTS ( 1.000000000000000000, 0.000000000000000000, 0.000000000000000000, 0.000000000000000000, 0.000000000000000000, 0.000000000000000000, 0.000000000000000000 ) ;
#248 = ORIENTED_EDGE ( 'NONE', *, *, #122, .F. ) ;
#249 = ORIENTED_EDGE ( 'NONE', *, *, #159, .F. ) ;
#250 = CARTESIAN_POINT ( 'NONE',  ( 0.000000000000000000, 0.000000000000000000, 0.000000000000000000 ) ) ;
#251 = ORIENTED_EDGE ( 'NONE', *, *, #252, .F. ) ;
#252 = EDGE_CURVE ( 'NONE', #197, #160, #61, .T. ) ;
#253 = AXIS2_PLACEMENT_3D ( 'NONE', #54, #106, #240 ) ;
#254 =( CONVERSION_BASED_UNIT ( 'INCH', #234 ) LENGTH_UNIT ( ) NAMED_UNIT ( #263 ) );
#255 = CLOSED_SHELL ( 'NONE', ( #183, #85, #284, #210, #26, #158, #281, #65, #231, #23 ) ) ;
#256 = DIRECTION ( 'NONE',  ( -1.000000000000000000, 0.000000000000000000, 1.224646799147352961E-16 ) ) ;
#257 = LINE ( 'NONE', #100, #115 ) ;
#258 = FACE_OUTER_BOUND ( 'NONE', #296, .T. ) ;
#259 = DIRECTION ( 'NONE',  ( -0.7071067811865358044, 0.000000000000000000, -0.7071067811865590080 ) ) ;
#260 =( NAMED_UNIT ( * ) SI_UNIT ( $, .STERADIAN. ) SOLID_ANGLE_UNIT ( ) );
#261 = DIRECTION ( 'NONE',  ( 0.000000000000000000, 0.000000000000000000, -1.000000000000000000 ) ) ;
#262 = PLANE ( 'NONE',  #109 ) ;
#263 = DIMENSIONAL_EXPONENTS ( 1.000000000000000000, 0.000000000000000000, 0.000000000000000000, 0.000000000000000000, 0.000000000000000000, 0.000000000000000000, 0.000000000000000000 ) ;
#264 = DIRECTION ( 'NONE',  ( -0.000000000000000000, -0.000000000000000000, -1.000000000000000000 ) ) ;
#265 = CARTESIAN_POINT ( 'NONE',  ( -0.05899594499999993857, 7.224919520692326607E-18, 0.3149609999999999910 ) ) ;
#266 = EDGE_LOOP ( 'NONE', ( #249, #62, #229, #140 ) ) ;
#267 = DIRECTION ( 'NONE',  ( 0.000000000000000000, 0.000000000000000000, 1.000000000000000000 ) ) ;
#268 = AXIS2_PLACEMENT_3D ( 'NONE', #225, #180, #199 ) ;
#269 = ORIENTED_EDGE ( 'NONE', *, *, #147, .T. ) ;
#270 = ORIENTED_EDGE ( 'NONE', *, *, #159, .T. ) ;
#271 = DIRECTION ( 'NONE',  ( -1.000000000000000000, 0.000000000000000000, 1.224646799147353207E-16 ) ) ;
#272 = VERTEX_POINT ( 'NONE', #241 ) ;
#273 = CIRCLE ( 'NONE', #188, 0.1181100000000000066 ) ;
#274 = UNCERTAINTY_MEASURE_WITH_UNIT (LENGTH_MEASURE( 1.000000000000000082E-05 ), #161, 'distance_accuracy_value', 'NONE');
#275 = STYLED_ITEM ( 'NONE', ( #58 ), #40 ) ;
#276 = SURFACE_STYLE_USAGE ( .BOTH. , #3 ) ;
#277 = DIRECTION ( 'NONE',  ( -1.000000000000000000, 0.000000000000000000, 1.224646799147353207E-16 ) ) ;
#278 = CARTESIAN_POINT ( 'NONE',  ( 7.962818391712065690E-17, 0.000000000000000000, 0.6502134654053797203 ) ) ;
#279 = CARTESIAN_POINT ( 'NONE',  ( -0.1031100000000002570, 0.000000000000000000, 2.244094000000000033 ) ) ;
#280 = VECTOR ( 'NONE', #156, 39.37007874015748143 ) ;
#281 = ADVANCED_FACE ( 'NONE', ( #16 ), #187, .T. ) ;
#282 = DIRECTION ( 'NONE',  ( -1.224646799147353207E-16, -0.000000000000000000, -1.000000000000000000 ) ) ;
#283 = CARTESIAN_POINT ( 'NONE',  ( -0.1181100000000000066, 0.000000000000000000, 2.229093999999999465 ) ) ;
#284 = ADVANCED_FACE ( 'NONE', ( #155 ), #214, .T. ) ;
#285 = EDGE_LOOP ( 'NONE', ( #178, #20, #113, #204 ) ) ;
#286 = DIRECTION ( 'NONE',  ( -1.000000000000000000, 0.000000000000000000, 1.224646799147352961E-16 ) ) ;
#287 = DIRECTION ( 'NONE',  ( -1.000000000000000000, 0.000000000000000000, 0.000000000000000000 ) ) ;
#288 = EDGE_CURVE ( 'NONE', #197, #17, #137, .T. ) ;
#289 =( GEOMETRIC_REPRESENTATION_CONTEXT ( 3 ) GLOBAL_UNCERTAINTY_ASSIGNED_CONTEXT ( ( #274 ) ) GLOBAL_UNIT_ASSIGNED_CONTEXT ( ( #161, #14, #205 ) ) REPRESENTATION_CONTEXT ( 'NONE', 'WORKASPACE' ) );
#290 = CARTESIAN_POINT ( 'NONE',  ( 0.05899594500000002184, 0.000000000000000000, 0.3149609999999999910 ) ) ;
#291 = DIRECTION ( 'NONE',  ( -1.224646799147353207E-16, -0.000000000000000000, -1.000000000000000000 ) ) ;
#292 = ORIENTED_EDGE ( 'NONE', *, *, #147, .F. ) ;
#293 = ORIENTED_EDGE ( 'NONE', *, *, #217, .T. ) ;
#294 =( NAMED_UNIT ( * ) PLANE_ANGLE_UNIT ( ) SI_UNIT ( $, .RADIAN. ) );
#295 = VERTEX_POINT ( 'NONE', #111 ) ;
#296 = EDGE_LOOP ( 'NONE', ( #68, #293 ) ) ;
#297 = DIRECTION ( 'NONE',  ( 1.000000000000000000, 0.000000000000000000, -0.000000000000000000 ) ) ;
#298 = AXIS2_PLACEMENT_3D ( 'NONE', #52, #282, #256 ) ;
#299 = AXIS2_PLACEMENT_3D ( 'NONE', #168, #33, #104 ) ;
ENDSEC;
END-ISO-10303-21;
