ISO-10303-21;
HEADER;
FILE_DESCRIPTION (( 'STEP AP214' ),
    '1' );
FILE_NAME ('05457.STEP',
    '2023-06-22T16:07:57',
    ( '' ),
    ( '' ),
    'SwSTEP 2.0',
    'SolidWorks 2023',
    '' );
FILE_SCHEMA (( 'AUTOMOTIVE_DESIGN' ));
ENDSEC;

DATA;
#1 = DIRECTION ( 'NONE',  ( 9.797174393178826150E-17, 1.000000000000000000, -0.000000000000000000 ) ) ;
#2 = SHAPE_DEFINITION_REPRESENTATION ( #7, #73 ) ;
#3 =( GEOMETRIC_REPRESENTATION_CONTEXT ( 3 ) GLOBAL_UNCERTAINTY_ASSIGNED_CONTEXT ( ( #174 ) ) GLOBAL_UNIT_ASSIGNED_CONTEXT ( ( #209, #273, #300 ) ) REPRESENTATION_CONTEXT ( 'NONE', 'WORKASPACE' ) );
#4 = DIRECTION ( 'NONE',  ( 0.000000000000000000, 0.000000000000000000, 1.000000000000000000 ) ) ;
#5 =( LENGTH_UNIT ( ) NAMED_UNIT ( * ) SI_UNIT ( $, .METRE. ) );
#6 = EDGE_LOOP ( 'NONE', ( #79, #107, #246, #267 ) ) ;
#7 = PRODUCT_DEFINITION_SHAPE ( 'NONE', 'NONE',  #254 ) ;
#8 = CIRCLE ( 'NONE', #171, 0.2500000000000000000 ) ;
#9 = ADVANCED_FACE ( 'NONE', ( #251 ), #189, .F. ) ;
#10 = VERTEX_POINT ( 'NONE', #236 ) ;
#11 = AXIS2_PLACEMENT_3D ( 'NONE', #128, #4, #289 ) ;
#12 = CARTESIAN_POINT ( 'NONE',  ( 0.000000000000000000, 0.000000000000000000, 0.000000000000000000 ) ) ;
#13 =( NAMED_UNIT ( * ) SI_UNIT ( $, .STERADIAN. ) SOLID_ANGLE_UNIT ( ) );
#14 = AXIS2_PLACEMENT_3D ( 'NONE', #34, #180, #264 ) ;
#15 = VECTOR ( 'NONE', #197, 39.37007874015748143 ) ;
#16 = CARTESIAN_POINT ( 'NONE',  ( 0.000000000000000000, 0.6250000000000000000, 0.000000000000000000 ) ) ;
#17 = ADVANCED_FACE ( 'NONE', ( #118 ), #151, .T. ) ;
#18 = ORIENTED_EDGE ( 'NONE', *, *, #149, .F. ) ;
#19 = STYLED_ITEM ( 'NONE', ( #230 ), #281 ) ;
#20 = SURFACE_STYLE_FILL_AREA ( #46 ) ;
#21 = SURFACE_SIDE_STYLE ('',( #162 ) ) ;
#22 =( NAMED_UNIT ( * ) PLANE_ANGLE_UNIT ( ) SI_UNIT ( $, .RADIAN. ) );
#23 = DIMENSIONAL_EXPONENTS ( 1.000000000000000000, 0.000000000000000000, 0.000000000000000000, 0.000000000000000000, 0.000000000000000000, 0.000000000000000000, 0.000000000000000000 ) ;
#24 = AXIS2_PLACEMENT_3D ( 'NONE', #146, #31, #52 ) ;
#25 = AXIS2_PLACEMENT_3D ( 'NONE', #164, #116, #210 ) ;
#26 = CARTESIAN_POINT ( 'NONE',  ( -3.032960542342103792E-32, 0.6250000000000000000, 0.000000000000000000 ) ) ;
#27 =( LENGTH_UNIT ( ) NAMED_UNIT ( * ) SI_UNIT ( $, .METRE. ) );
#28 = DIRECTION ( 'NONE',  ( 9.797174393178824918E-17, 1.000000000000000000, -0.000000000000000000 ) ) ;
#29 = PLANE ( 'NONE',  #63 ) ;
#30 = PRODUCT_DEFINITION_FORMATION_WITH_SPECIFIED_SOURCE ( 'ANY', '', #92, .NOT_KNOWN. ) ;
#31 = DIRECTION ( 'NONE',  ( 9.797174393178826150E-17, 1.000000000000000000, -0.000000000000000000 ) ) ;
#32 = APPLICATION_PROTOCOL_DEFINITION ( 'draft international standard', 'automotive_design', 1998, #298 ) ;
#33 = ORIENTED_EDGE ( 'NONE', *, *, #192, .F. ) ;
#34 = CARTESIAN_POINT ( 'NONE',  ( 0.000000000000000000, 0.000000000000000000, 0.000000000000000000 ) ) ;
#35 = DIRECTION ( 'NONE',  ( 9.797174393178826150E-17, 1.000000000000000000, -0.000000000000000000 ) ) ;
#36 = ORIENTED_EDGE ( 'NONE', *, *, #41, .F. ) ;
#37 = CIRCLE ( 'NONE', #296, 0.2500000000000000000 ) ;
#38 = CYLINDRICAL_SURFACE ( 'NONE', #183, 0.2499999999999999167 ) ;
#39 =( CONVERSION_BASED_UNIT ( 'INCH', #133 ) LENGTH_UNIT ( ) NAMED_UNIT ( #279 ) );
#40 = STYLED_ITEM ( 'NONE', ( #257 ), #287 ) ;
#41 = EDGE_CURVE ( 'NONE', #58, #49, #8, .T. ) ;
#42 = DIRECTION ( 'NONE',  ( 0.000000000000000000, 1.000000000000000000, 0.000000000000000000 ) ) ;
#43 = LENGTH_MEASURE_WITH_UNIT ( LENGTH_MEASURE( 0.02539999999999999897 ), #27 );
#44 = VERTEX_POINT ( 'NONE', #101 ) ;
#45 = CLOSED_SHELL ( 'NONE', ( #90, #253, #201, #9 ) ) ;
#46 = FILL_AREA_STYLE ('',( #274 ) ) ;
#47 = CARTESIAN_POINT ( 'NONE',  ( 0.000000000000000000, 0.000000000000000000, -0.2500000000000000000 ) ) ;
#48 = SURFACE_SIDE_STYLE ('',( #20 ) ) ;
#49 = VERTEX_POINT ( 'NONE', #288 ) ;
#50 = CARTESIAN_POINT ( 'NONE',  ( 0.2500000000000000000, 2.500000000000000000, 0.000000000000000000 ) ) ;
#51 =( GEOMETRIC_REPRESENTATION_CONTEXT ( 3 ) GLOBAL_UNCERTAINTY_ASSIGNED_CONTEXT ( ( #59 ) ) GLOBAL_UNIT_ASSIGNED_CONTEXT ( ( #307, #106, #13 ) ) REPRESENTATION_CONTEXT ( 'NONE', 'WORKASPACE' ) );
#52 = DIRECTION ( 'NONE',  ( -1.000000000000000000, 0.000000000000000000, 0.000000000000000000 ) ) ;
#53 = PRODUCT_RELATED_PRODUCT_CATEGORY ( 'part', '', ( #92 ) ) ;
#54 = DIRECTION ( 'NONE',  ( 0.000000000000000000, 0.000000000000000000, -1.000000000000000000 ) ) ;
#55 = SURFACE_SIDE_STYLE ('',( #97 ) ) ;
#56 = DIRECTION ( 'NONE',  ( 9.797174393178826150E-17, 1.000000000000000000, -0.000000000000000000 ) ) ;
#57 =( GEOMETRIC_REPRESENTATION_CONTEXT ( 3 ) GLOBAL_UNCERTAINTY_ASSIGNED_CONTEXT ( ( #266 ) ) GLOBAL_UNIT_ASSIGNED_CONTEXT ( ( #248, #22, #228 ) ) REPRESENTATION_CONTEXT ( 'NONE', 'WORKASPACE' ) );
#58 = VERTEX_POINT ( 'NONE', #178 ) ;
#59 = UNCERTAINTY_MEASURE_WITH_UNIT (LENGTH_MEASURE( 1.000000000000000082E-05 ), #307, 'distance_accuracy_value', 'NONE');
#60 = ORIENTED_EDGE ( 'NONE', *, *, #212, .F. ) ;
#61 = ORIENTED_EDGE ( 'NONE', *, *, #192, .T. ) ;
#62 =( NAMED_UNIT ( * ) SI_UNIT ( $, .STERADIAN. ) SOLID_ANGLE_UNIT ( ) );
#63 = AXIS2_PLACEMENT_3D ( 'NONE', #105, #42, #218 ) ;
#64 = DIRECTION ( 'NONE',  ( -0.000000000000000000, -1.000000000000000000, -0.000000000000000000 ) ) ;
#65 = PRESENTATION_LAYER_ASSIGNMENT (  '', '', ( #245 ) ) ;
#66 = UNCERTAINTY_MEASURE_WITH_UNIT (LENGTH_MEASURE( 1.000000000000000082E-05 ), #309, 'distance_accuracy_value', 'NONE');
#67 = EDGE_LOOP ( 'NONE', ( #18, #77 ) ) ;
#68 =( LENGTH_UNIT ( ) NAMED_UNIT ( * ) SI_UNIT ( $, .METRE. ) );
#69 = AXIS2_PLACEMENT_3D ( 'NONE', #142, #166, #250 ) ;
#70 = SURFACE_STYLE_USAGE ( .BOTH. , #117 ) ;
#71 = CARTESIAN_POINT ( 'NONE',  ( -0.2499999999999997502, 2.500000000000000000, 0.000000000000000000 ) ) ;
#72 = DIRECTION ( 'NONE',  ( -0.000000000000000000, -1.000000000000000000, -0.000000000000000000 ) ) ;
#73 = ADVANCED_BREP_SHAPE_REPRESENTATION ( '05457', ( #281, #187, #11 ), #235 ) ;
#74 = CIRCLE ( 'NONE', #284, 0.2500000000000000000 ) ;
#75 = EDGE_CURVE ( 'NONE', #240, #44, #37, .T. ) ;
#76 = SURFACE_STYLE_USAGE ( .BOTH. , #55 ) ;
#77 = ORIENTED_EDGE ( 'NONE', *, *, #75, .F. ) ;
#78 =( CONVERSION_BASED_UNIT ( 'INCH', #136 ) LENGTH_UNIT ( ) NAMED_UNIT ( #249 ) );
#79 = ORIENTED_EDGE ( 'NONE', *, *, #161, .F. ) ;
#80 = EDGE_CURVE ( 'NONE', #297, #104, #226, .T. ) ;
#81 = ORIENTED_EDGE ( 'NONE', *, *, #212, .T. ) ;
#82 = ORIENTED_EDGE ( 'NONE', *, *, #80, .F. ) ;
#83 = AXIS2_PLACEMENT_3D ( 'NONE', #305, #94, #168 ) ;
#84 =( NAMED_UNIT ( * ) PLANE_ANGLE_UNIT ( ) SI_UNIT ( $, .RADIAN. ) );
#85 = MECHANICAL_DESIGN_GEOMETRIC_PRESENTATION_REPRESENTATION (  '', ( #19 ), #57 ) ;
#86 = CARTESIAN_POINT ( 'NONE',  ( 0.2500000000000000555, 0.6250000000000000000, 3.061616997868383018E-17 ) ) ;
#87 = LENGTH_MEASURE_WITH_UNIT ( LENGTH_MEASURE( 0.02539999999999999897 ), #258 );
#88 =( LENGTH_UNIT ( ) NAMED_UNIT ( * ) SI_UNIT ( $, .METRE. ) );
#89 = AXIS2_PLACEMENT_3D ( 'NONE', #12, #156, #132 ) ;
#90 = ADVANCED_FACE ( 'NONE', ( #191 ), #256, .T. ) ;
#91 =( CONVERSION_BASED_UNIT ( 'INCH', #96 ) LENGTH_UNIT ( ) NAMED_UNIT ( #141 ) );
#92 = PRODUCT ( '05457', '05457', '', ( #220 ) ) ;
#93 = FACE_OUTER_BOUND ( 'NONE', #225, .T. ) ;
#94 = DIRECTION ( 'NONE',  ( -0.000000000000000000, -1.000000000000000000, -0.000000000000000000 ) ) ;
#95 = DIRECTION ( 'NONE',  ( -1.000000000000000000, 0.000000000000000000, 0.000000000000000000 ) ) ;
#96 = LENGTH_MEASURE_WITH_UNIT ( LENGTH_MEASURE( 0.02539999999999999897 ), #88 );
#97 = SURFACE_STYLE_FILL_AREA ( #292 ) ;
#98 = MECHANICAL_DESIGN_GEOMETRIC_PRESENTATION_REPRESENTATION (  '', ( #195 ), #286 ) ;
#99 = CARTESIAN_POINT ( 'NONE',  ( -3.032960542342103792E-32, 0.6250000000000000000, 0.000000000000000000 ) ) ;
#100 = FILL_AREA_STYLE_COLOUR ( '', #157 ) ;
#101 = CARTESIAN_POINT ( 'NONE',  ( -0.2500000000000000000, 0.6250000000000000000, 0.000000000000000000 ) ) ;
#102 = ORIENTED_EDGE ( 'NONE', *, *, #115, .T. ) ;
#103 = AXIS2_PLACEMENT_3D ( 'NONE', #294, #259, #263 ) ;
#104 = VERTEX_POINT ( 'NONE', #145 ) ;
#105 = CARTESIAN_POINT ( 'NONE',  ( 0.000000000000000000, 0.6250000000000000000, 0.000000000000000000 ) ) ;
#106 =( NAMED_UNIT ( * ) PLANE_ANGLE_UNIT ( ) SI_UNIT ( $, .RADIAN. ) );
#107 = ORIENTED_EDGE ( 'NONE', *, *, #75, .T. ) ;
#108 = VECTOR ( 'NONE', #64, 39.37007874015748143 ) ;
#109 = ORIENTED_EDGE ( 'NONE', *, *, #161, .T. ) ;
#110 = UNCERTAINTY_MEASURE_WITH_UNIT (LENGTH_MEASURE( 1.000000000000000082E-05 ), #78, 'distance_accuracy_value', 'NONE');
#111 = STYLED_ITEM ( 'NONE', ( #134 ), #17 ) ;
#112 = STYLED_ITEM ( 'NONE', ( #247 ), #232 ) ;
#113 = DIRECTION ( 'NONE',  ( 9.797174393178826150E-17, 1.000000000000000000, -0.000000000000000000 ) ) ;
#114 = FACE_OUTER_BOUND ( 'NONE', #67, .T. ) ;
#115 = EDGE_CURVE ( 'NONE', #104, #297, #199, .T. ) ;
#116 = DIRECTION ( 'NONE',  ( 0.000000000000000000, -1.000000000000000000, -0.000000000000000000 ) ) ;
#117 = SURFACE_SIDE_STYLE ('',( #170 ) ) ;
#118 = FACE_OUTER_BOUND ( 'NONE', #176, .T. ) ;
#119 = CARTESIAN_POINT ( 'NONE',  ( 1.836970198721029688E-16, 2.500000000000000000, 0.000000000000000000 ) ) ;
#120 = DIRECTION ( 'NONE',  ( 0.000000000000000000, 0.000000000000000000, -1.000000000000000000 ) ) ;
#121 = FILL_AREA_STYLE ('',( #125 ) ) ;
#122 = COLOUR_RGB ( '',0.7921568627450980005, 0.8196078431372548767, 0.9333333333333333481 ) ;
#123 = PRESENTATION_LAYER_ASSIGNMENT (  '', '', ( #19 ) ) ;
#124 = SURFACE_STYLE_USAGE ( .BOTH. , #215 ) ;
#125 = FILL_AREA_STYLE_COLOUR ( '', #155 ) ;
#126 = ORIENTED_EDGE ( 'NONE', *, *, #243, .T. ) ;
#127 = ORIENTED_EDGE ( 'NONE', *, *, #243, .F. ) ;
#128 = CARTESIAN_POINT ( 'NONE',  ( 0.000000000000000000, 0.000000000000000000, 0.000000000000000000 ) ) ;
#129 = ORIENTED_EDGE ( 'NONE', *, *, #231, .F. ) ;
#130 = VECTOR ( 'NONE', #143, 39.37007874015748143 ) ;
#131 = ORIENTED_EDGE ( 'NONE', *, *, #184, .F. ) ;
#132 = DIRECTION ( 'NONE',  ( 0.000000000000000000, 0.000000000000000000, -1.000000000000000000 ) ) ;
#133 = LENGTH_MEASURE_WITH_UNIT ( LENGTH_MEASURE( 0.02539999999999999897 ), #202 );
#134 = PRESENTATION_STYLE_ASSIGNMENT (( #241 ) ) ;
#135 = COLOUR_RGB ( '',1.000000000000000000, 0.000000000000000000, 0.000000000000000000 ) ;
#136 = LENGTH_MEASURE_WITH_UNIT ( LENGTH_MEASURE( 0.02539999999999999897 ), #5 );
#137 = EDGE_CURVE ( 'NONE', #49, #58, #207, .T. ) ;
#138 = PLANE ( 'NONE',  #69 ) ;
#139 = CLOSED_SHELL ( 'NONE', ( #154, #232, #17, #287 ) ) ;
#140 = FILL_AREA_STYLE_COLOUR ( '', #122 ) ;
#141 = DIMENSIONAL_EXPONENTS ( 1.000000000000000000, 0.000000000000000000, 0.000000000000000000, 0.000000000000000000, 0.000000000000000000, 0.000000000000000000, 0.000000000000000000 ) ;
#142 = CARTESIAN_POINT ( 'NONE',  ( 1.199807826129486292E-33, 0.6250000000000000000, 0.000000000000000000 ) ) ;
#143 = DIRECTION ( 'NONE',  ( 9.797174393178824918E-17, 1.000000000000000000, -0.000000000000000000 ) ) ;
#144 = CARTESIAN_POINT ( 'NONE',  ( 0.2500000000000001110, 2.500000000000000000, 3.061616997868382402E-17 ) ) ;
#145 = CARTESIAN_POINT ( 'NONE',  ( 0.2500000000000000555, 2.500000000000000000, 3.061616997868383018E-17 ) ) ;
#146 = CARTESIAN_POINT ( 'NONE',  ( 1.836970198721029688E-16, 2.500000000000000000, 0.000000000000000000 ) ) ;
#147 = PRESENTATION_LAYER_ASSIGNMENT (  '', '', ( #111 ) ) ;
#148 =( GEOMETRIC_REPRESENTATION_CONTEXT ( 3 ) GLOBAL_UNCERTAINTY_ASSIGNED_CONTEXT ( ( #66 ) ) GLOBAL_UNIT_ASSIGNED_CONTEXT ( ( #309, #203, #62 ) ) REPRESENTATION_CONTEXT ( 'NONE', 'WORKASPACE' ) );
#149 = EDGE_CURVE ( 'NONE', #44, #240, #74, .T. ) ;
#150 = CYLINDRICAL_SURFACE ( 'NONE', #83, 0.2500000000000000000 ) ;
#151 = CYLINDRICAL_SURFACE ( 'NONE', #14, 0.2500000000000000000 ) ;
#152 = EDGE_LOOP ( 'NONE', ( #219, #109, #82, #129 ) ) ;
#153 = UNCERTAINTY_MEASURE_WITH_UNIT (LENGTH_MEASURE( 1.000000000000000082E-05 ), #91, 'distance_accuracy_value', 'NONE');
#154 = ADVANCED_FACE ( 'NONE', ( #175 ), #150, .T. ) ;
#155 = COLOUR_RGB ( '',1.000000000000000000, 0.000000000000000000, 0.000000000000000000 ) ;
#156 = DIRECTION ( 'NONE',  ( -0.000000000000000000, -1.000000000000000000, -0.000000000000000000 ) ) ;
#157 = COLOUR_RGB ( '',0.7921568627450980005, 0.8196078431372548767, 0.9333333333333333481 ) ;
#158 = FACE_OUTER_BOUND ( 'NONE', #6, .T. ) ;
#159 = DIRECTION ( 'NONE',  ( 1.000000000000000000, -9.797174393178824918E-17, 0.000000000000000000 ) ) ;
#160 = MECHANICAL_DESIGN_GEOMETRIC_PRESENTATION_REPRESENTATION (  '', ( #40 ), #3 ) ;
#161 = EDGE_CURVE ( 'NONE', #240, #104, #255, .T. ) ;
#162 = SURFACE_STYLE_FILL_AREA ( #193 ) ;
#163 = ORIENTED_EDGE ( 'NONE', *, *, #80, .T. ) ;
#164 = CARTESIAN_POINT ( 'NONE',  ( 0.000000000000000000, 0.000000000000000000, 0.000000000000000000 ) ) ;
#165 = PLANE ( 'NONE',  #25 ) ;
#166 = DIRECTION ( 'NONE',  ( 9.797174393178824918E-17, 1.000000000000000000, -0.000000000000000000 ) ) ;
#167 = LINE ( 'NONE', #181, #15 ) ;
#168 = DIRECTION ( 'NONE',  ( 0.000000000000000000, 0.000000000000000000, -1.000000000000000000 ) ) ;
#169 = DIRECTION ( 'NONE',  ( -1.000000000000000000, 0.000000000000000000, 0.000000000000000000 ) ) ;
#170 = SURFACE_STYLE_FILL_AREA ( #275 ) ;
#171 = AXIS2_PLACEMENT_3D ( 'NONE', #16, #72, #120 ) ;
#172 = APPLICATION_PROTOCOL_DEFINITION ( 'draft international standard', 'automotive_design', 1998, #302 ) ;
#173 = PRESENTATION_STYLE_ASSIGNMENT (( #76 ) ) ;
#174 = UNCERTAINTY_MEASURE_WITH_UNIT (LENGTH_MEASURE( 1.000000000000000082E-05 ), #209, 'distance_accuracy_value', 'NONE');
#175 = FACE_OUTER_BOUND ( 'NONE', #293, .T. ) ;
#176 = EDGE_LOOP ( 'NONE', ( #33, #265, #126, #131 ) ) ;
#177 = AXIS2_PLACEMENT_3D ( 'NONE', #186, #239, #54 ) ;
#178 = CARTESIAN_POINT ( 'NONE',  ( 0.000000000000000000, 0.6250000000000000000, -0.2500000000000000000 ) ) ;
#179 = EDGE_LOOP ( 'NONE', ( #81, #221 ) ) ;
#180 = DIRECTION ( 'NONE',  ( -0.000000000000000000, -1.000000000000000000, -0.000000000000000000 ) ) ;
#181 = CARTESIAN_POINT ( 'NONE',  ( 0.000000000000000000, 0.000000000000000000, -0.2500000000000000000 ) ) ;
#182 = LINE ( 'NONE', #269, #108 ) ;
#183 = AXIS2_PLACEMENT_3D ( 'NONE', #244, #113, #268 ) ;
#184 = EDGE_CURVE ( 'NONE', #10, #295, #211, .T. ) ;
#185 = DIMENSIONAL_EXPONENTS ( 1.000000000000000000, 0.000000000000000000, 0.000000000000000000, 0.000000000000000000, 0.000000000000000000, 0.000000000000000000, 0.000000000000000000 ) ;
#186 = CARTESIAN_POINT ( 'NONE',  ( 0.000000000000000000, 0.6250000000000000000, 0.000000000000000000 ) ) ;
#187 = MANIFOLD_SOLID_BREP ( 'Revolve - Tool Body (Straight Shanked)', #45 ) ;
#188 = AXIS2_PLACEMENT_3D ( 'NONE', #119, #56, #169 ) ;
#189 = PLANE ( 'NONE',  #299 ) ;
#190 = SURFACE_STYLE_USAGE ( .BOTH. , #21 ) ;
#191 = FACE_OUTER_BOUND ( 'NONE', #152, .T. ) ;
#192 = EDGE_CURVE ( 'NONE', #49, #10, #182, .T. ) ;
#193 = FILL_AREA_STYLE ('',( #140 ) ) ;
#194 = FILL_AREA_STYLE ('',( #213 ) ) ;
#195 = STYLED_ITEM ( 'NONE', ( #308 ), #154 ) ;
#196 = PRESENTATION_LAYER_ASSIGNMENT (  '', '', ( #112 ) ) ;
#197 = DIRECTION ( 'NONE',  ( -0.000000000000000000, -1.000000000000000000, -0.000000000000000000 ) ) ;
#198 =( NAMED_UNIT ( * ) PLANE_ANGLE_UNIT ( ) SI_UNIT ( $, .RADIAN. ) );
#199 = CIRCLE ( 'NONE', #260, 0.2499999999999998335 ) ;
#200 = ORIENTED_EDGE ( 'NONE', *, *, #41, .T. ) ;
#201 = ADVANCED_FACE ( 'NONE', ( #158 ), #38, .T. ) ;
#202 =( LENGTH_UNIT ( ) NAMED_UNIT ( * ) SI_UNIT ( $, .METRE. ) );
#203 =( NAMED_UNIT ( * ) PLANE_ANGLE_UNIT ( ) SI_UNIT ( $, .RADIAN. ) );
#204 = SURFACE_SIDE_STYLE ('',( #283 ) ) ;
#205 =( NAMED_UNIT ( * ) SI_UNIT ( $, .STERADIAN. ) SOLID_ANGLE_UNIT ( ) );
#206 = LINE ( 'NONE', #71, #130 ) ;
#207 = CIRCLE ( 'NONE', #177, 0.2500000000000000000 ) ;
#208 = PRESENTATION_LAYER_ASSIGNMENT (  '', '', ( #195 ) ) ;
#209 =( CONVERSION_BASED_UNIT ( 'INCH', #43 ) LENGTH_UNIT ( ) NAMED_UNIT ( #282 ) );
#210 = DIRECTION ( 'NONE',  ( 0.000000000000000000, 0.000000000000000000, -1.000000000000000000 ) ) ;
#211 = CIRCLE ( 'NONE', #103, 0.2500000000000000000 ) ;
#212 = EDGE_CURVE ( 'NONE', #295, #10, #303, .T. ) ;
#213 = FILL_AREA_STYLE_COLOUR ( '', #277 ) ;
#214 = DIRECTION ( 'NONE',  ( 9.797174393178826150E-17, 1.000000000000000000, -0.000000000000000000 ) ) ;
#215 = SURFACE_SIDE_STYLE ('',( #237 ) ) ;
#216 =( GEOMETRIC_REPRESENTATION_CONTEXT ( 3 ) GLOBAL_UNCERTAINTY_ASSIGNED_CONTEXT ( ( #270 ) ) GLOBAL_UNIT_ASSIGNED_CONTEXT ( ( #39, #84, #223 ) ) REPRESENTATION_CONTEXT ( 'NONE', 'WORKASPACE' ) );
#217 = CARTESIAN_POINT ( 'NONE',  ( 1.836970198721029688E-16, 2.500000000000000000, 0.000000000000000000 ) ) ;
#218 = DIRECTION ( 'NONE',  ( 0.000000000000000000, -0.000000000000000000, 1.000000000000000000 ) ) ;
#219 = ORIENTED_EDGE ( 'NONE', *, *, #149, .T. ) ;
#220 = PRODUCT_CONTEXT ( 'NONE', #298, 'mechanical' ) ;
#221 = ORIENTED_EDGE ( 'NONE', *, *, #184, .T. ) ;
#222 = MECHANICAL_DESIGN_GEOMETRIC_PRESENTATION_REPRESENTATION (  '', ( #112 ), #148 ) ;
#223 =( NAMED_UNIT ( * ) SI_UNIT ( $, .STERADIAN. ) SOLID_ANGLE_UNIT ( ) );
#224 = ORIENTED_EDGE ( 'NONE', *, *, #137, .F. ) ;
#225 = EDGE_LOOP ( 'NONE', ( #36, #224 ) ) ;
#226 = CIRCLE ( 'NONE', #188, 0.2499999999999998335 ) ;
#227 = VECTOR ( 'NONE', #28, 39.37007874015748143 ) ;
#228 =( NAMED_UNIT ( * ) SI_UNIT ( $, .STERADIAN. ) SOLID_ANGLE_UNIT ( ) );
#229 = MECHANICAL_DESIGN_GEOMETRIC_PRESENTATION_REPRESENTATION (  '', ( #245 ), #51 ) ;
#230 = PRESENTATION_STYLE_ASSIGNMENT (( #190 ) ) ;
#231 = EDGE_CURVE ( 'NONE', #44, #297, #206, .T. ) ;
#232 = ADVANCED_FACE ( 'NONE', ( #93 ), #29, .T. ) ;
#233 =( NAMED_UNIT ( * ) PLANE_ANGLE_UNIT ( ) SI_UNIT ( $, .RADIAN. ) );
#234 = FILL_AREA_STYLE_COLOUR ( '', #238 ) ;
#235 =( GEOMETRIC_REPRESENTATION_CONTEXT ( 3 ) GLOBAL_UNCERTAINTY_ASSIGNED_CONTEXT ( ( #153 ) ) GLOBAL_UNIT_ASSIGNED_CONTEXT ( ( #91, #198, #285 ) ) REPRESENTATION_CONTEXT ( 'NONE', 'WORKASPACE' ) );
#236 = CARTESIAN_POINT ( 'NONE',  ( 3.061616997868383018E-17, 0.000000000000000000, 0.2500000000000000000 ) ) ;
#237 = SURFACE_STYLE_FILL_AREA ( #121 ) ;
#238 = COLOUR_RGB ( '',1.000000000000000000, 0.000000000000000000, 0.000000000000000000 ) ;
#239 = DIRECTION ( 'NONE',  ( -0.000000000000000000, -1.000000000000000000, -0.000000000000000000 ) ) ;
#240 = VERTEX_POINT ( 'NONE', #86 ) ;
#241 = SURFACE_STYLE_USAGE ( .BOTH. , #204 ) ;
#242 = PRODUCT_DEFINITION_CONTEXT ( 'detailed design', #302, 'design' ) ;
#243 = EDGE_CURVE ( 'NONE', #58, #295, #167, .T. ) ;
#244 = CARTESIAN_POINT ( 'NONE',  ( 1.836970198721029688E-16, 2.500000000000000000, 0.000000000000000000 ) ) ;
#245 = STYLED_ITEM ( 'NONE', ( #173 ), #187 ) ;
#246 = ORIENTED_EDGE ( 'NONE', *, *, #231, .T. ) ;
#247 = PRESENTATION_STYLE_ASSIGNMENT (( #262 ) ) ;
#248 =( CONVERSION_BASED_UNIT ( 'INCH', #278 ) LENGTH_UNIT ( ) NAMED_UNIT ( #23 ) );
#249 = DIMENSIONAL_EXPONENTS ( 1.000000000000000000, 0.000000000000000000, 0.000000000000000000, 0.000000000000000000, 0.000000000000000000, 0.000000000000000000, 0.000000000000000000 ) ;
#250 = DIRECTION ( 'NONE',  ( -1.000000000000000000, 9.797174393178824918E-17, 0.000000000000000000 ) ) ;
#251 = FACE_OUTER_BOUND ( 'NONE', #261, .T. ) ;
#252 = DIRECTION ( 'NONE',  ( -1.000000000000000000, 0.000000000000000000, 0.000000000000000000 ) ) ;
#253 = ADVANCED_FACE ( 'NONE', ( #114 ), #138, .F. ) ;
#254 = PRODUCT_DEFINITION ( 'UNKNOWN', '', #30, #242 ) ;
#255 = LINE ( 'NONE', #144, #227 ) ;
#256 = CYLINDRICAL_SURFACE ( 'NONE', #24, 0.2499999999999999167 ) ;
#257 = PRESENTATION_STYLE_ASSIGNMENT (( #70 ) ) ;
#258 =( LENGTH_UNIT ( ) NAMED_UNIT ( * ) SI_UNIT ( $, .METRE. ) );
#259 = DIRECTION ( 'NONE',  ( -0.000000000000000000, -1.000000000000000000, -0.000000000000000000 ) ) ;
#260 = AXIS2_PLACEMENT_3D ( 'NONE', #217, #214, #280 ) ;
#261 = EDGE_LOOP ( 'NONE', ( #163, #102 ) ) ;
#262 = SURFACE_STYLE_USAGE ( .BOTH. , #48 ) ;
#263 = DIRECTION ( 'NONE',  ( 0.000000000000000000, 0.000000000000000000, -1.000000000000000000 ) ) ;
#264 = DIRECTION ( 'NONE',  ( 0.000000000000000000, 0.000000000000000000, -1.000000000000000000 ) ) ;
#265 = ORIENTED_EDGE ( 'NONE', *, *, #137, .T. ) ;
#266 = UNCERTAINTY_MEASURE_WITH_UNIT (LENGTH_MEASURE( 1.000000000000000082E-05 ), #248, 'distance_accuracy_value', 'NONE');
#267 = ORIENTED_EDGE ( 'NONE', *, *, #115, .F. ) ;
#268 = DIRECTION ( 'NONE',  ( -1.000000000000000000, 0.000000000000000000, 0.000000000000000000 ) ) ;
#269 = CARTESIAN_POINT ( 'NONE',  ( 3.061616997868383018E-17, 0.000000000000000000, 0.2500000000000000000 ) ) ;
#270 = UNCERTAINTY_MEASURE_WITH_UNIT (LENGTH_MEASURE( 1.000000000000000082E-05 ), #39, 'distance_accuracy_value', 'NONE');
#271 = PRESENTATION_LAYER_ASSIGNMENT (  '', '', ( #40 ) ) ;
#272 = DIRECTION ( 'NONE',  ( -9.797174393178824918E-17, -1.000000000000000000, 0.000000000000000000 ) ) ;
#273 =( NAMED_UNIT ( * ) PLANE_ANGLE_UNIT ( ) SI_UNIT ( $, .RADIAN. ) );
#274 = FILL_AREA_STYLE_COLOUR ( '', #135 ) ;
#275 = FILL_AREA_STYLE ('',( #234 ) ) ;
#276 = DIMENSIONAL_EXPONENTS ( 1.000000000000000000, 0.000000000000000000, 0.000000000000000000, 0.000000000000000000, 0.000000000000000000, 0.000000000000000000, 0.000000000000000000 ) ;
#277 = COLOUR_RGB ( '',1.000000000000000000, 0.000000000000000000, 0.000000000000000000 ) ;
#278 = LENGTH_MEASURE_WITH_UNIT ( LENGTH_MEASURE( 0.02539999999999999897 ), #304 );
#279 = DIMENSIONAL_EXPONENTS ( 1.000000000000000000, 0.000000000000000000, 0.000000000000000000, 0.000000000000000000, 0.000000000000000000, 0.000000000000000000, 0.000000000000000000 ) ;
#280 = DIRECTION ( 'NONE',  ( -1.000000000000000000, 0.000000000000000000, 0.000000000000000000 ) ) ;
#281 = MANIFOLD_SOLID_BREP ( 'Revolve - Cutting Edge', #139 ) ;
#282 = DIMENSIONAL_EXPONENTS ( 1.000000000000000000, 0.000000000000000000, 0.000000000000000000, 0.000000000000000000, 0.000000000000000000, 0.000000000000000000, 0.000000000000000000 ) ;
#283 = SURFACE_STYLE_FILL_AREA ( #194 ) ;
#284 = AXIS2_PLACEMENT_3D ( 'NONE', #99, #35, #252 ) ;
#285 =( NAMED_UNIT ( * ) SI_UNIT ( $, .STERADIAN. ) SOLID_ANGLE_UNIT ( ) );
#286 =( GEOMETRIC_REPRESENTATION_CONTEXT ( 3 ) GLOBAL_UNCERTAINTY_ASSIGNED_CONTEXT ( ( #110 ) ) GLOBAL_UNIT_ASSIGNED_CONTEXT ( ( #78, #233, #205 ) ) REPRESENTATION_CONTEXT ( 'NONE', 'WORKASPACE' ) );
#287 = ADVANCED_FACE ( 'NONE', ( #306 ), #165, .T. ) ;
#288 = CARTESIAN_POINT ( 'NONE',  ( 3.061616997868383018E-17, 0.6250000000000000000, 0.2500000000000000000 ) ) ;
#289 = DIRECTION ( 'NONE',  ( 1.000000000000000000, 0.000000000000000000, 0.000000000000000000 ) ) ;
#290 = MECHANICAL_DESIGN_GEOMETRIC_PRESENTATION_REPRESENTATION (  '', ( #111 ), #216 ) ;
#291 = LENGTH_MEASURE_WITH_UNIT ( LENGTH_MEASURE( 0.02539999999999999897 ), #68 );
#292 = FILL_AREA_STYLE ('',( #100 ) ) ;
#293 = EDGE_LOOP ( 'NONE', ( #200, #61, #60, #127 ) ) ;
#294 = CARTESIAN_POINT ( 'NONE',  ( 0.000000000000000000, 0.000000000000000000, 0.000000000000000000 ) ) ;
#295 = VERTEX_POINT ( 'NONE', #47 ) ;
#296 = AXIS2_PLACEMENT_3D ( 'NONE', #26, #1, #95 ) ;
#297 = VERTEX_POINT ( 'NONE', #301 ) ;
#298 = APPLICATION_CONTEXT ( 'automotive_design' ) ;
#299 = AXIS2_PLACEMENT_3D ( 'NONE', #50, #272, #159 ) ;
#300 =( NAMED_UNIT ( * ) SI_UNIT ( $, .STERADIAN. ) SOLID_ANGLE_UNIT ( ) );
#301 = CARTESIAN_POINT ( 'NONE',  ( -0.2499999999999996669, 2.500000000000000000, 0.000000000000000000 ) ) ;
#302 = APPLICATION_CONTEXT ( 'automotive_design' ) ;
#303 = CIRCLE ( 'NONE', #89, 0.2500000000000000000 ) ;
#304 =( LENGTH_UNIT ( ) NAMED_UNIT ( * ) SI_UNIT ( $, .METRE. ) );
#305 = CARTESIAN_POINT ( 'NONE',  ( 0.000000000000000000, 0.000000000000000000, 0.000000000000000000 ) ) ;
#306 = FACE_OUTER_BOUND ( 'NONE', #179, .T. ) ;
#307 =( CONVERSION_BASED_UNIT ( 'INCH', #87 ) LENGTH_UNIT ( ) NAMED_UNIT ( #276 ) );
#308 = PRESENTATION_STYLE_ASSIGNMENT (( #124 ) ) ;
#309 =( CONVERSION_BASED_UNIT ( 'INCH', #291 ) LENGTH_UNIT ( ) NAMED_UNIT ( #185 ) );
ENDSEC;
END-ISO-10303-21;
