ISO-10303-21;
HEADER;
FILE_DESCRIPTION (( 'STEP AP214' ),
    '1' );
FILE_NAME ('01375.STEP',
    '2023-06-22T14:28:48',
    ( '' ),
    ( '' ),
    'SwSTEP 2.0',
    'SolidWorks 2023',
    '' );
FILE_SCHEMA (( 'AUTOMOTIVE_DESIGN' ));
ENDSEC;

DATA;
#1 =( NAMED_UNIT ( * ) PLANE_ANGLE_UNIT ( ) SI_UNIT ( $, .RADIAN. ) );
#2 = VERTEX_POINT ( 'NONE', #147 ) ;
#3 = PRESENTATION_LAYER_ASSIGNMENT (  '', '', ( #126 ) ) ;
#4 = VECTOR ( 'NONE', #98, 39.37007874015748143 ) ;
#5 = APPLICATION_CONTEXT ( 'automotive_design' ) ;
#6 = FILL_AREA_STYLE ('',( #240 ) ) ;
#7 = DIRECTION ( 'NONE',  ( -1.000000000000000000, -2.449293598294706229E-17, 0.000000000000000000 ) ) ;
#8 = ORIENTED_EDGE ( 'NONE', *, *, #231, .T. ) ;
#9 = CIRCLE ( 'NONE', #166, 0.1875000000000000278 ) ;
#10 = ORIENTED_EDGE ( 'NONE', *, *, #205, .F. ) ;
#11 = LENGTH_MEASURE_WITH_UNIT ( LENGTH_MEASURE( 0.02539999999999999897 ), #59 );
#12 = ADVANCED_FACE ( 'NONE', ( #30 ), #47, .F. ) ;
#13 = AXIS2_PLACEMENT_3D ( 'NONE', #152, #87, #279 ) ;
#14 =( LENGTH_UNIT ( ) NAMED_UNIT ( * ) SI_UNIT ( $, .METRE. ) );
#15 = EDGE_CURVE ( 'NONE', #84, #271, #9, .T. ) ;
#16 = FACE_OUTER_BOUND ( 'NONE', #214, .T. ) ;
#17 = MECHANICAL_DESIGN_GEOMETRIC_PRESENTATION_REPRESENTATION (  '', ( #126 ), #178 ) ;
#18 = LINE ( 'NONE', #206, #132 ) ;
#19 = COLOUR_RGB ( '',1.000000000000000000, 0.000000000000000000, 0.000000000000000000 ) ;
#20 = FACE_OUTER_BOUND ( 'NONE', #265, .T. ) ;
#21 = UNCERTAINTY_MEASURE_WITH_UNIT (LENGTH_MEASURE( 1.000000000000000082E-05 ), #61, 'distance_accuracy_value', 'NONE');
#22 = CARTESIAN_POINT ( 'NONE',  ( -0.1875000000000001110, 4.000000000000000000, 0.000000000000000000 ) ) ;
#23 = DIMENSIONAL_EXPONENTS ( 1.000000000000000000, 0.000000000000000000, 0.000000000000000000, 0.000000000000000000, 0.000000000000000000, 0.000000000000000000, 0.000000000000000000 ) ;
#24 = SURFACE_SIDE_STYLE ('',( #68 ) ) ;
#25 = STYLED_ITEM ( 'NONE', ( #31 ), #281 ) ;
#26 = ADVANCED_BREP_SHAPE_REPRESENTATION ( '01375', ( #281, #70, #199 ), #157 ) ;
#27 = SURFACE_STYLE_FILL_AREA ( #6 ) ;
#28 = ORIENTED_EDGE ( 'NONE', *, *, #260, .T. ) ;
#29 = SURFACE_SIDE_STYLE ('',( #27 ) ) ;
#30 = FACE_OUTER_BOUND ( 'NONE', #52, .T. ) ;
#31 = PRESENTATION_STYLE_ASSIGNMENT (( #104 ) ) ;
#32 = DIRECTION ( 'NONE',  ( -1.000000000000000000, 0.000000000000000000, 0.000000000000000000 ) ) ;
#33 = ADVANCED_FACE ( 'NONE', ( #220 ), #123, .T. ) ;
#34 = ORIENTED_EDGE ( 'NONE', *, *, #301, .F. ) ;
#35 = ORIENTED_EDGE ( 'NONE', *, *, #177, .F. ) ;
#36 = CIRCLE ( 'NONE', #207, 0.1875000000000000278 ) ;
#37 =( NAMED_UNIT ( * ) PLANE_ANGLE_UNIT ( ) SI_UNIT ( $, .RADIAN. ) );
#38 =( NAMED_UNIT ( * ) SI_UNIT ( $, .STERADIAN. ) SOLID_ANGLE_UNIT ( ) );
#39 = AXIS2_PLACEMENT_3D ( 'NONE', #159, #256, #136 ) ;
#40 = SURFACE_STYLE_USAGE ( .BOTH. , #131 ) ;
#41 =( CONVERSION_BASED_UNIT ( 'INCH', #110 ) LENGTH_UNIT ( ) NAMED_UNIT ( #283 ) );
#42 = CYLINDRICAL_SURFACE ( 'NONE', #148, 0.1875000000000000555 ) ;
#43 = PRESENTATION_STYLE_ASSIGNMENT (( #165 ) ) ;
#44 =( NAMED_UNIT ( * ) SI_UNIT ( $, .STERADIAN. ) SOLID_ANGLE_UNIT ( ) );
#45 =( GEOMETRIC_REPRESENTATION_CONTEXT ( 3 ) GLOBAL_UNCERTAINTY_ASSIGNED_CONTEXT ( ( #202 ) ) GLOBAL_UNIT_ASSIGNED_CONTEXT ( ( #41, #37, #253 ) ) REPRESENTATION_CONTEXT ( 'NONE', 'WORKASPACE' ) );
#46 = CARTESIAN_POINT ( 'NONE',  ( 0.000000000000000000, 0.000000000000000000, -0.1875000000000000278 ) ) ;
#47 = PLANE ( 'NONE',  #139 ) ;
#48 = PRESENTATION_STYLE_ASSIGNMENT (( #171 ) ) ;
#49 = ORIENTED_EDGE ( 'NONE', *, *, #218, .T. ) ;
#50 = CARTESIAN_POINT ( 'NONE',  ( 0.1875000000000000278, 4.000000000000000000, 0.000000000000000000 ) ) ;
#51 = EDGE_CURVE ( 'NONE', #271, #84, #257, .T. ) ;
#52 = EDGE_LOOP ( 'NONE', ( #296, #125 ) ) ;
#53 = COLOUR_RGB ( '',1.000000000000000000, 0.000000000000000000, 0.000000000000000000 ) ;
#54 = ORIENTED_EDGE ( 'NONE', *, *, #260, .F. ) ;
#55 = DIRECTION ( 'NONE',  ( 0.000000000000000000, 0.000000000000000000, -1.000000000000000000 ) ) ;
#56 = EDGE_CURVE ( 'NONE', #248, #169, #208, .T. ) ;
#57 = DIRECTION ( 'NONE',  ( 0.000000000000000000, -1.000000000000000000, -0.000000000000000000 ) ) ;
#58 = UNCERTAINTY_MEASURE_WITH_UNIT (LENGTH_MEASURE( 1.000000000000000082E-05 ), #235, 'distance_accuracy_value', 'NONE');
#59 =( LENGTH_UNIT ( ) NAMED_UNIT ( * ) SI_UNIT ( $, .METRE. ) );
#60 = FILL_AREA_STYLE_COLOUR ( '', #53 ) ;
#61 =( CONVERSION_BASED_UNIT ( 'INCH', #11 ) LENGTH_UNIT ( ) NAMED_UNIT ( #23 ) );
#62 = ADVANCED_FACE ( 'NONE', ( #16 ), #183, .T. ) ;
#63 = DIRECTION ( 'NONE',  ( -1.000000000000000000, 0.000000000000000000, 0.000000000000000000 ) ) ;
#64 = CARTESIAN_POINT ( 'NONE',  ( 0.000000000000000000, 1.500000000000000222, 0.000000000000000000 ) ) ;
#65 = CIRCLE ( 'NONE', #172, 0.1875000000000000278 ) ;
#66 = FILL_AREA_STYLE ('',( #60 ) ) ;
#67 = PRODUCT_DEFINITION ( 'UNKNOWN', '', #82, #96 ) ;
#68 = SURFACE_STYLE_FILL_AREA ( #259 ) ;
#69 = APPLICATION_CONTEXT ( 'automotive_design' ) ;
#70 = MANIFOLD_SOLID_BREP ( 'Revolve - Tool Body (Straight Shanked)', #203 ) ;
#71 = DIRECTION ( 'NONE',  ( -2.449293598294706229E-17, 1.000000000000000000, -0.000000000000000000 ) ) ;
#72 = STYLED_ITEM ( 'NONE', ( #228 ), #62 ) ;
#73 = CARTESIAN_POINT ( 'NONE',  ( 0.000000000000000000, 0.000000000000000000, 0.000000000000000000 ) ) ;
#74 = DIRECTION ( 'NONE',  ( -0.000000000000000000, -1.000000000000000000, -0.000000000000000000 ) ) ;
#75 = ORIENTED_EDGE ( 'NONE', *, *, #231, .F. ) ;
#76 = MECHANICAL_DESIGN_GEOMETRIC_PRESENTATION_REPRESENTATION (  '', ( #25 ), #263 ) ;
#77 = DIRECTION ( 'NONE',  ( 0.000000000000000000, 0.000000000000000000, -1.000000000000000000 ) ) ;
#78 = DIRECTION ( 'NONE',  ( -2.449293598294706538E-17, 1.000000000000000000, -0.000000000000000000 ) ) ;
#79 = SURFACE_SIDE_STYLE ('',( #293 ) ) ;
#80 = ORIENTED_EDGE ( 'NONE', *, *, #15, .T. ) ;
#81 = AXIS2_PLACEMENT_3D ( 'NONE', #64, #133, #112 ) ;
#82 = PRODUCT_DEFINITION_FORMATION_WITH_SPECIFIED_SOURCE ( 'ANY', '', #160, .NOT_KNOWN. ) ;
#83 = LENGTH_MEASURE_WITH_UNIT ( LENGTH_MEASURE( 0.02539999999999999897 ), #272 );
#84 = VERTEX_POINT ( 'NONE', #140 ) ;
#85 = SURFACE_STYLE_FILL_AREA ( #297 ) ;
#86 =( NAMED_UNIT ( * ) PLANE_ANGLE_UNIT ( ) SI_UNIT ( $, .RADIAN. ) );
#87 = DIRECTION ( 'NONE',  ( -2.449293598294706538E-17, 1.000000000000000000, -0.000000000000000000 ) ) ;
#88 = CIRCLE ( 'NONE', #236, 0.1875000000000000833 ) ;
#89 = DIRECTION ( 'NONE',  ( 1.000000000000000000, 0.000000000000000000, 0.000000000000000000 ) ) ;
#90 = CARTESIAN_POINT ( 'NONE',  ( 0.000000000000000000, 0.000000000000000000, 0.000000000000000000 ) ) ;
#91 = UNCERTAINTY_MEASURE_WITH_UNIT (LENGTH_MEASURE( 1.000000000000000082E-05 ), #185, 'distance_accuracy_value', 'NONE');
#92 =( NAMED_UNIT ( * ) PLANE_ANGLE_UNIT ( ) SI_UNIT ( $, .RADIAN. ) );
#93 = DIRECTION ( 'NONE',  ( -2.449293598294706538E-17, 1.000000000000000000, -0.000000000000000000 ) ) ;
#94 = DIMENSIONAL_EXPONENTS ( 1.000000000000000000, 0.000000000000000000, 0.000000000000000000, 0.000000000000000000, 0.000000000000000000, 0.000000000000000000, 0.000000000000000000 ) ;
#95 = CARTESIAN_POINT ( 'NONE',  ( 0.1875000000000000278, 4.000000000000000000, 2.296212748401288342E-17 ) ) ;
#96 = PRODUCT_DEFINITION_CONTEXT ( 'detailed design', #69, 'design' ) ;
#97 = EDGE_CURVE ( 'NONE', #84, #169, #230, .T. ) ;
#98 = DIRECTION ( 'NONE',  ( -2.449293598294706229E-17, 1.000000000000000000, -0.000000000000000000 ) ) ;
#99 = DIMENSIONAL_EXPONENTS ( 1.000000000000000000, 0.000000000000000000, 0.000000000000000000, 0.000000000000000000, 0.000000000000000000, 0.000000000000000000, 0.000000000000000000 ) ;
#100 = VECTOR ( 'NONE', #71, 39.37007874015748143 ) ;
#101 = PLANE ( 'NONE',  #180 ) ;
#102 = STYLED_ITEM ( 'NONE', ( #43 ), #162 ) ;
#103 = ORIENTED_EDGE ( 'NONE', *, *, #97, .F. ) ;
#104 = SURFACE_STYLE_USAGE ( .BOTH. , #29 ) ;
#105 = FILL_AREA_STYLE_COLOUR ( '', #299 ) ;
#106 = DIRECTION ( 'NONE',  ( 2.449293598294706229E-17, -1.000000000000000000, 0.000000000000000000 ) ) ;
#107 = ORIENTED_EDGE ( 'NONE', *, *, #247, .T. ) ;
#108 = PRESENTATION_LAYER_ASSIGNMENT (  '', '', ( #25 ) ) ;
#109 = DIRECTION ( 'NONE',  ( 0.000000000000000000, 0.000000000000000000, -1.000000000000000000 ) ) ;
#110 = LENGTH_MEASURE_WITH_UNIT ( LENGTH_MEASURE( 0.02539999999999999897 ), #14 );
#111 = DIRECTION ( 'NONE',  ( 0.000000000000000000, 0.000000000000000000, 1.000000000000000000 ) ) ;
#112 = DIRECTION ( 'NONE',  ( 0.000000000000000000, -0.000000000000000000, 1.000000000000000000 ) ) ;
#113 = EDGE_CURVE ( 'NONE', #271, #248, #158, .T. ) ;
#114 = DIRECTION ( 'NONE',  ( -0.000000000000000000, -1.000000000000000000, -0.000000000000000000 ) ) ;
#115 = DIRECTION ( 'NONE',  ( 0.000000000000000000, 0.000000000000000000, -1.000000000000000000 ) ) ;
#116 = DIRECTION ( 'NONE',  ( -0.000000000000000000, -1.000000000000000000, -0.000000000000000000 ) ) ;
#117 = PRESENTATION_LAYER_ASSIGNMENT (  '', '', ( #141 ) ) ;
#118 = FACE_OUTER_BOUND ( 'NONE', #246, .T. ) ;
#119 = DIRECTION ( 'NONE',  ( -2.449293598294706538E-17, 1.000000000000000000, -0.000000000000000000 ) ) ;
#120 = CARTESIAN_POINT ( 'NONE',  ( 5.624099184981966457E-35, 1.500000000000000222, 0.000000000000000000 ) ) ;
#121 = MECHANICAL_DESIGN_GEOMETRIC_PRESENTATION_REPRESENTATION (  '', ( #141 ), #215 ) ;
#122 =( CONVERSION_BASED_UNIT ( 'INCH', #245 ) LENGTH_UNIT ( ) NAMED_UNIT ( #278 ) );
#123 = CYLINDRICAL_SURFACE ( 'NONE', #282, 0.1875000000000000278 ) ;
#124 = ORIENTED_EDGE ( 'NONE', *, *, #247, .F. ) ;
#125 = ORIENTED_EDGE ( 'NONE', *, *, #15, .F. ) ;
#126 = STYLED_ITEM ( 'NONE', ( #254 ), #33 ) ;
#127 = VECTOR ( 'NONE', #269, 39.37007874015748143 ) ;
#128 = SURFACE_STYLE_USAGE ( .BOTH. , #176 ) ;
#129 = APPLICATION_PROTOCOL_DEFINITION ( 'draft international standard', 'automotive_design', 1998, #5 ) ;
#130 = CARTESIAN_POINT ( 'NONE',  ( 0.000000000000000000, 0.000000000000000000, 0.000000000000000000 ) ) ;
#131 = SURFACE_SIDE_STYLE ('',( #154 ) ) ;
#132 = VECTOR ( 'NONE', #114, 39.37007874015748143 ) ;
#133 = DIRECTION ( 'NONE',  ( 0.000000000000000000, 1.000000000000000000, 0.000000000000000000 ) ) ;
#134 = SURFACE_STYLE_USAGE ( .BOTH. , #302 ) ;
#135 =( LENGTH_UNIT ( ) NAMED_UNIT ( * ) SI_UNIT ( $, .METRE. ) );
#136 = DIRECTION ( 'NONE',  ( 0.000000000000000000, 0.000000000000000000, -1.000000000000000000 ) ) ;
#137 = UNCERTAINTY_MEASURE_WITH_UNIT (LENGTH_MEASURE( 1.000000000000000082E-05 ), #308, 'distance_accuracy_value', 'NONE');
#138 = DIRECTION ( 'NONE',  ( 0.000000000000000000, 0.000000000000000000, -1.000000000000000000 ) ) ;
#139 = AXIS2_PLACEMENT_3D ( 'NONE', #120, #217, #7 ) ;
#140 = CARTESIAN_POINT ( 'NONE',  ( 0.1875000000000000278, 1.499999999999999778, 2.296212748401288342E-17 ) ) ;
#141 = STYLED_ITEM ( 'NONE', ( #226 ), #70 ) ;
#142 = DIRECTION ( 'NONE',  ( -1.000000000000000000, 0.000000000000000000, 0.000000000000000000 ) ) ;
#143 = ORIENTED_EDGE ( 'NONE', *, *, #113, .F. ) ;
#144 = CARTESIAN_POINT ( 'NONE',  ( 0.000000000000000000, 1.500000000000000222, 0.000000000000000000 ) ) ;
#145 = ORIENTED_EDGE ( 'NONE', *, *, #97, .T. ) ;
#146 = FACE_OUTER_BOUND ( 'NONE', #170, .T. ) ;
#147 = CARTESIAN_POINT ( 'NONE',  ( 2.296212748401287726E-17, 1.500000000000000222, 0.1875000000000000278 ) ) ;
#148 = AXIS2_PLACEMENT_3D ( 'NONE', #303, #93, #187 ) ;
#149 = DIRECTION ( 'NONE',  ( -2.449293598294706538E-17, 1.000000000000000000, -0.000000000000000000 ) ) ;
#150 = EDGE_LOOP ( 'NONE', ( #35, #49, #224, #124 ) ) ;
#151 =( NAMED_UNIT ( * ) PLANE_ANGLE_UNIT ( ) SI_UNIT ( $, .RADIAN. ) );
#152 = CARTESIAN_POINT ( 'NONE',  ( 7.582401355855259480E-33, 1.499999999999999778, 0.000000000000000000 ) ) ;
#153 = AXIS2_PLACEMENT_3D ( 'NONE', #274, #252, #63 ) ;
#154 = SURFACE_STYLE_FILL_AREA ( #66 ) ;
#155 =( LENGTH_UNIT ( ) NAMED_UNIT ( * ) SI_UNIT ( $, .METRE. ) );
#156 = MECHANICAL_DESIGN_GEOMETRIC_PRESENTATION_REPRESENTATION (  '', ( #72 ), #45 ) ;
#157 =( GEOMETRIC_REPRESENTATION_CONTEXT ( 3 ) GLOBAL_UNCERTAINTY_ASSIGNED_CONTEXT ( ( #21 ) ) GLOBAL_UNIT_ASSIGNED_CONTEXT ( ( #61, #151, #175 ) ) REPRESENTATION_CONTEXT ( 'NONE', 'WORKASPACE' ) );
#158 = LINE ( 'NONE', #22, #4 ) ;
#159 = CARTESIAN_POINT ( 'NONE',  ( 0.000000000000000000, 1.500000000000000222, 0.000000000000000000 ) ) ;
#160 = PRODUCT ( '01375', '01375', '', ( #182 ) ) ;
#161 =( GEOMETRIC_REPRESENTATION_CONTEXT ( 3 ) GLOBAL_UNCERTAINTY_ASSIGNED_CONTEXT ( ( #137 ) ) GLOBAL_UNIT_ASSIGNED_CONTEXT ( ( #308, #86, #38 ) ) REPRESENTATION_CONTEXT ( 'NONE', 'WORKASPACE' ) );
#162 = ADVANCED_FACE ( 'NONE', ( #280 ), #232, .T. ) ;
#163 = FILL_AREA_STYLE_COLOUR ( '', #19 ) ;
#164 =( NAMED_UNIT ( * ) SI_UNIT ( $, .STERADIAN. ) SOLID_ANGLE_UNIT ( ) );
#165 = SURFACE_STYLE_USAGE ( .BOTH. , #24 ) ;
#166 = AXIS2_PLACEMENT_3D ( 'NONE', #292, #78, #32 ) ;
#167 = STYLED_ITEM ( 'NONE', ( #48 ), #309 ) ;
#168 = CARTESIAN_POINT ( 'NONE',  ( -6.123233995736766036E-17, 4.000000000000000000, 0.000000000000000000 ) ) ;
#169 = VERTEX_POINT ( 'NONE', #95 ) ;
#170 = EDGE_LOOP ( 'NONE', ( #192, #107 ) ) ;
#171 = SURFACE_STYLE_USAGE ( .BOTH. , #79 ) ;
#172 = AXIS2_PLACEMENT_3D ( 'NONE', #234, #209, #115 ) ;
#173 = LINE ( 'NONE', #46, #127 ) ;
#174 = EDGE_LOOP ( 'NONE', ( #8, #193, #10, #34 ) ) ;
#175 =( NAMED_UNIT ( * ) SI_UNIT ( $, .STERADIAN. ) SOLID_ANGLE_UNIT ( ) );
#176 = SURFACE_SIDE_STYLE ('',( #85 ) ) ;
#177 = EDGE_CURVE ( 'NONE', #2, #244, #18, .T. ) ;
#178 =( GEOMETRIC_REPRESENTATION_CONTEXT ( 3 ) GLOBAL_UNCERTAINTY_ASSIGNED_CONTEXT ( ( #91 ) ) GLOBAL_UNIT_ASSIGNED_CONTEXT ( ( #185, #92, #251 ) ) REPRESENTATION_CONTEXT ( 'NONE', 'WORKASPACE' ) );
#179 = MECHANICAL_DESIGN_GEOMETRIC_PRESENTATION_REPRESENTATION (  '', ( #167 ), #161 ) ;
#180 = AXIS2_PLACEMENT_3D ( 'NONE', #90, #57, #275 ) ;
#181 = LENGTH_MEASURE_WITH_UNIT ( LENGTH_MEASURE( 0.02539999999999999897 ), #155 );
#182 = PRODUCT_CONTEXT ( 'NONE', #5, 'mechanical' ) ;
#183 = PLANE ( 'NONE',  #81 ) ;
#184 = APPLICATION_PROTOCOL_DEFINITION ( 'draft international standard', 'automotive_design', 1998, #69 ) ;
#185 =( CONVERSION_BASED_UNIT ( 'INCH', #181 ) LENGTH_UNIT ( ) NAMED_UNIT ( #94 ) );
#186 = LENGTH_MEASURE_WITH_UNIT ( LENGTH_MEASURE( 0.02539999999999999897 ), #135 );
#187 = DIRECTION ( 'NONE',  ( -1.000000000000000000, 0.000000000000000000, 0.000000000000000000 ) ) ;
#188 = AXIS2_PLACEMENT_3D ( 'NONE', #221, #119, #142 ) ;
#189 = LENGTH_MEASURE_WITH_UNIT ( LENGTH_MEASURE( 0.02539999999999999897 ), #211 );
#190 = AXIS2_PLACEMENT_3D ( 'NONE', #144, #74, #77 ) ;
#191 = DIRECTION ( 'NONE',  ( -1.000000000000000000, 0.000000000000000000, 0.000000000000000000 ) ) ;
#192 = ORIENTED_EDGE ( 'NONE', *, *, #205, .T. ) ;
#193 = ORIENTED_EDGE ( 'NONE', *, *, #177, .T. ) ;
#194 = FILL_AREA_STYLE ('',( #243 ) ) ;
#195 = FILL_AREA_STYLE ('',( #105 ) ) ;
#196 = CARTESIAN_POINT ( 'NONE',  ( -0.1875000000000000278, 1.499999999999999778, 0.000000000000000000 ) ) ;
#197 = CLOSED_SHELL ( 'NONE', ( #33, #62, #162, #309 ) ) ;
#198 = ORIENTED_EDGE ( 'NONE', *, *, #56, .T. ) ;
#199 = AXIS2_PLACEMENT_3D ( 'NONE', #249, #111, #89 ) ;
#200 = SHAPE_DEFINITION_REPRESENTATION ( #238, #26 ) ;
#201 = FILL_AREA_STYLE_COLOUR ( '', #229 ) ;
#202 = UNCERTAINTY_MEASURE_WITH_UNIT (LENGTH_MEASURE( 1.000000000000000082E-05 ), #41, 'distance_accuracy_value', 'NONE');
#203 = CLOSED_SHELL ( 'NONE', ( #223, #12, #212, #306 ) ) ;
#204 = PRESENTATION_LAYER_ASSIGNMENT (  '', '', ( #102 ) ) ;
#205 = EDGE_CURVE ( 'NONE', #270, #244, #65, .T. ) ;
#206 = CARTESIAN_POINT ( 'NONE',  ( 2.296212748401287726E-17, 0.000000000000000000, 0.1875000000000000278 ) ) ;
#207 = AXIS2_PLACEMENT_3D ( 'NONE', #219, #264, #55 ) ;
#208 = CIRCLE ( 'NONE', #153, 0.1875000000000000833 ) ;
#209 = DIRECTION ( 'NONE',  ( -0.000000000000000000, -1.000000000000000000, -0.000000000000000000 ) ) ;
#210 = CYLINDRICAL_SURFACE ( 'NONE', #188, 0.1875000000000000555 ) ;
#211 =( LENGTH_UNIT ( ) NAMED_UNIT ( * ) SI_UNIT ( $, .METRE. ) );
#212 = ADVANCED_FACE ( 'NONE', ( #305 ), #42, .T. ) ;
#213 = DIRECTION ( 'NONE',  ( 1.000000000000000000, 2.449293598294706229E-17, 0.000000000000000000 ) ) ;
#214 = EDGE_LOOP ( 'NONE', ( #75, #241 ) ) ;
#215 =( GEOMETRIC_REPRESENTATION_CONTEXT ( 3 ) GLOBAL_UNCERTAINTY_ASSIGNED_CONTEXT ( ( #58 ) ) GLOBAL_UNIT_ASSIGNED_CONTEXT ( ( #235, #261, #164 ) ) REPRESENTATION_CONTEXT ( 'NONE', 'WORKASPACE' ) );
#216 =( LENGTH_UNIT ( ) NAMED_UNIT ( * ) SI_UNIT ( $, .METRE. ) );
#217 = DIRECTION ( 'NONE',  ( -2.449293598294706229E-17, 1.000000000000000000, 0.000000000000000000 ) ) ;
#218 = EDGE_CURVE ( 'NONE', #2, #288, #258, .T. ) ;
#219 = CARTESIAN_POINT ( 'NONE',  ( 0.000000000000000000, 0.000000000000000000, 0.000000000000000000 ) ) ;
#220 = FACE_OUTER_BOUND ( 'NONE', #174, .T. ) ;
#221 = CARTESIAN_POINT ( 'NONE',  ( -6.123233995736766036E-17, 4.000000000000000000, 0.000000000000000000 ) ) ;
#222 = ORIENTED_EDGE ( 'NONE', *, *, #113, .T. ) ;
#223 = ADVANCED_FACE ( 'NONE', ( #20 ), #210, .T. ) ;
#224 = ORIENTED_EDGE ( 'NONE', *, *, #301, .T. ) ;
#225 = PRESENTATION_LAYER_ASSIGNMENT (  '', '', ( #72 ) ) ;
#226 = PRESENTATION_STYLE_ASSIGNMENT (( #128 ) ) ;
#227 = UNCERTAINTY_MEASURE_WITH_UNIT (LENGTH_MEASURE( 1.000000000000000082E-05 ), #122, 'distance_accuracy_value', 'NONE');
#228 = PRESENTATION_STYLE_ASSIGNMENT (( #40 ) ) ;
#229 = COLOUR_RGB ( '',0.7921568627450980005, 0.8196078431372548767, 0.9333333333333333481 ) ;
#230 = LINE ( 'NONE', #285, #100 ) ;
#231 = EDGE_CURVE ( 'NONE', #288, #2, #295, .T. ) ;
#232 = CYLINDRICAL_SURFACE ( 'NONE', #284, 0.1875000000000000278 ) ;
#233 = COLOUR_RGB ( '',1.000000000000000000, 0.000000000000000000, 0.000000000000000000 ) ;
#234 = CARTESIAN_POINT ( 'NONE',  ( 0.000000000000000000, 0.000000000000000000, 0.000000000000000000 ) ) ;
#235 =( CONVERSION_BASED_UNIT ( 'INCH', #186 ) LENGTH_UNIT ( ) NAMED_UNIT ( #99 ) );
#236 = AXIS2_PLACEMENT_3D ( 'NONE', #168, #149, #191 ) ;
#237 =( NAMED_UNIT ( * ) SI_UNIT ( $, .STERADIAN. ) SOLID_ANGLE_UNIT ( ) );
#238 = PRODUCT_DEFINITION_SHAPE ( 'NONE', 'NONE',  #67 ) ;
#239 = CARTESIAN_POINT ( 'NONE',  ( 0.000000000000000000, 1.500000000000000222, -0.1875000000000000278 ) ) ;
#240 = FILL_AREA_STYLE_COLOUR ( '', #276 ) ;
#241 = ORIENTED_EDGE ( 'NONE', *, *, #218, .F. ) ;
#242 = MECHANICAL_DESIGN_GEOMETRIC_PRESENTATION_REPRESENTATION (  '', ( #102 ), #300 ) ;
#243 = FILL_AREA_STYLE_COLOUR ( '', #233 ) ;
#244 = VERTEX_POINT ( 'NONE', #267 ) ;
#245 = LENGTH_MEASURE_WITH_UNIT ( LENGTH_MEASURE( 0.02539999999999999897 ), #216 );
#246 = EDGE_LOOP ( 'NONE', ( #198, #28 ) ) ;
#247 = EDGE_CURVE ( 'NONE', #244, #270, #36, .T. ) ;
#248 = VERTEX_POINT ( 'NONE', #287 ) ;
#249 = CARTESIAN_POINT ( 'NONE',  ( 0.000000000000000000, 0.000000000000000000, 0.000000000000000000 ) ) ;
#250 = PRESENTATION_LAYER_ASSIGNMENT (  '', '', ( #167 ) ) ;
#251 =( NAMED_UNIT ( * ) SI_UNIT ( $, .STERADIAN. ) SOLID_ANGLE_UNIT ( ) );
#252 = DIRECTION ( 'NONE',  ( -2.449293598294706538E-17, 1.000000000000000000, -0.000000000000000000 ) ) ;
#253 =( NAMED_UNIT ( * ) SI_UNIT ( $, .STERADIAN. ) SOLID_ANGLE_UNIT ( ) );
#254 = PRESENTATION_STYLE_ASSIGNMENT (( #134 ) ) ;
#255 = DIMENSIONAL_EXPONENTS ( 1.000000000000000000, 0.000000000000000000, 0.000000000000000000, 0.000000000000000000, 0.000000000000000000, 0.000000000000000000, 0.000000000000000000 ) ;
#256 = DIRECTION ( 'NONE',  ( -0.000000000000000000, -1.000000000000000000, -0.000000000000000000 ) ) ;
#257 = CIRCLE ( 'NONE', #13, 0.1875000000000000278 ) ;
#258 = CIRCLE ( 'NONE', #39, 0.1875000000000000278 ) ;
#259 = FILL_AREA_STYLE ('',( #163 ) ) ;
#260 = EDGE_CURVE ( 'NONE', #169, #248, #88, .T. ) ;
#261 =( NAMED_UNIT ( * ) PLANE_ANGLE_UNIT ( ) SI_UNIT ( $, .RADIAN. ) );
#262 =( NAMED_UNIT ( * ) PLANE_ANGLE_UNIT ( ) SI_UNIT ( $, .RADIAN. ) );
#263 =( GEOMETRIC_REPRESENTATION_CONTEXT ( 3 ) GLOBAL_UNCERTAINTY_ASSIGNED_CONTEXT ( ( #227 ) ) GLOBAL_UNIT_ASSIGNED_CONTEXT ( ( #122, #1, #237 ) ) REPRESENTATION_CONTEXT ( 'NONE', 'WORKASPACE' ) );
#264 = DIRECTION ( 'NONE',  ( -0.000000000000000000, -1.000000000000000000, -0.000000000000000000 ) ) ;
#265 = EDGE_LOOP ( 'NONE', ( #268, #145, #273, #143 ) ) ;
#266 = PRODUCT_RELATED_PRODUCT_CATEGORY ( 'part', '', ( #160 ) ) ;
#267 = CARTESIAN_POINT ( 'NONE',  ( 2.296212748401287726E-17, 0.000000000000000000, 0.1875000000000000278 ) ) ;
#268 = ORIENTED_EDGE ( 'NONE', *, *, #51, .T. ) ;
#269 = DIRECTION ( 'NONE',  ( -0.000000000000000000, -1.000000000000000000, -0.000000000000000000 ) ) ;
#270 = VERTEX_POINT ( 'NONE', #289 ) ;
#271 = VERTEX_POINT ( 'NONE', #196 ) ;
#272 =( LENGTH_UNIT ( ) NAMED_UNIT ( * ) SI_UNIT ( $, .METRE. ) );
#273 = ORIENTED_EDGE ( 'NONE', *, *, #56, .F. ) ;
#274 = CARTESIAN_POINT ( 'NONE',  ( -6.123233995736766036E-17, 4.000000000000000000, 0.000000000000000000 ) ) ;
#275 = DIRECTION ( 'NONE',  ( 0.000000000000000000, 0.000000000000000000, -1.000000000000000000 ) ) ;
#276 = COLOUR_RGB ( '',0.7921568627450980005, 0.8196078431372548767, 0.9333333333333333481 ) ;
#277 = UNCERTAINTY_MEASURE_WITH_UNIT (LENGTH_MEASURE( 1.000000000000000082E-05 ), #307, 'distance_accuracy_value', 'NONE');
#278 = DIMENSIONAL_EXPONENTS ( 1.000000000000000000, 0.000000000000000000, 0.000000000000000000, 0.000000000000000000, 0.000000000000000000, 0.000000000000000000, 0.000000000000000000 ) ;
#279 = DIRECTION ( 'NONE',  ( -1.000000000000000000, 0.000000000000000000, 0.000000000000000000 ) ) ;
#280 = FACE_OUTER_BOUND ( 'NONE', #150, .T. ) ;
#281 = MANIFOLD_SOLID_BREP ( 'Revolve - Cutting Edge', #197 ) ;
#282 = AXIS2_PLACEMENT_3D ( 'NONE', #130, #298, #109 ) ;
#283 = DIMENSIONAL_EXPONENTS ( 1.000000000000000000, 0.000000000000000000, 0.000000000000000000, 0.000000000000000000, 0.000000000000000000, 0.000000000000000000, 0.000000000000000000 ) ;
#284 = AXIS2_PLACEMENT_3D ( 'NONE', #73, #116, #138 ) ;
#285 = CARTESIAN_POINT ( 'NONE',  ( 0.1874999999999999722, 4.000000000000000000, 2.296212748401288034E-17 ) ) ;
#286 = DIMENSIONAL_EXPONENTS ( 1.000000000000000000, 0.000000000000000000, 0.000000000000000000, 0.000000000000000000, 0.000000000000000000, 0.000000000000000000, 0.000000000000000000 ) ;
#287 = CARTESIAN_POINT ( 'NONE',  ( -0.1875000000000001388, 4.000000000000000000, 0.000000000000000000 ) ) ;
#288 = VERTEX_POINT ( 'NONE', #239 ) ;
#289 = CARTESIAN_POINT ( 'NONE',  ( 0.000000000000000000, 0.000000000000000000, -0.1875000000000000278 ) ) ;
#290 = EDGE_LOOP ( 'NONE', ( #103, #80, #222, #54 ) ) ;
#291 = PLANE ( 'NONE',  #304 ) ;
#292 = CARTESIAN_POINT ( 'NONE',  ( 7.582401355855259480E-33, 1.499999999999999778, 0.000000000000000000 ) ) ;
#293 = SURFACE_STYLE_FILL_AREA ( #194 ) ;
#294 = SURFACE_STYLE_FILL_AREA ( #195 ) ;
#295 = CIRCLE ( 'NONE', #190, 0.1875000000000000278 ) ;
#296 = ORIENTED_EDGE ( 'NONE', *, *, #51, .F. ) ;
#297 = FILL_AREA_STYLE ('',( #201 ) ) ;
#298 = DIRECTION ( 'NONE',  ( -0.000000000000000000, -1.000000000000000000, -0.000000000000000000 ) ) ;
#299 = COLOUR_RGB ( '',1.000000000000000000, 0.000000000000000000, 0.000000000000000000 ) ;
#300 =( GEOMETRIC_REPRESENTATION_CONTEXT ( 3 ) GLOBAL_UNCERTAINTY_ASSIGNED_CONTEXT ( ( #277 ) ) GLOBAL_UNIT_ASSIGNED_CONTEXT ( ( #307, #262, #44 ) ) REPRESENTATION_CONTEXT ( 'NONE', 'WORKASPACE' ) );
#301 = EDGE_CURVE ( 'NONE', #288, #270, #173, .T. ) ;
#302 = SURFACE_SIDE_STYLE ('',( #294 ) ) ;
#303 = CARTESIAN_POINT ( 'NONE',  ( -6.123233995736766036E-17, 4.000000000000000000, 0.000000000000000000 ) ) ;
#304 = AXIS2_PLACEMENT_3D ( 'NONE', #50, #106, #213 ) ;
#305 = FACE_OUTER_BOUND ( 'NONE', #290, .T. ) ;
#306 = ADVANCED_FACE ( 'NONE', ( #118 ), #291, .F. ) ;
#307 =( CONVERSION_BASED_UNIT ( 'INCH', #189 ) LENGTH_UNIT ( ) NAMED_UNIT ( #286 ) );
#308 =( CONVERSION_BASED_UNIT ( 'INCH', #83 ) LENGTH_UNIT ( ) NAMED_UNIT ( #255 ) );
#309 = ADVANCED_FACE ( 'NONE', ( #146 ), #101, .T. ) ;
ENDSEC;
END-ISO-10303-21;
