ISO-10303-21;
HEADER;
FILE_DESCRIPTION (( 'STEP AP214' ),
    '1' );
FILE_NAME ('81411.STEP',
    '2023-06-23T01:25:21',
    ( '' ),
    ( '' ),
    'SwSTEP 2.0',
    'SolidWorks 2023',
    '' );
FILE_SCHEMA (( 'AUTOMOTIVE_DESIGN' ));
ENDSEC;

DATA;
#1 = SURFACE_STYLE_USAGE ( .BOTH. , #248 ) ;
#2 = COLOUR_RGB ( '',0.7921568627450980005, 0.8196078431372548767, 0.9333333333333333481 ) ;
#3 = LINE ( 'NONE', #189, #210 ) ;
#4 = DIRECTION ( 'NONE',  ( 0.000000000000000000, 0.000000000000000000, -1.000000000000000000 ) ) ;
#5 = CARTESIAN_POINT ( 'NONE',  ( 6.123233995736772199E-17, 2.500000000000000000, 0.000000000000000000 ) ) ;
#6 = PRESENTATION_LAYER_ASSIGNMENT (  '', '', ( #30 ) ) ;
#7 = LENGTH_MEASURE_WITH_UNIT ( LENGTH_MEASURE( 0.02539999999999999897 ), #27 );
#8 = DIRECTION ( 'NONE',  ( -0.000000000000000000, -1.000000000000000000, -0.000000000000000000 ) ) ;
#9 = PRESENTATION_STYLE_ASSIGNMENT (( #123 ) ) ;
#10 = EDGE_CURVE ( 'NONE', #24, #90, #34, .T. ) ;
#11 = ADVANCED_FACE ( 'NONE', ( #270 ), #241, .T. ) ;
#12 = MECHANICAL_DESIGN_GEOMETRIC_PRESENTATION_REPRESENTATION (  '', ( #180 ), #275 ) ;
#13 = PLANE ( 'NONE',  #203 ) ;
#14 = FILL_AREA_STYLE ('',( #135 ) ) ;
#15 = PLANE ( 'NONE',  #300 ) ;
#16 = ORIENTED_EDGE ( 'NONE', *, *, #212, .T. ) ;
#17 = EDGE_CURVE ( 'NONE', #183, #40, #3, .T. ) ;
#18 = FILL_AREA_STYLE ('',( #307 ) ) ;
#19 = ORIENTED_EDGE ( 'NONE', *, *, #52, .F. ) ;
#20 = LENGTH_MEASURE_WITH_UNIT ( LENGTH_MEASURE( 0.02539999999999999897 ), #208 );
#21 = COLOUR_RGB ( '',1.000000000000000000, 0.000000000000000000, 0.000000000000000000 ) ;
#22 = PRESENTATION_LAYER_ASSIGNMENT (  '', '', ( #277 ) ) ;
#23 = SURFACE_STYLE_USAGE ( .BOTH. , #301 ) ;
#24 = VERTEX_POINT ( 'NONE', #192 ) ;
#25 = ORIENTED_EDGE ( 'NONE', *, *, #171, .F. ) ;
#26 =( GEOMETRIC_REPRESENTATION_CONTEXT ( 3 ) GLOBAL_UNCERTAINTY_ASSIGNED_CONTEXT ( ( #65 ) ) GLOBAL_UNIT_ASSIGNED_CONTEXT ( ( #67, #232, #83 ) ) REPRESENTATION_CONTEXT ( 'NONE', 'WORKASPACE' ) );
#27 =( LENGTH_UNIT ( ) NAMED_UNIT ( * ) SI_UNIT ( $, .METRE. ) );
#28 = DIRECTION ( 'NONE',  ( -1.000000000000000000, 0.000000000000000000, 0.000000000000000000 ) ) ;
#29 = CARTESIAN_POINT ( 'NONE',  ( 0.000000000000000000, 0.000000000000000000, 0.000000000000000000 ) ) ;
#30 = STYLED_ITEM ( 'NONE', ( #229 ), #175 ) ;
#31 = FILL_AREA_STYLE_COLOUR ( '', #21 ) ;
#32 = SURFACE_STYLE_FILL_AREA ( #56 ) ;
#33 = CARTESIAN_POINT ( 'NONE',  ( 6.123233995736772199E-17, 2.500000000000000000, 0.000000000000000000 ) ) ;
#34 = CIRCLE ( 'NONE', #176, 0.1875000000000000278 ) ;
#35 = VECTOR ( 'NONE', #254, 39.37007874015748143 ) ;
#36 = DIRECTION ( 'NONE',  ( -1.000000000000000000, 0.000000000000000000, 0.000000000000000000 ) ) ;
#37 = DIRECTION ( 'NONE',  ( -1.000000000000000000, 0.000000000000000000, 0.000000000000000000 ) ) ;
#38 =( GEOMETRIC_REPRESENTATION_CONTEXT ( 3 ) GLOBAL_UNCERTAINTY_ASSIGNED_CONTEXT ( ( #279 ) ) GLOBAL_UNIT_ASSIGNED_CONTEXT ( ( #287, #220, #99 ) ) REPRESENTATION_CONTEXT ( 'NONE', 'WORKASPACE' ) );
#39 = ORIENTED_EDGE ( 'NONE', *, *, #60, .F. ) ;
#40 = VERTEX_POINT ( 'NONE', #288 ) ;
#41 = DIRECTION ( 'NONE',  ( 0.000000000000000000, 0.000000000000000000, -1.000000000000000000 ) ) ;
#42 = ORIENTED_EDGE ( 'NONE', *, *, #17, .F. ) ;
#43 = CARTESIAN_POINT ( 'NONE',  ( 0.000000000000000000, 0.7500000000000001110, 0.000000000000000000 ) ) ;
#44 = CIRCLE ( 'NONE', #111, 0.1875000000000000278 ) ;
#45 = DIRECTION ( 'NONE',  ( -3.498990854706726443E-17, -1.000000000000000000, 0.000000000000000000 ) ) ;
#46 = COLOUR_RGB ( '',1.000000000000000000, 0.000000000000000000, 0.000000000000000000 ) ;
#47 = MANIFOLD_SOLID_BREP ( 'Revolve - Cutting Edge', #76 ) ;
#48 = CARTESIAN_POINT ( 'NONE',  ( 0.1875000000000000555, 2.500000000000000000, 2.296212748401286801E-17 ) ) ;
#49 = EDGE_CURVE ( 'NONE', #136, #262, #268, .T. ) ;
#50 = CARTESIAN_POINT ( 'NONE',  ( 0.000000000000000000, 0.000000000000000000, 0.000000000000000000 ) ) ;
#51 = FILL_AREA_STYLE_COLOUR ( '', #140 ) ;
#52 = EDGE_CURVE ( 'NONE', #262, #40, #124, .T. ) ;
#53 =( LENGTH_UNIT ( ) NAMED_UNIT ( * ) SI_UNIT ( $, .METRE. ) );
#54 = AXIS2_PLACEMENT_3D ( 'NONE', #164, #45, #239 ) ;
#55 = DIRECTION ( 'NONE',  ( -0.000000000000000000, -1.000000000000000000, -0.000000000000000000 ) ) ;
#56 = FILL_AREA_STYLE ('',( #31 ) ) ;
#57 = PRESENTATION_LAYER_ASSIGNMENT (  '', '', ( #263 ) ) ;
#58 = PLANE ( 'NONE',  #255 ) ;
#59 =( CONVERSION_BASED_UNIT ( 'INCH', #296 ) LENGTH_UNIT ( ) NAMED_UNIT ( #144 ) );
#60 = EDGE_CURVE ( 'NONE', #183, #136, #250, .T. ) ;
#61 = DIRECTION ( 'NONE',  ( 0.000000000000000000, -0.000000000000000000, 1.000000000000000000 ) ) ;
#62 = PRODUCT_DEFINITION ( 'UNKNOWN', '', #156, #230 ) ;
#63 = SURFACE_STYLE_USAGE ( .BOTH. , #280 ) ;
#64 = ORIENTED_EDGE ( 'NONE', *, *, #10, .T. ) ;
#65 = UNCERTAINTY_MEASURE_WITH_UNIT (LENGTH_MEASURE( 1.000000000000000082E-05 ), #67, 'distance_accuracy_value', 'NONE');
#66 = EDGE_LOOP ( 'NONE', ( #302, #16, #84, #19 ) ) ;
#67 =( CONVERSION_BASED_UNIT ( 'INCH', #20 ) LENGTH_UNIT ( ) NAMED_UNIT ( #169 ) );
#68 = PRESENTATION_LAYER_ASSIGNMENT (  '', '', ( #151 ) ) ;
#69 = VECTOR ( 'NONE', #89, 39.37007874015748143 ) ;
#70 = FILL_AREA_STYLE ('',( #121 ) ) ;
#71 = LENGTH_MEASURE_WITH_UNIT ( LENGTH_MEASURE( 0.02539999999999999897 ), #216 );
#72 = CIRCLE ( 'NONE', #125, 0.1875000000000000278 ) ;
#73 = DIRECTION ( 'NONE',  ( 1.000000000000000000, 0.000000000000000000, 0.000000000000000000 ) ) ;
#74 = SURFACE_STYLE_USAGE ( .BOTH. , #163 ) ;
#75 = PRODUCT_RELATED_PRODUCT_CATEGORY ( 'part', '', ( #266 ) ) ;
#76 = CLOSED_SHELL ( 'NONE', ( #11, #175, #150, #197 ) ) ;
#77 = AXIS2_PLACEMENT_3D ( 'NONE', #50, #138, #73 ) ;
#78 = CARTESIAN_POINT ( 'NONE',  ( 1.147775343873872857E-34, 0.7500000000000001110, 0.000000000000000000 ) ) ;
#79 = ADVANCED_FACE ( 'NONE', ( #174 ), #58, .F. ) ;
#80 = DIRECTION ( 'NONE',  ( -1.000000000000000000, 0.000000000000000000, 0.000000000000000000 ) ) ;
#81 = CLOSED_SHELL ( 'NONE', ( #207, #79, #137, #305 ) ) ;
#82 = AXIS2_PLACEMENT_3D ( 'NONE', #213, #231, #261 ) ;
#83 =( NAMED_UNIT ( * ) SI_UNIT ( $, .STERADIAN. ) SOLID_ANGLE_UNIT ( ) );
#84 = ORIENTED_EDGE ( 'NONE', *, *, #17, .T. ) ;
#85 = CARTESIAN_POINT ( 'NONE',  ( 0.000000000000000000, 0.000000000000000000, 0.000000000000000000 ) ) ;
#86 = ORIENTED_EDGE ( 'NONE', *, *, #191, .F. ) ;
#87 = CARTESIAN_POINT ( 'NONE',  ( 0.000000000000000000, 0.000000000000000000, 0.000000000000000000 ) ) ;
#88 = ORIENTED_EDGE ( 'NONE', *, *, #264, .F. ) ;
#89 = DIRECTION ( 'NONE',  ( -0.000000000000000000, -1.000000000000000000, -0.000000000000000000 ) ) ;
#90 = VERTEX_POINT ( 'NONE', #249 ) ;
#91 = PRODUCT_DEFINITION_SHAPE ( 'NONE', 'NONE',  #62 ) ;
#92 = SURFACE_STYLE_FILL_AREA ( #18 ) ;
#93 = VERTEX_POINT ( 'NONE', #201 ) ;
#94 = LENGTH_MEASURE_WITH_UNIT ( LENGTH_MEASURE( 0.02539999999999999897 ), #244 );
#95 = COLOUR_RGB ( '',1.000000000000000000, 0.000000000000000000, 0.000000000000000000 ) ;
#96 =( CONVERSION_BASED_UNIT ( 'INCH', #292 ) LENGTH_UNIT ( ) NAMED_UNIT ( #223 ) );
#97 =( NAMED_UNIT ( * ) SI_UNIT ( $, .STERADIAN. ) SOLID_ANGLE_UNIT ( ) );
#98 = PRESENTATION_STYLE_ASSIGNMENT (( #74 ) ) ;
#99 =( NAMED_UNIT ( * ) SI_UNIT ( $, .STERADIAN. ) SOLID_ANGLE_UNIT ( ) );
#100 = CARTESIAN_POINT ( 'NONE',  ( 0.1875000000000000278, 0.7499999999999998890, 2.296212748401287109E-17 ) ) ;
#101 = FILL_AREA_STYLE_COLOUR ( '', #46 ) ;
#102 = DIRECTION ( 'NONE',  ( 3.498990854706726443E-17, 1.000000000000000000, -0.000000000000000000 ) ) ;
#103 = SURFACE_STYLE_FILL_AREA ( #198 ) ;
#104 = UNCERTAINTY_MEASURE_WITH_UNIT (LENGTH_MEASURE( 1.000000000000000082E-05 ), #59, 'distance_accuracy_value', 'NONE');
#105 =( GEOMETRIC_REPRESENTATION_CONTEXT ( 3 ) GLOBAL_UNCERTAINTY_ASSIGNED_CONTEXT ( ( #257 ) ) GLOBAL_UNIT_ASSIGNED_CONTEXT ( ( #96, #168, #141 ) ) REPRESENTATION_CONTEXT ( 'NONE', 'WORKASPACE' ) );
#106 =( GEOMETRIC_REPRESENTATION_CONTEXT ( 3 ) GLOBAL_UNCERTAINTY_ASSIGNED_CONTEXT ( ( #122 ) ) GLOBAL_UNIT_ASSIGNED_CONTEXT ( ( #196, #167, #97 ) ) REPRESENTATION_CONTEXT ( 'NONE', 'WORKASPACE' ) );
#107 = CYLINDRICAL_SURFACE ( 'NONE', #267, 0.1874999999999999722 ) ;
#108 = ORIENTED_EDGE ( 'NONE', *, *, #212, .F. ) ;
#109 = PRESENTATION_STYLE_ASSIGNMENT (( #63 ) ) ;
#110 = ORIENTED_EDGE ( 'NONE', *, *, #185, .F. ) ;
#111 = AXIS2_PLACEMENT_3D ( 'NONE', #85, #256, #283 ) ;
#112 = CARTESIAN_POINT ( 'NONE',  ( 6.123233995736772199E-17, 2.500000000000000000, 0.000000000000000000 ) ) ;
#113 = EDGE_LOOP ( 'NONE', ( #110, #304, #235, #282 ) ) ;
#114 = PRESENTATION_STYLE_ASSIGNMENT (( #23 ) ) ;
#115 = EDGE_LOOP ( 'NONE', ( #260, #88 ) ) ;
#116 = SHAPE_DEFINITION_REPRESENTATION ( #91, #188 ) ;
#117 = STYLED_ITEM ( 'NONE', ( #9 ), #150 ) ;
#118 = AXIS2_PLACEMENT_3D ( 'NONE', #119, #227, #226 ) ;
#119 = CARTESIAN_POINT ( 'NONE',  ( 0.000000000000000000, 0.7499999999999998890, 0.000000000000000000 ) ) ;
#120 = APPLICATION_CONTEXT ( 'automotive_design' ) ;
#121 = FILL_AREA_STYLE_COLOUR ( '', #2 ) ;
#122 = UNCERTAINTY_MEASURE_WITH_UNIT (LENGTH_MEASURE( 1.000000000000000082E-05 ), #196, 'distance_accuracy_value', 'NONE');
#123 = SURFACE_STYLE_USAGE ( .BOTH. , #149 ) ;
#124 = CIRCLE ( 'NONE', #155, 0.1874999999999999445 ) ;
#125 = AXIS2_PLACEMENT_3D ( 'NONE', #160, #253, #37 ) ;
#126 = UNCERTAINTY_MEASURE_WITH_UNIT (LENGTH_MEASURE( 1.000000000000000082E-05 ), #297, 'distance_accuracy_value', 'NONE');
#127 =( LENGTH_UNIT ( ) NAMED_UNIT ( * ) SI_UNIT ( $, .METRE. ) );
#128 = AXIS2_PLACEMENT_3D ( 'NONE', #29, #265, #170 ) ;
#129 = EDGE_LOOP ( 'NONE', ( #39, #108 ) ) ;
#130 = CARTESIAN_POINT ( 'NONE',  ( -0.1875000000000000278, 0.7499999999999998890, 0.000000000000000000 ) ) ;
#131 = ORIENTED_EDGE ( 'NONE', *, *, #49, .T. ) ;
#132 = FACE_OUTER_BOUND ( 'NONE', #284, .T. ) ;
#133 = APPLICATION_CONTEXT ( 'automotive_design' ) ;
#134 = CIRCLE ( 'NONE', #181, 0.1874999999999999445 ) ;
#135 = FILL_AREA_STYLE_COLOUR ( '', #291 ) ;
#136 = VERTEX_POINT ( 'NONE', #100 ) ;
#137 = ADVANCED_FACE ( 'NONE', ( #276 ), #147, .T. ) ;
#138 = DIRECTION ( 'NONE',  ( 0.000000000000000000, 0.000000000000000000, 1.000000000000000000 ) ) ;
#139 =( CONVERSION_BASED_UNIT ( 'INCH', #94 ) LENGTH_UNIT ( ) NAMED_UNIT ( #173 ) );
#140 = COLOUR_RGB ( '',1.000000000000000000, 0.000000000000000000, 0.000000000000000000 ) ;
#141 =( NAMED_UNIT ( * ) SI_UNIT ( $, .STERADIAN. ) SOLID_ANGLE_UNIT ( ) );
#142 = DIRECTION ( 'NONE',  ( 3.498990854706726443E-17, 1.000000000000000000, -0.000000000000000000 ) ) ;
#143 = APPLICATION_PROTOCOL_DEFINITION ( 'draft international standard', 'automotive_design', 1998, #133 ) ;
#144 = DIMENSIONAL_EXPONENTS ( 1.000000000000000000, 0.000000000000000000, 0.000000000000000000, 0.000000000000000000, 0.000000000000000000, 0.000000000000000000, 0.000000000000000000 ) ;
#145 = PRESENTATION_STYLE_ASSIGNMENT (( #1 ) ) ;
#146 = VECTOR ( 'NONE', #142, 39.37007874015748143 ) ;
#147 = CYLINDRICAL_SURFACE ( 'NONE', #290, 0.1874999999999999722 ) ;
#148 = DIRECTION ( 'NONE',  ( 0.000000000000000000, 0.000000000000000000, -1.000000000000000000 ) ) ;
#149 = SURFACE_SIDE_STYLE ('',( #32 ) ) ;
#150 = ADVANCED_FACE ( 'NONE', ( #199 ), #251, .T. ) ;
#151 = STYLED_ITEM ( 'NONE', ( #98 ), #47 ) ;
#152 = AXIS2_PLACEMENT_3D ( 'NONE', #43, #161, #4 ) ;
#153 = DIRECTION ( 'NONE',  ( -1.000000000000000000, 3.498990854706726443E-17, 0.000000000000000000 ) ) ;
#154 = ORIENTED_EDGE ( 'NONE', *, *, #52, .T. ) ;
#155 = AXIS2_PLACEMENT_3D ( 'NONE', #5, #245, #28 ) ;
#156 = PRODUCT_DEFINITION_FORMATION_WITH_SPECIFIED_SOURCE ( 'ANY', '', #266, .NOT_KNOWN. ) ;
#157 = MECHANICAL_DESIGN_GEOMETRIC_PRESENTATION_REPRESENTATION (  '', ( #117 ), #222 ) ;
#158 = DIRECTION ( 'NONE',  ( 0.000000000000000000, -1.000000000000000000, -0.000000000000000000 ) ) ;
#159 = EDGE_LOOP ( 'NONE', ( #64, #205, #209, #86 ) ) ;
#160 = CARTESIAN_POINT ( 'NONE',  ( 0.000000000000000000, 0.7499999999999998890, 0.000000000000000000 ) ) ;
#161 = DIRECTION ( 'NONE',  ( -0.000000000000000000, -1.000000000000000000, -0.000000000000000000 ) ) ;
#162 = APPLICATION_PROTOCOL_DEFINITION ( 'draft international standard', 'automotive_design', 1998, #120 ) ;
#163 = SURFACE_SIDE_STYLE ('',( #224 ) ) ;
#164 = CARTESIAN_POINT ( 'NONE',  ( 0.1875000000000000278, 2.500000000000000000, 0.000000000000000000 ) ) ;
#165 =( NAMED_UNIT ( * ) PLANE_ANGLE_UNIT ( ) SI_UNIT ( $, .RADIAN. ) );
#166 = FACE_OUTER_BOUND ( 'NONE', #306, .T. ) ;
#167 =( NAMED_UNIT ( * ) PLANE_ANGLE_UNIT ( ) SI_UNIT ( $, .RADIAN. ) );
#168 =( NAMED_UNIT ( * ) PLANE_ANGLE_UNIT ( ) SI_UNIT ( $, .RADIAN. ) );
#169 = DIMENSIONAL_EXPONENTS ( 1.000000000000000000, 0.000000000000000000, 0.000000000000000000, 0.000000000000000000, 0.000000000000000000, 0.000000000000000000, 0.000000000000000000 ) ;
#170 = DIRECTION ( 'NONE',  ( 0.000000000000000000, 0.000000000000000000, -1.000000000000000000 ) ) ;
#171 = EDGE_CURVE ( 'NONE', #40, #262, #134, .T. ) ;
#172 = DIRECTION ( 'NONE',  ( 3.498990854706726443E-17, 1.000000000000000000, -0.000000000000000000 ) ) ;
#173 = DIMENSIONAL_EXPONENTS ( 1.000000000000000000, 0.000000000000000000, 0.000000000000000000, 0.000000000000000000, 0.000000000000000000, 0.000000000000000000, 0.000000000000000000 ) ;
#174 = FACE_OUTER_BOUND ( 'NONE', #129, .T. ) ;
#175 = ADVANCED_FACE ( 'NONE', ( #271 ), #13, .T. ) ;
#176 = AXIS2_PLACEMENT_3D ( 'NONE', #221, #8, #217 ) ;
#177 =( NAMED_UNIT ( * ) SI_UNIT ( $, .STERADIAN. ) SOLID_ANGLE_UNIT ( ) );
#178 = LINE ( 'NONE', #234, #35 ) ;
#179 = UNCERTAINTY_MEASURE_WITH_UNIT (LENGTH_MEASURE( 1.000000000000000082E-05 ), #139, 'distance_accuracy_value', 'NONE');
#180 = STYLED_ITEM ( 'NONE', ( #145 ), #11 ) ;
#181 = AXIS2_PLACEMENT_3D ( 'NONE', #33, #274, #36 ) ;
#182 = CARTESIAN_POINT ( 'NONE',  ( 2.296212748401287726E-17, 0.000000000000000000, 0.1875000000000000278 ) ) ;
#183 = VERTEX_POINT ( 'NONE', #130 ) ;
#184 = FACE_OUTER_BOUND ( 'NONE', #238, .T. ) ;
#185 = EDGE_CURVE ( 'NONE', #90, #93, #214, .T. ) ;
#186 = ORIENTED_EDGE ( 'NONE', *, *, #60, .T. ) ;
#187 = CIRCLE ( 'NONE', #152, 0.1875000000000000278 ) ;
#188 = ADVANCED_BREP_SHAPE_REPRESENTATION ( '81411', ( #47, #259, #77 ), #38 ) ;
#189 = CARTESIAN_POINT ( 'NONE',  ( -0.1874999999999999167, 2.500000000000000000, 0.000000000000000000 ) ) ;
#190 = SURFACE_STYLE_FILL_AREA ( #218 ) ;
#191 = EDGE_CURVE ( 'NONE', #24, #233, #178, .T. ) ;
#192 = CARTESIAN_POINT ( 'NONE',  ( 0.000000000000000000, 0.7500000000000001110, -0.1875000000000000278 ) ) ;
#193 = PRESENTATION_LAYER_ASSIGNMENT (  '', '', ( #117 ) ) ;
#194 = DIRECTION ( 'NONE',  ( 3.498990854706726443E-17, 1.000000000000000000, -0.000000000000000000 ) ) ;
#195 = DIMENSIONAL_EXPONENTS ( 1.000000000000000000, 0.000000000000000000, 0.000000000000000000, 0.000000000000000000, 0.000000000000000000, 0.000000000000000000, 0.000000000000000000 ) ;
#196 =( CONVERSION_BASED_UNIT ( 'INCH', #71 ) LENGTH_UNIT ( ) NAMED_UNIT ( #195 ) );
#197 = ADVANCED_FACE ( 'NONE', ( #184 ), #15, .T. ) ;
#198 = FILL_AREA_STYLE ('',( #101 ) ) ;
#199 = FACE_OUTER_BOUND ( 'NONE', #113, .T. ) ;
#200 = DIMENSIONAL_EXPONENTS ( 1.000000000000000000, 0.000000000000000000, 0.000000000000000000, 0.000000000000000000, 0.000000000000000000, 0.000000000000000000, 0.000000000000000000 ) ;
#201 = CARTESIAN_POINT ( 'NONE',  ( 2.296212748401287726E-17, 0.000000000000000000, 0.1875000000000000278 ) ) ;
#202 =( LENGTH_UNIT ( ) NAMED_UNIT ( * ) SI_UNIT ( $, .METRE. ) );
#203 = AXIS2_PLACEMENT_3D ( 'NONE', #285, #258, #61 ) ;
#204 = CARTESIAN_POINT ( 'NONE',  ( 0.000000000000000000, 0.000000000000000000, -0.1875000000000000278 ) ) ;
#205 = ORIENTED_EDGE ( 'NONE', *, *, #185, .T. ) ;
#206 = ORIENTED_EDGE ( 'NONE', *, *, #171, .T. ) ;
#207 = ADVANCED_FACE ( 'NONE', ( #132 ), #107, .T. ) ;
#208 =( LENGTH_UNIT ( ) NAMED_UNIT ( * ) SI_UNIT ( $, .METRE. ) );
#209 = ORIENTED_EDGE ( 'NONE', *, *, #219, .F. ) ;
#210 = VECTOR ( 'NONE', #194, 39.37007874015748143 ) ;
#211 =( GEOMETRIC_REPRESENTATION_CONTEXT ( 3 ) GLOBAL_UNCERTAINTY_ASSIGNED_CONTEXT ( ( #104 ) ) GLOBAL_UNIT_ASSIGNED_CONTEXT ( ( #59, #225, #281 ) ) REPRESENTATION_CONTEXT ( 'NONE', 'WORKASPACE' ) );
#212 = EDGE_CURVE ( 'NONE', #136, #183, #72, .T. ) ;
#213 = CARTESIAN_POINT ( 'NONE',  ( 0.000000000000000000, 0.000000000000000000, 0.000000000000000000 ) ) ;
#214 = LINE ( 'NONE', #182, #69 ) ;
#215 = ORIENTED_EDGE ( 'NONE', *, *, #240, .T. ) ;
#216 =( LENGTH_UNIT ( ) NAMED_UNIT ( * ) SI_UNIT ( $, .METRE. ) );
#217 = DIRECTION ( 'NONE',  ( 0.000000000000000000, 0.000000000000000000, -1.000000000000000000 ) ) ;
#218 = FILL_AREA_STYLE ('',( #51 ) ) ;
#219 = EDGE_CURVE ( 'NONE', #233, #93, #44, .T. ) ;
#220 =( NAMED_UNIT ( * ) PLANE_ANGLE_UNIT ( ) SI_UNIT ( $, .RADIAN. ) );
#221 = CARTESIAN_POINT ( 'NONE',  ( 0.000000000000000000, 0.7500000000000001110, 0.000000000000000000 ) ) ;
#222 =( GEOMETRIC_REPRESENTATION_CONTEXT ( 3 ) GLOBAL_UNCERTAINTY_ASSIGNED_CONTEXT ( ( #126 ) ) GLOBAL_UNIT_ASSIGNED_CONTEXT ( ( #297, #299, #177 ) ) REPRESENTATION_CONTEXT ( 'NONE', 'WORKASPACE' ) );
#223 = DIMENSIONAL_EXPONENTS ( 1.000000000000000000, 0.000000000000000000, 0.000000000000000000, 0.000000000000000000, 0.000000000000000000, 0.000000000000000000, 0.000000000000000000 ) ;
#224 = SURFACE_STYLE_FILL_AREA ( #70 ) ;
#225 =( NAMED_UNIT ( * ) PLANE_ANGLE_UNIT ( ) SI_UNIT ( $, .RADIAN. ) );
#226 = DIRECTION ( 'NONE',  ( -1.000000000000000000, 0.000000000000000000, 0.000000000000000000 ) ) ;
#227 = DIRECTION ( 'NONE',  ( 3.498990854706726443E-17, 1.000000000000000000, -0.000000000000000000 ) ) ;
#228 = SURFACE_STYLE_USAGE ( .BOTH. , #298 ) ;
#229 = PRESENTATION_STYLE_ASSIGNMENT (( #228 ) ) ;
#230 = PRODUCT_DEFINITION_CONTEXT ( 'detailed design', #133, 'design' ) ;
#231 = DIRECTION ( 'NONE',  ( -0.000000000000000000, -1.000000000000000000, -0.000000000000000000 ) ) ;
#232 =( NAMED_UNIT ( * ) PLANE_ANGLE_UNIT ( ) SI_UNIT ( $, .RADIAN. ) );
#233 = VERTEX_POINT ( 'NONE', #204 ) ;
#234 = CARTESIAN_POINT ( 'NONE',  ( 0.000000000000000000, 0.000000000000000000, -0.1875000000000000278 ) ) ;
#235 = ORIENTED_EDGE ( 'NONE', *, *, #191, .T. ) ;
#236 = AXIS2_PLACEMENT_3D ( 'NONE', #293, #55, #148 ) ;
#237 = SURFACE_STYLE_FILL_AREA ( #14 ) ;
#238 = EDGE_LOOP ( 'NONE', ( #308, #215 ) ) ;
#239 = DIRECTION ( 'NONE',  ( 1.000000000000000000, -3.498990854706726443E-17, 0.000000000000000000 ) ) ;
#240 = EDGE_CURVE ( 'NONE', #93, #233, #247, .T. ) ;
#241 = CYLINDRICAL_SURFACE ( 'NONE', #128, 0.1875000000000000278 ) ;
#242 = PRESENTATION_LAYER_ASSIGNMENT (  '', '', ( #180 ) ) ;
#243 = MECHANICAL_DESIGN_GEOMETRIC_PRESENTATION_REPRESENTATION (  '', ( #30 ), #211 ) ;
#244 =( LENGTH_UNIT ( ) NAMED_UNIT ( * ) SI_UNIT ( $, .METRE. ) );
#245 = DIRECTION ( 'NONE',  ( 3.498990854706726443E-17, 1.000000000000000000, -0.000000000000000000 ) ) ;
#246 =( NAMED_UNIT ( * ) SI_UNIT ( $, .STERADIAN. ) SOLID_ANGLE_UNIT ( ) );
#247 = CIRCLE ( 'NONE', #82, 0.1875000000000000278 ) ;
#248 = SURFACE_SIDE_STYLE ('',( #190 ) ) ;
#249 = CARTESIAN_POINT ( 'NONE',  ( 2.296212748401287726E-17, 0.7500000000000001110, 0.1875000000000000278 ) ) ;
#250 = CIRCLE ( 'NONE', #118, 0.1875000000000000278 ) ;
#251 = CYLINDRICAL_SURFACE ( 'NONE', #236, 0.1875000000000000278 ) ;
#252 = CARTESIAN_POINT ( 'NONE',  ( 6.123233995736772199E-17, 2.500000000000000000, 0.000000000000000000 ) ) ;
#253 = DIRECTION ( 'NONE',  ( 3.498990854706726443E-17, 1.000000000000000000, -0.000000000000000000 ) ) ;
#254 = DIRECTION ( 'NONE',  ( -0.000000000000000000, -1.000000000000000000, -0.000000000000000000 ) ) ;
#255 = AXIS2_PLACEMENT_3D ( 'NONE', #78, #102, #153 ) ;
#256 = DIRECTION ( 'NONE',  ( -0.000000000000000000, -1.000000000000000000, -0.000000000000000000 ) ) ;
#257 = UNCERTAINTY_MEASURE_WITH_UNIT (LENGTH_MEASURE( 1.000000000000000082E-05 ), #96, 'distance_accuracy_value', 'NONE');
#258 = DIRECTION ( 'NONE',  ( 0.000000000000000000, 1.000000000000000000, 0.000000000000000000 ) ) ;
#259 = MANIFOLD_SOLID_BREP ( 'Revolve - Tool Body (Straight Shanked)', #81 ) ;
#260 = ORIENTED_EDGE ( 'NONE', *, *, #10, .F. ) ;
#261 = DIRECTION ( 'NONE',  ( 0.000000000000000000, 0.000000000000000000, -1.000000000000000000 ) ) ;
#262 = VERTEX_POINT ( 'NONE', #289 ) ;
#263 = STYLED_ITEM ( 'NONE', ( #114 ), #259 ) ;
#264 = EDGE_CURVE ( 'NONE', #90, #24, #187, .T. ) ;
#265 = DIRECTION ( 'NONE',  ( -0.000000000000000000, -1.000000000000000000, -0.000000000000000000 ) ) ;
#266 = PRODUCT ( '81411', '81411', '', ( #269 ) ) ;
#267 = AXIS2_PLACEMENT_3D ( 'NONE', #112, #303, #278 ) ;
#268 = LINE ( 'NONE', #48, #146 ) ;
#269 = PRODUCT_CONTEXT ( 'NONE', #120, 'mechanical' ) ;
#270 = FACE_OUTER_BOUND ( 'NONE', #159, .T. ) ;
#271 = FACE_OUTER_BOUND ( 'NONE', #115, .T. ) ;
#272 = LENGTH_MEASURE_WITH_UNIT ( LENGTH_MEASURE( 0.02539999999999999897 ), #127 );
#273 = DIMENSIONAL_EXPONENTS ( 1.000000000000000000, 0.000000000000000000, 0.000000000000000000, 0.000000000000000000, 0.000000000000000000, 0.000000000000000000, 0.000000000000000000 ) ;
#274 = DIRECTION ( 'NONE',  ( 3.498990854706726443E-17, 1.000000000000000000, -0.000000000000000000 ) ) ;
#275 =( GEOMETRIC_REPRESENTATION_CONTEXT ( 3 ) GLOBAL_UNCERTAINTY_ASSIGNED_CONTEXT ( ( #179 ) ) GLOBAL_UNIT_ASSIGNED_CONTEXT ( ( #139, #165, #246 ) ) REPRESENTATION_CONTEXT ( 'NONE', 'WORKASPACE' ) );
#276 = FACE_OUTER_BOUND ( 'NONE', #66, .T. ) ;
#277 = STYLED_ITEM ( 'NONE', ( #109 ), #197 ) ;
#278 = DIRECTION ( 'NONE',  ( -1.000000000000000000, 0.000000000000000000, 0.000000000000000000 ) ) ;
#279 = UNCERTAINTY_MEASURE_WITH_UNIT (LENGTH_MEASURE( 1.000000000000000082E-05 ), #287, 'distance_accuracy_value', 'NONE');
#280 = SURFACE_SIDE_STYLE ('',( #92 ) ) ;
#281 =( NAMED_UNIT ( * ) SI_UNIT ( $, .STERADIAN. ) SOLID_ANGLE_UNIT ( ) );
#282 = ORIENTED_EDGE ( 'NONE', *, *, #240, .F. ) ;
#283 = DIRECTION ( 'NONE',  ( 0.000000000000000000, 0.000000000000000000, -1.000000000000000000 ) ) ;
#284 = EDGE_LOOP ( 'NONE', ( #186, #131, #25, #42 ) ) ;
#285 = CARTESIAN_POINT ( 'NONE',  ( 0.000000000000000000, 0.7500000000000001110, 0.000000000000000000 ) ) ;
#286 = MECHANICAL_DESIGN_GEOMETRIC_PRESENTATION_REPRESENTATION (  '', ( #277 ), #26 ) ;
#287 =( CONVERSION_BASED_UNIT ( 'INCH', #7 ) LENGTH_UNIT ( ) NAMED_UNIT ( #273 ) );
#288 = CARTESIAN_POINT ( 'NONE',  ( -0.1874999999999998890, 2.500000000000000000, 0.000000000000000000 ) ) ;
#289 = CARTESIAN_POINT ( 'NONE',  ( 0.1875000000000000278, 2.500000000000000000, 2.296212748401287109E-17 ) ) ;
#290 = AXIS2_PLACEMENT_3D ( 'NONE', #252, #172, #80 ) ;
#291 = COLOUR_RGB ( '',0.7921568627450980005, 0.8196078431372548767, 0.9333333333333333481 ) ;
#292 = LENGTH_MEASURE_WITH_UNIT ( LENGTH_MEASURE( 0.02539999999999999897 ), #53 );
#293 = CARTESIAN_POINT ( 'NONE',  ( 0.000000000000000000, 0.000000000000000000, 0.000000000000000000 ) ) ;
#294 = MECHANICAL_DESIGN_GEOMETRIC_PRESENTATION_REPRESENTATION (  '', ( #151 ), #105 ) ;
#295 = MECHANICAL_DESIGN_GEOMETRIC_PRESENTATION_REPRESENTATION (  '', ( #263 ), #106 ) ;
#296 = LENGTH_MEASURE_WITH_UNIT ( LENGTH_MEASURE( 0.02539999999999999897 ), #202 );
#297 =( CONVERSION_BASED_UNIT ( 'INCH', #272 ) LENGTH_UNIT ( ) NAMED_UNIT ( #200 ) );
#298 = SURFACE_SIDE_STYLE ('',( #103 ) ) ;
#299 =( NAMED_UNIT ( * ) PLANE_ANGLE_UNIT ( ) SI_UNIT ( $, .RADIAN. ) );
#300 = AXIS2_PLACEMENT_3D ( 'NONE', #87, #158, #41 ) ;
#301 = SURFACE_SIDE_STYLE ('',( #237 ) ) ;
#302 = ORIENTED_EDGE ( 'NONE', *, *, #49, .F. ) ;
#303 = DIRECTION ( 'NONE',  ( 3.498990854706726443E-17, 1.000000000000000000, -0.000000000000000000 ) ) ;
#304 = ORIENTED_EDGE ( 'NONE', *, *, #264, .T. ) ;
#305 = ADVANCED_FACE ( 'NONE', ( #166 ), #309, .F. ) ;
#306 = EDGE_LOOP ( 'NONE', ( #206, #154 ) ) ;
#307 = FILL_AREA_STYLE_COLOUR ( '', #95 ) ;
#308 = ORIENTED_EDGE ( 'NONE', *, *, #219, .T. ) ;
#309 = PLANE ( 'NONE',  #54 ) ;
ENDSEC;
END-ISO-10303-21;
