ISO-10303-21;
HEADER;
FILE_DESCRIPTION (( 'STEP AP214' ),
    '1' );
FILE_NAME ('48690.STEP',
    '2023-06-22T21:58:35',
    ( '' ),
    ( '' ),
    'SwSTEP 2.0',
    'SolidWorks 2023',
    '' );
FILE_SCHEMA (( 'AUTOMOTIVE_DESIGN' ));
ENDSEC;

DATA;
#1 = CARTESIAN_POINT ( 'NONE',  ( 6.123233995736766036E-17, 1.250000000000000000, 0.5000000000000000000 ) ) ;
#2 = AXIS2_PLACEMENT_3D ( 'NONE', #262, #36, #145 ) ;
#3 = ORIENTED_EDGE ( 'NONE', *, *, #150, .T. ) ;
#4 = CARTESIAN_POINT ( 'NONE',  ( 0.000000000000000000, 0.000000000000000000, 0.000000000000000000 ) ) ;
#5 = EDGE_CURVE ( 'NONE', #271, #154, #188, .T. ) ;
#6 =( NAMED_UNIT ( * ) PLANE_ANGLE_UNIT ( ) SI_UNIT ( $, .RADIAN. ) );
#7 = LENGTH_MEASURE_WITH_UNIT ( LENGTH_MEASURE( 0.02539999999999999897 ), #167 );
#8 = EDGE_LOOP ( 'NONE', ( #177, #217 ) ) ;
#9 = COLOUR_RGB ( '',0.7921568627450980005, 0.8196078431372548767, 0.9333333333333333481 ) ;
#10 = CARTESIAN_POINT ( 'NONE',  ( 6.123233995736766036E-17, 0.000000000000000000, 0.5000000000000000000 ) ) ;
#11 =( LENGTH_UNIT ( ) NAMED_UNIT ( * ) SI_UNIT ( $, .METRE. ) );
#12 = CYLINDRICAL_SURFACE ( 'NONE', #286, 0.4999999999999999445 ) ;
#13 =( GEOMETRIC_REPRESENTATION_CONTEXT ( 3 ) GLOBAL_UNCERTAINTY_ASSIGNED_CONTEXT ( ( #148 ) ) GLOBAL_UNIT_ASSIGNED_CONTEXT ( ( #139, #6, #104 ) ) REPRESENTATION_CONTEXT ( 'NONE', 'WORKASPACE' ) );
#14 = CARTESIAN_POINT ( 'NONE',  ( 1.224646799147353207E-16, 4.000000000000000000, 0.000000000000000000 ) ) ;
#15 = CARTESIAN_POINT ( 'NONE',  ( 0.000000000000000000, 1.250000000000000000, 0.000000000000000000 ) ) ;
#16 = AXIS2_PLACEMENT_3D ( 'NONE', #189, #252, #24 ) ;
#17 = CARTESIAN_POINT ( 'NONE',  ( 0.000000000000000000, 0.000000000000000000, 0.000000000000000000 ) ) ;
#18 = EDGE_CURVE ( 'NONE', #95, #203, #77, .T. ) ;
#19 = AXIS2_PLACEMENT_3D ( 'NONE', #15, #269, #117 ) ;
#20 = PRESENTATION_LAYER_ASSIGNMENT (  '', '', ( #214 ) ) ;
#21 = ADVANCED_FACE ( 'NONE', ( #47 ), #129, .T. ) ;
#22 = FILL_AREA_STYLE ('',( #48 ) ) ;
#23 = ADVANCED_FACE ( 'NONE', ( #111 ), #12, .T. ) ;
#24 = DIRECTION ( 'NONE',  ( 0.000000000000000000, 0.000000000000000000, -1.000000000000000000 ) ) ;
#25 = PRESENTATION_STYLE_ASSIGNMENT (( #162 ) ) ;
#26 = PRESENTATION_LAYER_ASSIGNMENT (  '', '', ( #254 ) ) ;
#27 = CARTESIAN_POINT ( 'NONE',  ( -0.5000000000000000000, 1.250000000000000000, 0.000000000000000000 ) ) ;
#28 =( NAMED_UNIT ( * ) SI_UNIT ( $, .STERADIAN. ) SOLID_ANGLE_UNIT ( ) );
#29 = ORIENTED_EDGE ( 'NONE', *, *, #18, .F. ) ;
#30 = PRODUCT_DEFINITION ( 'UNKNOWN', '', #300, #237 ) ;
#31 = FILL_AREA_STYLE_COLOUR ( '', #124 ) ;
#32 = FILL_AREA_STYLE_COLOUR ( '', #70 ) ;
#33 = DIMENSIONAL_EXPONENTS ( 1.000000000000000000, 0.000000000000000000, 0.000000000000000000, 0.000000000000000000, 0.000000000000000000, 0.000000000000000000, 0.000000000000000000 ) ;
#34 = FILL_AREA_STYLE_COLOUR ( '', #63 ) ;
#35 =( CONVERSION_BASED_UNIT ( 'INCH', #152 ) LENGTH_UNIT ( ) NAMED_UNIT ( #221 ) );
#36 = DIRECTION ( 'NONE',  ( -0.000000000000000000, -1.000000000000000000, -0.000000000000000000 ) ) ;
#37 = CIRCLE ( 'NONE', #68, 0.4999999999999998335 ) ;
#38 = ORIENTED_EDGE ( 'NONE', *, *, #302, .T. ) ;
#39 = DIRECTION ( 'NONE',  ( 4.453261087808557677E-17, 1.000000000000000000, -0.000000000000000000 ) ) ;
#40 = ORIENTED_EDGE ( 'NONE', *, *, #93, .T. ) ;
#41 = ORIENTED_EDGE ( 'NONE', *, *, #122, .T. ) ;
#42 = MECHANICAL_DESIGN_GEOMETRIC_PRESENTATION_REPRESENTATION (  '', ( #214 ), #132 ) ;
#43 = FACE_OUTER_BOUND ( 'NONE', #236, .T. ) ;
#44 = STYLED_ITEM ( 'NONE', ( #25 ), #21 ) ;
#45 = LENGTH_MEASURE_WITH_UNIT ( LENGTH_MEASURE( 0.02539999999999999897 ), #73 );
#46 = SHAPE_DEFINITION_REPRESENTATION ( #136, #275 ) ;
#47 = FACE_OUTER_BOUND ( 'NONE', #303, .T. ) ;
#48 = FILL_AREA_STYLE_COLOUR ( '', #9 ) ;
#49 = DIRECTION ( 'NONE',  ( 0.000000000000000000, -1.000000000000000000, -0.000000000000000000 ) ) ;
#50 = UNCERTAINTY_MEASURE_WITH_UNIT (LENGTH_MEASURE( 1.000000000000000082E-05 ), #35, 'distance_accuracy_value', 'NONE');
#51 = PRESENTATION_LAYER_ASSIGNMENT (  '', '', ( #259 ) ) ;
#52 = DIRECTION ( 'NONE',  ( 0.000000000000000000, 0.000000000000000000, -1.000000000000000000 ) ) ;
#53 = APPLICATION_PROTOCOL_DEFINITION ( 'draft international standard', 'automotive_design', 1998, #274 ) ;
#54 = UNCERTAINTY_MEASURE_WITH_UNIT (LENGTH_MEASURE( 1.000000000000000082E-05 ), #179, 'distance_accuracy_value', 'NONE');
#55 = EDGE_CURVE ( 'NONE', #307, #233, #285, .T. ) ;
#56 = ORIENTED_EDGE ( 'NONE', *, *, #304, .F. ) ;
#57 = FILL_AREA_STYLE ('',( #31 ) ) ;
#58 = STYLED_ITEM ( 'NONE', ( #118 ), #210 ) ;
#59 = DIRECTION ( 'NONE',  ( 4.453261087808557677E-17, 1.000000000000000000, -0.000000000000000000 ) ) ;
#60 = SURFACE_STYLE_FILL_AREA ( #142 ) ;
#61 = UNCERTAINTY_MEASURE_WITH_UNIT (LENGTH_MEASURE( 1.000000000000000082E-05 ), #220, 'distance_accuracy_value', 'NONE');
#62 = ORIENTED_EDGE ( 'NONE', *, *, #161, .T. ) ;
#63 = COLOUR_RGB ( '',0.7921568627450980005, 0.8196078431372548767, 0.9333333333333333481 ) ;
#64 = ORIENTED_EDGE ( 'NONE', *, *, #55, .T. ) ;
#65 = EDGE_LOOP ( 'NONE', ( #199, #309 ) ) ;
#66 = DIRECTION ( 'NONE',  ( 4.453261087808557677E-17, 1.000000000000000000, -0.000000000000000000 ) ) ;
#67 = SURFACE_STYLE_USAGE ( .BOTH. , #156 ) ;
#68 = AXIS2_PLACEMENT_3D ( 'NONE', #14, #208, #293 ) ;
#69 = DIRECTION ( 'NONE',  ( -0.000000000000000000, -1.000000000000000000, -0.000000000000000000 ) ) ;
#70 = COLOUR_RGB ( '',1.000000000000000000, 0.000000000000000000, 0.000000000000000000 ) ;
#71 = AXIS2_PLACEMENT_3D ( 'NONE', #204, #69, #292 ) ;
#72 = CARTESIAN_POINT ( 'NONE',  ( 1.224646799147353207E-16, 4.000000000000000000, 0.000000000000000000 ) ) ;
#73 =( LENGTH_UNIT ( ) NAMED_UNIT ( * ) SI_UNIT ( $, .METRE. ) );
#74 =( LENGTH_UNIT ( ) NAMED_UNIT ( * ) SI_UNIT ( $, .METRE. ) );
#75 = VECTOR ( 'NONE', #135, 39.37007874015748143 ) ;
#76 = VECTOR ( 'NONE', #121, 39.37007874015748143 ) ;
#77 = LINE ( 'NONE', #257, #75 ) ;
#78 = LENGTH_MEASURE_WITH_UNIT ( LENGTH_MEASURE( 0.02539999999999999897 ), #11 );
#79 = FACE_OUTER_BOUND ( 'NONE', #114, .T. ) ;
#80 = ADVANCED_FACE ( 'NONE', ( #305 ), #241, .T. ) ;
#81 = AXIS2_PLACEMENT_3D ( 'NONE', #279, #228, #90 ) ;
#82 =( GEOMETRIC_REPRESENTATION_CONTEXT ( 3 ) GLOBAL_UNCERTAINTY_ASSIGNED_CONTEXT ( ( #103 ) ) GLOBAL_UNIT_ASSIGNED_CONTEXT ( ( #234, #112, #247 ) ) REPRESENTATION_CONTEXT ( 'NONE', 'WORKASPACE' ) );
#83 = SURFACE_STYLE_USAGE ( .BOTH. , #211 ) ;
#84 = UNCERTAINTY_MEASURE_WITH_UNIT (LENGTH_MEASURE( 1.000000000000000082E-05 ), #164, 'distance_accuracy_value', 'NONE');
#85 = SURFACE_STYLE_FILL_AREA ( #171 ) ;
#86 = PLANE ( 'NONE',  #277 ) ;
#87 = FILL_AREA_STYLE_COLOUR ( '', #125 ) ;
#88 = FILL_AREA_STYLE_COLOUR ( '', #223 ) ;
#89 =( NAMED_UNIT ( * ) PLANE_ANGLE_UNIT ( ) SI_UNIT ( $, .RADIAN. ) );
#90 = DIRECTION ( 'NONE',  ( 1.000000000000000000, -4.453261087808557677E-17, 0.000000000000000000 ) ) ;
#91 = MECHANICAL_DESIGN_GEOMETRIC_PRESENTATION_REPRESENTATION (  '', ( #44 ), #13 ) ;
#92 =( NAMED_UNIT ( * ) PLANE_ANGLE_UNIT ( ) SI_UNIT ( $, .RADIAN. ) );
#93 = EDGE_CURVE ( 'NONE', #95, #271, #209, .T. ) ;
#94 = ORIENTED_EDGE ( 'NONE', *, *, #225, .F. ) ;
#95 = VERTEX_POINT ( 'NONE', #143 ) ;
#96 = CYLINDRICAL_SURFACE ( 'NONE', #71, 0.5000000000000000000 ) ;
#97 = PRESENTATION_STYLE_ASSIGNMENT (( #230 ) ) ;
#98 = AXIS2_PLACEMENT_3D ( 'NONE', #281, #59, #169 ) ;
#99 = APPLICATION_PROTOCOL_DEFINITION ( 'draft international standard', 'automotive_design', 1998, #191 ) ;
#100 = MANIFOLD_SOLID_BREP ( 'Revolve - Tool Body (Straight Shanked)', #197 ) ;
#101 = PRESENTATION_LAYER_ASSIGNMENT (  '', '', ( #58 ) ) ;
#102 =( NAMED_UNIT ( * ) PLANE_ANGLE_UNIT ( ) SI_UNIT ( $, .RADIAN. ) );
#103 = UNCERTAINTY_MEASURE_WITH_UNIT (LENGTH_MEASURE( 1.000000000000000082E-05 ), #234, 'distance_accuracy_value', 'NONE');
#104 =( NAMED_UNIT ( * ) SI_UNIT ( $, .STERADIAN. ) SOLID_ANGLE_UNIT ( ) );
#105 = CARTESIAN_POINT ( 'NONE',  ( 0.000000000000000000, 0.000000000000000000, 0.000000000000000000 ) ) ;
#106 =( GEOMETRIC_REPRESENTATION_CONTEXT ( 3 ) GLOBAL_UNCERTAINTY_ASSIGNED_CONTEXT ( ( #61 ) ) GLOBAL_UNIT_ASSIGNED_CONTEXT ( ( #220, #89, #120 ) ) REPRESENTATION_CONTEXT ( 'NONE', 'WORKASPACE' ) );
#107 = EDGE_LOOP ( 'NONE', ( #94, #3, #64, #149 ) ) ;
#108 =( LENGTH_UNIT ( ) NAMED_UNIT ( * ) SI_UNIT ( $, .METRE. ) );
#109 = UNCERTAINTY_MEASURE_WITH_UNIT (LENGTH_MEASURE( 1.000000000000000082E-05 ), #128, 'distance_accuracy_value', 'NONE');
#110 = CARTESIAN_POINT ( 'NONE',  ( 0.000000000000000000, 0.000000000000000000, -0.5000000000000000000 ) ) ;
#111 = FACE_OUTER_BOUND ( 'NONE', #222, .T. ) ;
#112 =( NAMED_UNIT ( * ) PLANE_ANGLE_UNIT ( ) SI_UNIT ( $, .RADIAN. ) );
#113 = DIMENSIONAL_EXPONENTS ( 1.000000000000000000, 0.000000000000000000, 0.000000000000000000, 0.000000000000000000, 0.000000000000000000, 0.000000000000000000, 0.000000000000000000 ) ;
#114 = EDGE_LOOP ( 'NONE', ( #29, #40, #297, #288 ) ) ;
#115 = CARTESIAN_POINT ( 'NONE',  ( 4.957883579047464389E-34, 1.250000000000000000, 0.000000000000000000 ) ) ;
#116 = AXIS2_PLACEMENT_3D ( 'NONE', #151, #289, #182 ) ;
#117 = DIRECTION ( 'NONE',  ( 0.000000000000000000, -0.000000000000000000, 1.000000000000000000 ) ) ;
#118 = PRESENTATION_STYLE_ASSIGNMENT (( #276 ) ) ;
#119 = ORIENTED_EDGE ( 'NONE', *, *, #225, .T. ) ;
#120 =( NAMED_UNIT ( * ) SI_UNIT ( $, .STERADIAN. ) SOLID_ANGLE_UNIT ( ) );
#121 = DIRECTION ( 'NONE',  ( -0.000000000000000000, -1.000000000000000000, -0.000000000000000000 ) ) ;
#122 = EDGE_CURVE ( 'NONE', #271, #95, #299, .T. ) ;
#123 = DIRECTION ( 'NONE',  ( 0.000000000000000000, 0.000000000000000000, -1.000000000000000000 ) ) ;
#124 = COLOUR_RGB ( '',1.000000000000000000, 0.000000000000000000, 0.000000000000000000 ) ;
#126 = ORIENTED_EDGE ( 'NONE', *, *, #159, .T. ) ;
#125 = COLOUR_RGB ( '',1.000000000000000000, 0.000000000000000000, 0.000000000000000000 ) ;
#127 = ORIENTED_EDGE ( 'NONE', *, *, #159, .F. ) ;
#128 =( CONVERSION_BASED_UNIT ( 'INCH', #7 ) LENGTH_UNIT ( ) NAMED_UNIT ( #33 ) );
#129 = PLANE ( 'NONE',  #295 ) ;
#130 = CARTESIAN_POINT ( 'NONE',  ( 0.000000000000000000, 1.250000000000000000, -0.5000000000000000000 ) ) ;
#131 = AXIS2_PLACEMENT_3D ( 'NONE', #72, #229, #294 ) ;
#132 =( GEOMETRIC_REPRESENTATION_CONTEXT ( 3 ) GLOBAL_UNCERTAINTY_ASSIGNED_CONTEXT ( ( #109 ) ) GLOBAL_UNIT_ASSIGNED_CONTEXT ( ( #128, #190, #207 ) ) REPRESENTATION_CONTEXT ( 'NONE', 'WORKASPACE' ) );
#133 = SURFACE_SIDE_STYLE ('',( #231 ) ) ;
#134 = FILL_AREA_STYLE ('',( #32 ) ) ;
#135 = DIRECTION ( 'NONE',  ( 4.453261087808557677E-17, 1.000000000000000000, -0.000000000000000000 ) ) ;
#136 = PRODUCT_DEFINITION_SHAPE ( 'NONE', 'NONE',  #30 ) ;
#137 = SURFACE_STYLE_FILL_AREA ( #134 ) ;
#138 = AXIS2_PLACEMENT_3D ( 'NONE', #105, #253, #52 ) ;
#139 =( CONVERSION_BASED_UNIT ( 'INCH', #78 ) LENGTH_UNIT ( ) NAMED_UNIT ( #173 ) );
#140 = ADVANCED_FACE ( 'NONE', ( #243 ), #86, .F. ) ;
#141 = CYLINDRICAL_SURFACE ( 'NONE', #246, 0.4999999999999999445 ) ;
#142 = FILL_AREA_STYLE ('',( #34 ) ) ;
#143 = CARTESIAN_POINT ( 'NONE',  ( 0.5000000000000000000, 1.250000000000000000, 6.123233995736764803E-17 ) ) ;
#144 = CLOSED_SHELL ( 'NONE', ( #210, #80, #268, #21 ) ) ;
#145 = DIRECTION ( 'NONE',  ( 0.000000000000000000, 0.000000000000000000, -1.000000000000000000 ) ) ;
#146 = LENGTH_MEASURE_WITH_UNIT ( LENGTH_MEASURE( 0.02539999999999999897 ), #284 );
#147 = DIRECTION ( 'NONE',  ( 0.000000000000000000, 0.000000000000000000, -1.000000000000000000 ) ) ;
#148 = UNCERTAINTY_MEASURE_WITH_UNIT (LENGTH_MEASURE( 1.000000000000000082E-05 ), #139, 'distance_accuracy_value', 'NONE');
#149 = ORIENTED_EDGE ( 'NONE', *, *, #215, .F. ) ;
#150 = EDGE_CURVE ( 'NONE', #264, #307, #291, .T. ) ;
#151 = CARTESIAN_POINT ( 'NONE',  ( -1.516480271171051896E-32, 1.250000000000000000, 0.000000000000000000 ) ) ;
#152 = LENGTH_MEASURE_WITH_UNIT ( LENGTH_MEASURE( 0.02539999999999999897 ), #175 );
#153 = DIRECTION ( 'NONE',  ( 4.453261087808557677E-17, 1.000000000000000000, -0.000000000000000000 ) ) ;
#154 = VERTEX_POINT ( 'NONE', #238 ) ;
#155 = MECHANICAL_DESIGN_GEOMETRIC_PRESENTATION_REPRESENTATION (  '', ( #58 ), #82 ) ;
#156 = SURFACE_SIDE_STYLE ('',( #290 ) ) ;
#157 = MECHANICAL_DESIGN_GEOMETRIC_PRESENTATION_REPRESENTATION (  '', ( #254 ), #202 ) ;
#158 =( GEOMETRIC_REPRESENTATION_CONTEXT ( 3 ) GLOBAL_UNCERTAINTY_ASSIGNED_CONTEXT ( ( #84 ) ) GLOBAL_UNIT_ASSIGNED_CONTEXT ( ( #164, #280, #28 ) ) REPRESENTATION_CONTEXT ( 'NONE', 'WORKASPACE' ) );
#159 = EDGE_CURVE ( 'NONE', #154, #203, #37, .T. ) ;
#160 = LENGTH_MEASURE_WITH_UNIT ( LENGTH_MEASURE( 0.02539999999999999897 ), #108 );
#161 = EDGE_CURVE ( 'NONE', #307, #264, #212, .T. ) ;
#162 = SURFACE_STYLE_USAGE ( .BOTH. , #192 ) ;
#163 = DIRECTION ( 'NONE',  ( 4.453261087808557677E-17, 1.000000000000000000, -0.000000000000000000 ) ) ;
#164 =( CONVERSION_BASED_UNIT ( 'INCH', #250 ) LENGTH_UNIT ( ) NAMED_UNIT ( #113 ) );
#165 = PRODUCT_CONTEXT ( 'NONE', #274, 'mechanical' ) ;
#166 = VERTEX_POINT ( 'NONE', #10 ) ;
#167 =( LENGTH_UNIT ( ) NAMED_UNIT ( * ) SI_UNIT ( $, .METRE. ) );
#168 = ADVANCED_FACE ( 'NONE', ( #79 ), #141, .T. ) ;
#169 = DIRECTION ( 'NONE',  ( -1.000000000000000000, 0.000000000000000000, 0.000000000000000000 ) ) ;
#170 = DIMENSIONAL_EXPONENTS ( 1.000000000000000000, 0.000000000000000000, 0.000000000000000000, 0.000000000000000000, 0.000000000000000000, 0.000000000000000000, 0.000000000000000000 ) ;
#171 = FILL_AREA_STYLE ('',( #88 ) ) ;
#172 = DIRECTION ( 'NONE',  ( -1.000000000000000000, 4.453261087808557677E-17, 0.000000000000000000 ) ) ;
#173 = DIMENSIONAL_EXPONENTS ( 1.000000000000000000, 0.000000000000000000, 0.000000000000000000, 0.000000000000000000, 0.000000000000000000, 0.000000000000000000, 0.000000000000000000 ) ;
#174 = DIRECTION ( 'NONE',  ( -0.000000000000000000, -1.000000000000000000, -0.000000000000000000 ) ) ;
#175 =( LENGTH_UNIT ( ) NAMED_UNIT ( * ) SI_UNIT ( $, .METRE. ) );
#176 = ADVANCED_FACE ( 'NONE', ( #43 ), #245, .F. ) ;
#177 = ORIENTED_EDGE ( 'NONE', *, *, #161, .F. ) ;
#178 = VECTOR ( 'NONE', #163, 39.37007874015748143 ) ;
#179 =( CONVERSION_BASED_UNIT ( 'INCH', #146 ) LENGTH_UNIT ( ) NAMED_UNIT ( #170 ) );
#180 = DIRECTION ( 'NONE',  ( -1.000000000000000000, 0.000000000000000000, 0.000000000000000000 ) ) ;
#181 = ORIENTED_EDGE ( 'NONE', *, *, #55, .F. ) ;
#182 = DIRECTION ( 'NONE',  ( -1.000000000000000000, 0.000000000000000000, 0.000000000000000000 ) ) ;
#183 = CARTESIAN_POINT ( 'NONE',  ( 0.5000000000000000000, 4.000000000000000000, 6.123233995736764803E-17 ) ) ;
#184 = ORIENTED_EDGE ( 'NONE', *, *, #215, .T. ) ;
#185 =( GEOMETRIC_REPRESENTATION_CONTEXT ( 3 ) GLOBAL_UNCERTAINTY_ASSIGNED_CONTEXT ( ( #54 ) ) GLOBAL_UNIT_ASSIGNED_CONTEXT ( ( #179, #102, #251 ) ) REPRESENTATION_CONTEXT ( 'NONE', 'WORKASPACE' ) );
#186 = CARTESIAN_POINT ( 'NONE',  ( -0.4999999999999997780, 4.000000000000000000, 0.000000000000000000 ) ) ;
#187 = VECTOR ( 'NONE', #260, 39.37007874015748143 ) ;
#188 = LINE ( 'NONE', #186, #178 ) ;
#189 = CARTESIAN_POINT ( 'NONE',  ( 0.000000000000000000, 1.250000000000000000, 0.000000000000000000 ) ) ;
#190 =( NAMED_UNIT ( * ) PLANE_ANGLE_UNIT ( ) SI_UNIT ( $, .RADIAN. ) );
#191 = APPLICATION_CONTEXT ( 'automotive_design' ) ;
#192 = SURFACE_SIDE_STYLE ('',( #137 ) ) ;
#193 = PRODUCT ( '48690', '48690', '', ( #165 ) ) ;
#194 = PRESENTATION_LAYER_ASSIGNMENT (  '', '', ( #255 ) ) ;
#195 = CARTESIAN_POINT ( 'NONE',  ( 0.000000000000000000, 0.000000000000000000, 0.000000000000000000 ) ) ;
#196 = DIRECTION ( 'NONE',  ( 0.000000000000000000, 0.000000000000000000, -1.000000000000000000 ) ) ;
#197 = CLOSED_SHELL ( 'NONE', ( #23, #140, #168, #176 ) ) ;
#198 =( NAMED_UNIT ( * ) SI_UNIT ( $, .STERADIAN. ) SOLID_ANGLE_UNIT ( ) );
#199 = ORIENTED_EDGE ( 'NONE', *, *, #122, .F. ) ;
#200 = ORIENTED_EDGE ( 'NONE', *, *, #18, .T. ) ;
#201 = FILL_AREA_STYLE ('',( #87 ) ) ;
#202 =( GEOMETRIC_REPRESENTATION_CONTEXT ( 3 ) GLOBAL_UNCERTAINTY_ASSIGNED_CONTEXT ( ( #50 ) ) GLOBAL_UNIT_ASSIGNED_CONTEXT ( ( #35, #92, #198 ) ) REPRESENTATION_CONTEXT ( 'NONE', 'WORKASPACE' ) );
#203 = VERTEX_POINT ( 'NONE', #183 ) ;
#204 = CARTESIAN_POINT ( 'NONE',  ( 0.000000000000000000, 0.000000000000000000, 0.000000000000000000 ) ) ;
#205 = DIRECTION ( 'NONE',  ( 0.000000000000000000, 0.000000000000000000, 1.000000000000000000 ) ) ;
#206 = SURFACE_STYLE_USAGE ( .BOTH. , #133 ) ;
#207 =( NAMED_UNIT ( * ) SI_UNIT ( $, .STERADIAN. ) SOLID_ANGLE_UNIT ( ) );
#208 = DIRECTION ( 'NONE',  ( 4.453261087808557677E-17, 1.000000000000000000, -0.000000000000000000 ) ) ;
#209 = CIRCLE ( 'NONE', #98, 0.5000000000000000000 ) ;
#210 = ADVANCED_FACE ( 'NONE', ( #244 ), #218, .T. ) ;
#211 = SURFACE_SIDE_STYLE ('',( #85 ) ) ;
#212 = CIRCLE ( 'NONE', #16, 0.5000000000000000000 ) ;
#213 = SURFACE_SIDE_STYLE ('',( #267 ) ) ;
#214 = STYLED_ITEM ( 'NONE', ( #232 ), #298 ) ;
#215 = EDGE_CURVE ( 'NONE', #166, #233, #272, .T. ) ;
#216 = CARTESIAN_POINT ( 'NONE',  ( 1.224646799147353207E-16, 4.000000000000000000, 0.000000000000000000 ) ) ;
#217 = ORIENTED_EDGE ( 'NONE', *, *, #150, .F. ) ;
#218 = CYLINDRICAL_SURFACE ( 'NONE', #278, 0.5000000000000000000 ) ;
#219 = CARTESIAN_POINT ( 'NONE',  ( 1.224646799147353207E-16, 4.000000000000000000, 0.000000000000000000 ) ) ;
#220 =( CONVERSION_BASED_UNIT ( 'INCH', #160 ) LENGTH_UNIT ( ) NAMED_UNIT ( #283 ) );
#221 = DIMENSIONAL_EXPONENTS ( 1.000000000000000000, 0.000000000000000000, 0.000000000000000000, 0.000000000000000000, 0.000000000000000000, 0.000000000000000000, 0.000000000000000000 ) ;
#222 = EDGE_LOOP ( 'NONE', ( #41, #200, #127, #266 ) ) ;
#223 = COLOUR_RGB ( '',1.000000000000000000, 0.000000000000000000, 0.000000000000000000 ) ;
#224 = CIRCLE ( 'NONE', #138, 0.5000000000000000000 ) ;
#225 = EDGE_CURVE ( 'NONE', #264, #166, #287, .T. ) ;
#226 = DIRECTION ( 'NONE',  ( -1.000000000000000000, 0.000000000000000000, 0.000000000000000000 ) ) ;
#227 = AXIS2_PLACEMENT_3D ( 'NONE', #256, #205, #296 ) ;
#228 = DIRECTION ( 'NONE',  ( -4.453261087808557677E-17, -1.000000000000000000, 0.000000000000000000 ) ) ;
#229 = DIRECTION ( 'NONE',  ( 4.453261087808557677E-17, 1.000000000000000000, -0.000000000000000000 ) ) ;
#230 = SURFACE_STYLE_USAGE ( .BOTH. , #261 ) ;
#231 = SURFACE_STYLE_FILL_AREA ( #22 ) ;
#232 = PRESENTATION_STYLE_ASSIGNMENT (( #206 ) ) ;
#233 = VERTEX_POINT ( 'NONE', #240 ) ;
#234 =( CONVERSION_BASED_UNIT ( 'INCH', #45 ) LENGTH_UNIT ( ) NAMED_UNIT ( #242 ) );
#235 = PRESENTATION_LAYER_ASSIGNMENT (  '', '', ( #44 ) ) ;
#236 = EDGE_LOOP ( 'NONE', ( #126, #38 ) ) ;
#237 = PRODUCT_DEFINITION_CONTEXT ( 'detailed design', #191, 'design' ) ;
#238 = CARTESIAN_POINT ( 'NONE',  ( -0.4999999999999997224, 4.000000000000000000, 0.000000000000000000 ) ) ;
#239 = FACE_OUTER_BOUND ( 'NONE', #107, .T. ) ;
#240 = CARTESIAN_POINT ( 'NONE',  ( 0.000000000000000000, 0.000000000000000000, -0.5000000000000000000 ) ) ;
#241 = PLANE ( 'NONE',  #19 ) ;
#242 = DIMENSIONAL_EXPONENTS ( 1.000000000000000000, 0.000000000000000000, 0.000000000000000000, 0.000000000000000000, 0.000000000000000000, 0.000000000000000000, 0.000000000000000000 ) ;
#243 = FACE_OUTER_BOUND ( 'NONE', #65, .T. ) ;
#244 = FACE_OUTER_BOUND ( 'NONE', #270, .T. ) ;
#245 = PLANE ( 'NONE',  #81 ) ;
#246 = AXIS2_PLACEMENT_3D ( 'NONE', #216, #153, #226 ) ;
#247 =( NAMED_UNIT ( * ) SI_UNIT ( $, .STERADIAN. ) SOLID_ANGLE_UNIT ( ) );
#248 = PRESENTATION_STYLE_ASSIGNMENT (( #67 ) ) ;
#249 = MECHANICAL_DESIGN_GEOMETRIC_PRESENTATION_REPRESENTATION (  '', ( #255 ), #185 ) ;
#250 = LENGTH_MEASURE_WITH_UNIT ( LENGTH_MEASURE( 0.02539999999999999897 ), #74 );
#251 =( NAMED_UNIT ( * ) SI_UNIT ( $, .STERADIAN. ) SOLID_ANGLE_UNIT ( ) );
#252 = DIRECTION ( 'NONE',  ( -0.000000000000000000, -1.000000000000000000, -0.000000000000000000 ) ) ;
#253 = DIRECTION ( 'NONE',  ( -0.000000000000000000, -1.000000000000000000, -0.000000000000000000 ) ) ;
#254 = STYLED_ITEM ( 'NONE', ( #265 ), #80 ) ;
#255 = STYLED_ITEM ( 'NONE', ( #248 ), #268 ) ;
#256 = CARTESIAN_POINT ( 'NONE',  ( 0.000000000000000000, 0.000000000000000000, 0.000000000000000000 ) ) ;
#257 = CARTESIAN_POINT ( 'NONE',  ( 0.5000000000000001110, 4.000000000000000000, 6.123233995736764803E-17 ) ) ;
#258 = ORIENTED_EDGE ( 'NONE', *, *, #304, .T. ) ;
#259 = STYLED_ITEM ( 'NONE', ( #97 ), #100 ) ;
#260 = DIRECTION ( 'NONE',  ( -0.000000000000000000, -1.000000000000000000, -0.000000000000000000 ) ) ;
#261 = SURFACE_SIDE_STYLE ('',( #60 ) ) ;
#262 = CARTESIAN_POINT ( 'NONE',  ( 0.000000000000000000, 1.250000000000000000, 0.000000000000000000 ) ) ;
#264 = VERTEX_POINT ( 'NONE', #1 ) ;
#263 = MECHANICAL_DESIGN_GEOMETRIC_PRESENTATION_REPRESENTATION (  '', ( #259 ), #106 ) ;
#265 = PRESENTATION_STYLE_ASSIGNMENT (( #83 ) ) ;
#266 = ORIENTED_EDGE ( 'NONE', *, *, #5, .F. ) ;
#267 = SURFACE_STYLE_FILL_AREA ( #57 ) ;
#268 = ADVANCED_FACE ( 'NONE', ( #239 ), #96, .T. ) ;
#269 = DIRECTION ( 'NONE',  ( 0.000000000000000000, 1.000000000000000000, 0.000000000000000000 ) ) ;
#270 = EDGE_LOOP ( 'NONE', ( #62, #119, #56, #181 ) ) ;
#271 = VERTEX_POINT ( 'NONE', #27 ) ;
#272 = CIRCLE ( 'NONE', #273, 0.5000000000000000000 ) ;
#273 = AXIS2_PLACEMENT_3D ( 'NONE', #195, #306, #196 ) ;
#274 = APPLICATION_CONTEXT ( 'automotive_design' ) ;
#275 = ADVANCED_BREP_SHAPE_REPRESENTATION ( '48690', ( #298, #100, #227 ), #158 ) ;
#276 = SURFACE_STYLE_USAGE ( .BOTH. , #213 ) ;
#277 = AXIS2_PLACEMENT_3D ( 'NONE', #115, #66, #172 ) ;
#278 = AXIS2_PLACEMENT_3D ( 'NONE', #17, #174, #123 ) ;
#279 = CARTESIAN_POINT ( 'NONE',  ( 0.5000000000000000000, 4.000000000000000000, 0.000000000000000000 ) ) ;
#280 =( NAMED_UNIT ( * ) PLANE_ANGLE_UNIT ( ) SI_UNIT ( $, .RADIAN. ) );
#281 = CARTESIAN_POINT ( 'NONE',  ( -1.516480271171051896E-32, 1.250000000000000000, 0.000000000000000000 ) ) ;
#282 = PRODUCT_RELATED_PRODUCT_CATEGORY ( 'part', '', ( #193 ) ) ;
#283 = DIMENSIONAL_EXPONENTS ( 1.000000000000000000, 0.000000000000000000, 0.000000000000000000, 0.000000000000000000, 0.000000000000000000, 0.000000000000000000, 0.000000000000000000 ) ;
#284 =( LENGTH_UNIT ( ) NAMED_UNIT ( * ) SI_UNIT ( $, .METRE. ) );
#285 = LINE ( 'NONE', #110, #187 ) ;
#286 = AXIS2_PLACEMENT_3D ( 'NONE', #219, #39, #180 ) ;
#287 = LINE ( 'NONE', #308, #76 ) ;
#288 = ORIENTED_EDGE ( 'NONE', *, *, #302, .F. ) ;
#289 = DIRECTION ( 'NONE',  ( 4.453261087808557677E-17, 1.000000000000000000, -0.000000000000000000 ) ) ;
#290 = SURFACE_STYLE_FILL_AREA ( #201 ) ;
#291 = CIRCLE ( 'NONE', #2, 0.5000000000000000000 ) ;
#292 = DIRECTION ( 'NONE',  ( 0.000000000000000000, 0.000000000000000000, -1.000000000000000000 ) ) ;
#293 = DIRECTION ( 'NONE',  ( -1.000000000000000000, 0.000000000000000000, 0.000000000000000000 ) ) ;
#294 = DIRECTION ( 'NONE',  ( -1.000000000000000000, 0.000000000000000000, 0.000000000000000000 ) ) ;
#295 = AXIS2_PLACEMENT_3D ( 'NONE', #4, #49, #147 ) ;
#296 = DIRECTION ( 'NONE',  ( 1.000000000000000000, 0.000000000000000000, 0.000000000000000000 ) ) ;
#297 = ORIENTED_EDGE ( 'NONE', *, *, #5, .T. ) ;
#298 = MANIFOLD_SOLID_BREP ( 'Revolve - Cutting Edge', #144 ) ;
#299 = CIRCLE ( 'NONE', #116, 0.5000000000000000000 ) ;
#300 = PRODUCT_DEFINITION_FORMATION_WITH_SPECIFIED_SOURCE ( 'ANY', '', #193, .NOT_KNOWN. ) ;
#301 = CIRCLE ( 'NONE', #131, 0.4999999999999998335 ) ;
#302 = EDGE_CURVE ( 'NONE', #203, #154, #301, .T. ) ;
#303 = EDGE_LOOP ( 'NONE', ( #258, #184 ) ) ;
#304 = EDGE_CURVE ( 'NONE', #233, #166, #224, .T. ) ;
#305 = FACE_OUTER_BOUND ( 'NONE', #8, .T. ) ;
#306 = DIRECTION ( 'NONE',  ( -0.000000000000000000, -1.000000000000000000, -0.000000000000000000 ) ) ;
#307 = VERTEX_POINT ( 'NONE', #130 ) ;
#308 = CARTESIAN_POINT ( 'NONE',  ( 6.123233995736766036E-17, 0.000000000000000000, 0.5000000000000000000 ) ) ;
#309 = ORIENTED_EDGE ( 'NONE', *, *, #93, .F. ) ;
ENDSEC;
END-ISO-10303-21;
