ISO-10303-21;
HEADER;
FILE_DESCRIPTION (( 'STEP AP214' ),
    '1' );
FILE_NAME ('59730.STEP',
    '2023-07-24T15:30:13',
    ( '' ),
    ( '' ),
    'SwSTEP 2.0',
    'SolidWorks 2023',
    '' );
FILE_SCHEMA (( 'AUTOMOTIVE_DESIGN' ));
ENDSEC;

DATA;
#1 =( GEOMETRIC_REPRESENTATION_CONTEXT ( 3 ) GLOBAL_UNCERTAINTY_ASSIGNED_CONTEXT ( ( #265 ) ) GLOBAL_UNIT_ASSIGNED_CONTEXT ( ( #112, #50, #253 ) ) REPRESENTATION_CONTEXT ( 'NONE', 'WORKASPACE' ) );
#2 = EDGE_LOOP ( 'NONE', ( #273, #322 ) ) ;
#3 = EDGE_CURVE ( 'NONE', #257, #226, #39, .T. ) ;
#4 = EDGE_CURVE ( 'NONE', #81, #154, #348, .T. ) ;
#5 = DIRECTION ( 'NONE',  ( 0.000000000000000000, 0.000000000000000000, -1.000000000000000000 ) ) ;
#6 = AXIS2_PLACEMENT_3D ( 'NONE', #268, #359, #290 ) ;
#7 = SURFACE_SIDE_STYLE ('',( #323 ) ) ;
#8 = DIRECTION ( 'NONE',  ( -1.203932746194552959E-16, 1.000000000000000000, -0.000000000000000000 ) ) ;
#9 = UNCERTAINTY_MEASURE_WITH_UNIT (LENGTH_MEASURE( 1.000000000000000082E-05 ), #193, 'distance_accuracy_value', 'NONE');
#10 = CIRCLE ( 'NONE', #254, 3.000000000000000000 ) ;
#11 = CYLINDRICAL_SURFACE ( 'NONE', #73, 2.999999999999993783 ) ;
#12 = DIRECTION ( 'NONE',  ( -1.000000000000000000, 0.000000000000000000, 0.000000000000000000 ) ) ;
#13 = CARTESIAN_POINT ( 'NONE',  ( 3.000000000000000444, 63.00000000000000000, 3.673940397442054938E-16 ) ) ;
#14 = AXIS2_PLACEMENT_3D ( 'NONE', #148, #335, #219 ) ;
#15 = CARTESIAN_POINT ( 'NONE',  ( 3.184081677783117402E-15, 63.00000000000000000, 0.000000000000000000 ) ) ;
#16 =( LENGTH_UNIT ( ) NAMED_UNIT ( * ) SI_UNIT ( .MILLI., .METRE. ) );
#17 = FILL_AREA_STYLE_COLOUR ( '', #65 ) ;
#18 = SURFACE_SIDE_STYLE ('',( #45 ) ) ;
#19 = ADVANCED_FACE ( 'NONE', ( #177 ), #94, .T. ) ;
#20 = STYLED_ITEM ( 'NONE', ( #367 ), #216 ) ;
#21 = PRODUCT_CONTEXT ( 'NONE', #194, 'mechanical' ) ;
#22 = PRESENTATION_LAYER_ASSIGNMENT (  '', '', ( #279 ) ) ;
#23 = PRESENTATION_LAYER_ASSIGNMENT (  '', '', ( #365 ) ) ;
#24 = APPLICATION_PROTOCOL_DEFINITION ( 'draft international standard', 'automotive_design', 1998, #194 ) ;
#25 = CIRCLE ( 'NONE', #85, 2.000000000000000000 ) ;
#26 = EDGE_LOOP ( 'NONE', ( #196, #80, #191, #228 ) ) ;
#27 = ORIENTED_EDGE ( 'NONE', *, *, #67, .F. ) ;
#28 = SURFACE_STYLE_USAGE ( .BOTH. , #314 ) ;
#29 =( NAMED_UNIT ( * ) SI_UNIT ( $, .STERADIAN. ) SOLID_ANGLE_UNIT ( ) );
#30 = ORIENTED_EDGE ( 'NONE', *, *, #4, .T. ) ;
#31 = PRODUCT_DEFINITION_SHAPE ( 'NONE', 'NONE',  #270 ) ;
#32 = AXIS2_PLACEMENT_3D ( 'NONE', #174, #298, #179 ) ;
#33 = SURFACE_STYLE_FILL_AREA ( #96 ) ;
#34 = UNCERTAINTY_MEASURE_WITH_UNIT (LENGTH_MEASURE( 1.000000000000000082E-05 ), #360, 'distance_accuracy_value', 'NONE');
#35 = CARTESIAN_POINT ( 'NONE',  ( 3.000000000000000000, 11.99999999999999645, 3.673940397442054938E-16 ) ) ;
#36 = DIRECTION ( 'NONE',  ( -1.203932746194552959E-16, 1.000000000000000000, -0.000000000000000000 ) ) ;
#37 = UNCERTAINTY_MEASURE_WITH_UNIT (LENGTH_MEASURE( 1.000000000000000082E-05 ), #338, 'distance_accuracy_value', 'NONE');
#38 = PLANE ( 'NONE',  #242 ) ;
#39 = LINE ( 'NONE', #62, #362 ) ;
#40 = CIRCLE ( 'NONE', #88, 3.000000000000000000 ) ;
#41 = DIRECTION ( 'NONE',  ( 0.000000000000000000, 0.000000000000000000, -1.000000000000000000 ) ) ;
#42 = CARTESIAN_POINT ( 'NONE',  ( 3.061616997868383141E-16, 0.000000000000000000, 2.000000000000000000 ) ) ;
#43 = FACE_OUTER_BOUND ( 'NONE', #26, .T. ) ;
#44 = CIRCLE ( 'NONE', #166, 3.000000000000000000 ) ;
#45 = SURFACE_STYLE_FILL_AREA ( #276 ) ;
#46 = COLOUR_RGB ( '',0.7921568627450980005, 0.8196078431372548767, 0.9333333333333333481 ) ;
#47 = SURFACE_SIDE_STYLE ('',( #274 ) ) ;
#48 = DIRECTION ( 'NONE',  ( 1.000000000000000000, 0.000000000000000000, -1.224646799147353207E-16 ) ) ;
#49 = DIRECTION ( 'NONE',  ( -1.000000000000000000, 0.000000000000000000, 0.000000000000000000 ) ) ;
#50 =( NAMED_UNIT ( * ) PLANE_ANGLE_UNIT ( ) SI_UNIT ( $, .RADIAN. ) );
#51 = COLOUR_RGB ( '',1.000000000000000000, 0.000000000000000000, 0.000000000000000000 ) ;
#52 = EDGE_LOOP ( 'NONE', ( #198, #114 ) ) ;
#53 = CARTESIAN_POINT ( 'NONE',  ( 0.000000000000000000, 0.000000000000000000, 0.000000000000000000 ) ) ;
#54 = MECHANICAL_DESIGN_GEOMETRIC_PRESENTATION_REPRESENTATION (  '', ( #281 ), #249 ) ;
#55 = ORIENTED_EDGE ( 'NONE', *, *, #303, .F. ) ;
#56 = EDGE_CURVE ( 'NONE', #58, #92, #184, .T. ) ;
#57 = FACE_OUTER_BOUND ( 'NONE', #318, .T. ) ;
#58 = VERTEX_POINT ( 'NONE', #42 ) ;
#59 = COLOUR_RGB ( '',1.000000000000000000, 0.000000000000000000, 0.000000000000000000 ) ;
#60 = VERTEX_POINT ( 'NONE', #151 ) ;
#61 = VERTEX_POINT ( 'NONE', #13 ) ;
#62 = CARTESIAN_POINT ( 'NONE',  ( 3.673940397442059868E-16, 0.000000000000000000, 3.000000000000000000 ) ) ;
#63 = UNCERTAINTY_MEASURE_WITH_UNIT (LENGTH_MEASURE( 1.000000000000000082E-05 ), #278, 'distance_accuracy_value', 'NONE');
#64 = DIRECTION ( 'NONE',  ( -0.000000000000000000, -1.000000000000000000, -0.000000000000000000 ) ) ;
#65 = COLOUR_RGB ( '',1.000000000000000000, 0.000000000000000000, 0.000000000000000000 ) ;
#66 = SURFACE_STYLE_USAGE ( .BOTH. , #357 ) ;
#67 = EDGE_CURVE ( 'NONE', #92, #58, #25, .T. ) ;
#68 = ORIENTED_EDGE ( 'NONE', *, *, #97, .T. ) ;
#69 = UNCERTAINTY_MEASURE_WITH_UNIT (LENGTH_MEASURE( 1.000000000000000082E-05 ), #263, 'distance_accuracy_value', 'NONE');
#70 = DIRECTION ( 'NONE',  ( -0.000000000000000000, -1.000000000000000000, -0.000000000000000000 ) ) ;
#71 = FACE_OUTER_BOUND ( 'NONE', #52, .T. ) ;
#72 = CARTESIAN_POINT ( 'NONE',  ( 0.000000000000000000, 1.000000000000000000, -2.000000000000000000 ) ) ;
#73 = AXIS2_PLACEMENT_3D ( 'NONE', #266, #272, #208 ) ;
#74 = DIRECTION ( 'NONE',  ( -0.000000000000000000, -1.000000000000000000, -0.000000000000000000 ) ) ;
#75 = DIRECTION ( 'NONE',  ( -1.203932746194552959E-16, 1.000000000000000000, 0.000000000000000000 ) ) ;
#76 = MECHANICAL_DESIGN_GEOMETRIC_PRESENTATION_REPRESENTATION (  '', ( #279 ), #167 ) ;
#77 = DIRECTION ( 'NONE',  ( 0.000000000000000000, 0.000000000000000000, -1.000000000000000000 ) ) ;
#78 = CIRCLE ( 'NONE', #164, 1.000000000000000000 ) ;
#79 = SURFACE_STYLE_USAGE ( .BOTH. , #368 ) ;
#80 = ORIENTED_EDGE ( 'NONE', *, *, #3, .T. ) ;
#81 = VERTEX_POINT ( 'NONE', #293 ) ;
#82 = FILL_AREA_STYLE_COLOUR ( '', #205 ) ;
#83 = APPLICATION_CONTEXT ( 'automotive_design' ) ;
#84 = DIRECTION ( 'NONE',  ( -0.000000000000000000, -1.000000000000000000, -0.000000000000000000 ) ) ;
#85 = AXIS2_PLACEMENT_3D ( 'NONE', #291, #328, #5 ) ;
#86 = MECHANICAL_DESIGN_GEOMETRIC_PRESENTATION_REPRESENTATION (  '', ( #223 ), #1 ) ;
#87 = ORIENTED_EDGE ( 'NONE', *, *, #252, .T. ) ;
#88 = AXIS2_PLACEMENT_3D ( 'NONE', #280, #340, #41 ) ;
#89 = SURFACE_STYLE_USAGE ( .BOTH. , #7 ) ;
#90 =( GEOMETRIC_REPRESENTATION_CONTEXT ( 3 ) GLOBAL_UNCERTAINTY_ASSIGNED_CONTEXT ( ( #63 ) ) GLOBAL_UNIT_ASSIGNED_CONTEXT ( ( #278, #133, #363 ) ) REPRESENTATION_CONTEXT ( 'NONE', 'WORKASPACE' ) );
#91 = CARTESIAN_POINT ( 'NONE',  ( 2.999999999999996891, 63.00000000000000000, 3.673940397442052472E-16 ) ) ;
#92 = VERTEX_POINT ( 'NONE', #296 ) ;
#93 = FILL_AREA_STYLE_COLOUR ( '', #51 ) ;
#94 = CYLINDRICAL_SURFACE ( 'NONE', #247, 2.999999999999993783 ) ;
#95 = PRESENTATION_STYLE_ASSIGNMENT (( #66 ) ) ;
#96 = FILL_AREA_STYLE ('',( #119 ) ) ;
#97 = EDGE_CURVE ( 'NONE', #154, #81, #287, .T. ) ;
#98 = FILL_AREA_STYLE_COLOUR ( '', #59 ) ;
#99 = SURFACE_STYLE_USAGE ( .BOTH. , #237 ) ;
#100 = PRESENTATION_LAYER_ASSIGNMENT (  '', '', ( #20 ) ) ;
#101 = DIRECTION ( 'NONE',  ( -1.000000000000000000, 0.000000000000000000, 0.000000000000000000 ) ) ;
#102 = PRODUCT_DEFINITION_CONTEXT ( 'detailed design', #83, 'design' ) ;
#103 = FACE_OUTER_BOUND ( 'NONE', #2, .T. ) ;
#104 =( NAMED_UNIT ( * ) PLANE_ANGLE_UNIT ( ) SI_UNIT ( $, .RADIAN. ) );
#105 = DIRECTION ( 'NONE',  ( -1.000000000000000000, -1.203932746194552959E-16, 0.000000000000000000 ) ) ;
#106 = VECTOR ( 'NONE', #201, 1000.000000000000000 ) ;
#107 = DIRECTION ( 'NONE',  ( -1.224646799147353207E-16, 0.000000000000000000, -1.000000000000000000 ) ) ;
#108 = EDGE_CURVE ( 'NONE', #81, #286, #244, .T. ) ;
#109 = APPLICATION_PROTOCOL_DEFINITION ( 'draft international standard', 'automotive_design', 1998, #83 ) ;
#110 = ORIENTED_EDGE ( 'NONE', *, *, #122, .F. ) ;
#111 = ORIENTED_EDGE ( 'NONE', *, *, #108, .F. ) ;
#112 =( LENGTH_UNIT ( ) NAMED_UNIT ( * ) SI_UNIT ( .MILLI., .METRE. ) );
#113 = TOROIDAL_SURFACE ( 'NONE', #162, 2.000000000000000000, 1.000000000000000000 ) ;
#114 = ORIENTED_EDGE ( 'NONE', *, *, #56, .T. ) ;
#115 = CARTESIAN_POINT ( 'NONE',  ( 3.184081677783117402E-15, 63.00000000000000000, 0.000000000000000000 ) ) ;
#116 = ORIENTED_EDGE ( 'NONE', *, *, #159, .T. ) ;
#117 = EDGE_LOOP ( 'NONE', ( #30, #289, #55, #111 ) ) ;
#118 = DIRECTION ( 'NONE',  ( -1.000000000000000000, 0.000000000000000000, 0.000000000000000000 ) ) ;
#119 = FILL_AREA_STYLE_COLOUR ( '', #319 ) ;
#120 = FACE_OUTER_BOUND ( 'NONE', #234, .T. ) ;
#121 = PRESENTATION_STYLE_ASSIGNMENT (( #99 ) ) ;
#122 = EDGE_CURVE ( 'NONE', #60, #257, #44, .T. ) ;
#123 = DIRECTION ( 'NONE',  ( -1.000000000000000000, 0.000000000000000000, 0.000000000000000000 ) ) ;
#124 = CARTESIAN_POINT ( 'NONE',  ( -2.999999999999991118, 63.00000000000000000, 0.000000000000000000 ) ) ;
#125 = AXIS2_PLACEMENT_3D ( 'NONE', #72, #49, #284 ) ;
#126 = PRESENTATION_STYLE_ASSIGNMENT (( #132 ) ) ;
#127 = PLANE ( 'NONE',  #136 ) ;
#128 = SURFACE_STYLE_USAGE ( .BOTH. , #18 ) ;
#129 =( NAMED_UNIT ( * ) SI_UNIT ( $, .STERADIAN. ) SOLID_ANGLE_UNIT ( ) );
#130 = EDGE_CURVE ( 'NONE', #226, #344, #10, .T. ) ;
#131 = STYLED_ITEM ( 'NONE', ( #121 ), #185 ) ;
#132 = SURFACE_STYLE_USAGE ( .BOTH. , #47 ) ;
#133 =( NAMED_UNIT ( * ) PLANE_ANGLE_UNIT ( ) SI_UNIT ( $, .RADIAN. ) );
#134 = FILL_AREA_STYLE_COLOUR ( '', #46 ) ;
#135 = AXIS2_PLACEMENT_3D ( 'NONE', #186, #74, #157 ) ;
#136 = AXIS2_PLACEMENT_3D ( 'NONE', #220, #310, #77 ) ;
#137 = ORIENTED_EDGE ( 'NONE', *, *, #214, .T. ) ;
#138 = DIRECTION ( 'NONE',  ( 0.000000000000000000, 0.000000000000000000, 1.000000000000000000 ) ) ;
#139 = PRODUCT_DEFINITION_FORMATION_WITH_SPECIFIED_SOURCE ( 'ANY', '', #141, .NOT_KNOWN. ) ;
#140 = MECHANICAL_DESIGN_GEOMETRIC_PRESENTATION_REPRESENTATION (  '', ( #131 ), #175 ) ;
#141 = PRODUCT ( '59730', '59730', '', ( #21 ) ) ;
#142 = CARTESIAN_POINT ( 'NONE',  ( 0.000000000000000000, 12.00000000000000000, 0.000000000000000000 ) ) ;
#143 = CLOSED_SHELL ( 'NONE', ( #19, #275, #295, #225 ) ) ;
#144 = ORIENTED_EDGE ( 'NONE', *, *, #147, .T. ) ;
#145 = PRESENTATION_LAYER_ASSIGNMENT (  '', '', ( #197 ) ) ;
#146 =( NAMED_UNIT ( * ) PLANE_ANGLE_UNIT ( ) SI_UNIT ( $, .RADIAN. ) );
#147 = EDGE_CURVE ( 'NONE', #61, #286, #356, .T. ) ;
#148 = CARTESIAN_POINT ( 'NONE',  ( 0.000000000000000000, 12.00000000000000000, 0.000000000000000000 ) ) ;
#149 = CARTESIAN_POINT ( 'NONE',  ( 0.000000000000000000, 1.000000000000000000, 0.000000000000000000 ) ) ;
#150 = CARTESIAN_POINT ( 'NONE',  ( 0.000000000000000000, 12.00000000000000000, 0.000000000000000000 ) ) ;
#151 = CARTESIAN_POINT ( 'NONE',  ( 0.000000000000000000, 12.00000000000000000, -3.000000000000000000 ) ) ;
#152 = DIRECTION ( 'NONE',  ( -0.000000000000000000, -1.000000000000000000, -0.000000000000000000 ) ) ;
#153 = MECHANICAL_DESIGN_GEOMETRIC_PRESENTATION_REPRESENTATION (  '', ( #20 ), #90 ) ;
#154 = VERTEX_POINT ( 'NONE', #35 ) ;
#155 = EDGE_CURVE ( 'NONE', #154, #61, #353, .T. ) ;
#156 = FILL_AREA_STYLE_COLOUR ( '', #181 ) ;
#157 = DIRECTION ( 'NONE',  ( 0.000000000000000000, 0.000000000000000000, -1.000000000000000000 ) ) ;
#158 = FILL_AREA_STYLE ('',( #17 ) ) ;
#159 = EDGE_CURVE ( 'NONE', #60, #344, #358, .T. ) ;
#160 =( NAMED_UNIT ( * ) PLANE_ANGLE_UNIT ( ) SI_UNIT ( $, .RADIAN. ) );
#161 = ADVANCED_BREP_SHAPE_REPRESENTATION ( '59730', ( #185, #317, #211 ), #342 ) ;
#162 = AXIS2_PLACEMENT_3D ( 'NONE', #149, #204, #173 ) ;
#163 = PLANE ( 'NONE',  #354 ) ;
#164 = AXIS2_PLACEMENT_3D ( 'NONE', #251, #48, #107 ) ;
#165 = ORIENTED_EDGE ( 'NONE', *, *, #312, .T. ) ;
#166 = AXIS2_PLACEMENT_3D ( 'NONE', #150, #64, #210 ) ;
#167 =( GEOMETRIC_REPRESENTATION_CONTEXT ( 3 ) GLOBAL_UNCERTAINTY_ASSIGNED_CONTEXT ( ( #271 ) ) GLOBAL_UNIT_ASSIGNED_CONTEXT ( ( #16, #104, #213 ) ) REPRESENTATION_CONTEXT ( 'NONE', 'WORKASPACE' ) );
#168 = ORIENTED_EDGE ( 'NONE', *, *, #130, .T. ) ;
#169 = EDGE_LOOP ( 'NONE', ( #202, #168, #350, #315 ) ) ;
#170 = MECHANICAL_DESIGN_GEOMETRIC_PRESENTATION_REPRESENTATION (  '', ( #365 ), #235 ) ;
#171 = CIRCLE ( 'NONE', #345, 2.999999999999996891 ) ;
#172 = CARTESIAN_POINT ( 'NONE',  ( 0.000000000000000000, 0.000000000000000000, -3.000000000000000000 ) ) ;
#173 = DIRECTION ( 'NONE',  ( 0.000000000000000000, 0.000000000000000000, -1.000000000000000000 ) ) ;
#174 = CARTESIAN_POINT ( 'NONE',  ( 0.000000000000000000, 0.000000000000000000, 0.000000000000000000 ) ) ;
#175 =( GEOMETRIC_REPRESENTATION_CONTEXT ( 3 ) GLOBAL_UNCERTAINTY_ASSIGNED_CONTEXT ( ( #325 ) ) GLOBAL_UNIT_ASSIGNED_CONTEXT ( ( #240, #160, #129 ) ) REPRESENTATION_CONTEXT ( 'NONE', 'WORKASPACE' ) );
#176 = EDGE_LOOP ( 'NONE', ( #165, #87, #27, #199 ) ) ;
#177 = FACE_OUTER_BOUND ( 'NONE', #117, .T. ) ;
#178 = PRESENTATION_LAYER_ASSIGNMENT (  '', '', ( #131 ) ) ;
#179 = DIRECTION ( 'NONE',  ( 0.000000000000000000, 0.000000000000000000, -1.000000000000000000 ) ) ;
#180 = FILL_AREA_STYLE ('',( #307 ) ) ;
#181 = COLOUR_RGB ( '',1.000000000000000000, 0.000000000000000000, 0.000000000000000000 ) ;
#182 = SURFACE_STYLE_FILL_AREA ( #158 ) ;
#183 = CARTESIAN_POINT ( 'NONE',  ( 9.324138683375338132E-15, 12.00000000000000000, 0.000000000000000000 ) ) ;
#184 = CIRCLE ( 'NONE', #32, 2.000000000000000000 ) ;
#185 = MANIFOLD_SOLID_BREP ( 'Revolve - Cutting Edge', #331 ) ;
#186 = CARTESIAN_POINT ( 'NONE',  ( 0.000000000000000000, 1.000000000000000000, 0.000000000000000000 ) ) ;
#187 = MECHANICAL_DESIGN_GEOMETRIC_PRESENTATION_REPRESENTATION (  '', ( #197 ), #288 ) ;
#188 = SURFACE_STYLE_USAGE ( .BOTH. , #339 ) ;
#189 = SURFACE_STYLE_FILL_AREA ( #316 ) ;
#190 =( GEOMETRIC_REPRESENTATION_CONTEXT ( 3 ) GLOBAL_UNCERTAINTY_ASSIGNED_CONTEXT ( ( #245 ) ) GLOBAL_UNIT_ASSIGNED_CONTEXT ( ( #258, #222, #320 ) ) REPRESENTATION_CONTEXT ( 'NONE', 'WORKASPACE' ) );
#191 = ORIENTED_EDGE ( 'NONE', *, *, #312, .F. ) ;
#192 = FILL_AREA_STYLE ('',( #82 ) ) ;
#193 =( LENGTH_UNIT ( ) NAMED_UNIT ( * ) SI_UNIT ( .MILLI., .METRE. ) );
#194 = APPLICATION_CONTEXT ( 'automotive_design' ) ;
#195 = ORIENTED_EDGE ( 'NONE', *, *, #155, .F. ) ;
#196 = ORIENTED_EDGE ( 'NONE', *, *, #122, .T. ) ;
#197 = STYLED_ITEM ( 'NONE', ( #95 ), #306 ) ;
#198 = ORIENTED_EDGE ( 'NONE', *, *, #67, .T. ) ;
#199 = ORIENTED_EDGE ( 'NONE', *, *, #255, .F. ) ;
#200 =( NAMED_UNIT ( * ) SI_UNIT ( $, .STERADIAN. ) SOLID_ANGLE_UNIT ( ) );
#201 = DIRECTION ( 'NONE',  ( -1.203932746194552959E-16, 1.000000000000000000, -0.000000000000000000 ) ) ;
#202 = ORIENTED_EDGE ( 'NONE', *, *, #252, .F. ) ;
#203 = AXIS2_PLACEMENT_3D ( 'NONE', #241, #36, #264 ) ;
#204 = DIRECTION ( 'NONE',  ( -0.000000000000000000, -1.000000000000000000, -0.000000000000000000 ) ) ;
#205 = COLOUR_RGB ( '',1.000000000000000000, 0.000000000000000000, 0.000000000000000000 ) ;
#206 = CARTESIAN_POINT ( 'NONE',  ( 3.184081677783117402E-15, 63.00000000000000000, 0.000000000000000000 ) ) ;
#207 = TOROIDAL_SURFACE ( 'NONE', #135, 2.000000000000000000, 1.000000000000000000 ) ;
#208 = DIRECTION ( 'NONE',  ( -1.000000000000000000, 0.000000000000000000, 0.000000000000000000 ) ) ;
#209 =( NAMED_UNIT ( * ) SI_UNIT ( $, .STERADIAN. ) SOLID_ANGLE_UNIT ( ) );
#210 = DIRECTION ( 'NONE',  ( 0.000000000000000000, 0.000000000000000000, -1.000000000000000000 ) ) ;
#211 = AXIS2_PLACEMENT_3D ( 'NONE', #53, #138, #369 ) ;
#212 = PLANE ( 'NONE',  #221 ) ;
#213 =( NAMED_UNIT ( * ) SI_UNIT ( $, .STERADIAN. ) SOLID_ANGLE_UNIT ( ) );
#214 = EDGE_CURVE ( 'NONE', #257, #60, #300, .T. ) ;
#215 = PRESENTATION_LAYER_ASSIGNMENT (  '', '', ( #281 ) ) ;
#216 = ADVANCED_FACE ( 'NONE', ( #71 ), #127, .T. ) ;
#217 = CARTESIAN_POINT ( 'NONE',  ( 3.673940397442059375E-16, 1.000000000000000000, 3.000000000000000000 ) ) ;
#218 = AXIS2_PLACEMENT_3D ( 'NONE', #15, #233, #123 ) ;
#219 = DIRECTION ( 'NONE',  ( 0.000000000000000000, 0.000000000000000000, -1.000000000000000000 ) ) ;
#220 = CARTESIAN_POINT ( 'NONE',  ( 0.000000000000000000, 0.000000000000000000, 0.000000000000000000 ) ) ;
#221 = AXIS2_PLACEMENT_3D ( 'NONE', #183, #75, #105 ) ;
#222 =( NAMED_UNIT ( * ) PLANE_ANGLE_UNIT ( ) SI_UNIT ( $, .RADIAN. ) );
#223 = STYLED_ITEM ( 'NONE', ( #224 ), #341 ) ;
#224 = PRESENTATION_STYLE_ASSIGNMENT (( #79 ) ) ;
#225 = ADVANCED_FACE ( 'NONE', ( #333 ), #163, .F. ) ;
#226 = VERTEX_POINT ( 'NONE', #217 ) ;
#227 = CARTESIAN_POINT ( 'NONE',  ( 0.000000000000000000, 0.000000000000000000, 0.000000000000000000 ) ) ;
#228 = ORIENTED_EDGE ( 'NONE', *, *, #159, .F. ) ;
#229 = CARTESIAN_POINT ( 'NONE',  ( 0.000000000000000000, 1.000000000000000000, -3.000000000000000000 ) ) ;
#230 =( NAMED_UNIT ( * ) SI_UNIT ( $, .STERADIAN. ) SOLID_ANGLE_UNIT ( ) );
#231 = ORIENTED_EDGE ( 'NONE', *, *, #130, .F. ) ;
#232 = MECHANICAL_DESIGN_GEOMETRIC_PRESENTATION_REPRESENTATION (  '', ( #259 ), #190 ) ;
#233 = DIRECTION ( 'NONE',  ( -1.203932746194552959E-16, 1.000000000000000000, -0.000000000000000000 ) ) ;
#234 = EDGE_LOOP ( 'NONE', ( #195, #68, #361, #321 ) ) ;
#235 =( GEOMETRIC_REPRESENTATION_CONTEXT ( 3 ) GLOBAL_UNCERTAINTY_ASSIGNED_CONTEXT ( ( #37 ) ) GLOBAL_UNIT_ASSIGNED_CONTEXT ( ( #338, #282, #230 ) ) REPRESENTATION_CONTEXT ( 'NONE', 'WORKASPACE' ) );
#236 = FACE_OUTER_BOUND ( 'NONE', #256, .T. ) ;
#237 = SURFACE_SIDE_STYLE ('',( #33 ) ) ;
#238 = AXIS2_PLACEMENT_3D ( 'NONE', #267, #330, #101 ) ;
#239 = SURFACE_STYLE_FILL_AREA ( #329 ) ;
#240 =( LENGTH_UNIT ( ) NAMED_UNIT ( * ) SI_UNIT ( .MILLI., .METRE. ) );
#241 = CARTESIAN_POINT ( 'NONE',  ( 9.324138683375338132E-15, 11.99999999999999645, 0.000000000000000000 ) ) ;
#242 = AXIS2_PLACEMENT_3D ( 'NONE', #142, #301, #336 ) ;
#243 =( NAMED_UNIT ( * ) PLANE_ANGLE_UNIT ( ) SI_UNIT ( $, .RADIAN. ) );
#244 = LINE ( 'NONE', #124, #337 ) ;
#245 = UNCERTAINTY_MEASURE_WITH_UNIT (LENGTH_MEASURE( 1.000000000000000082E-05 ), #258, 'distance_accuracy_value', 'NONE');
#246 = CARTESIAN_POINT ( 'NONE',  ( 3.673940397442059868E-16, 12.00000000000000000, 3.000000000000000000 ) ) ;
#247 = AXIS2_PLACEMENT_3D ( 'NONE', #206, #327, #12 ) ;
#248 = DIRECTION ( 'NONE',  ( 1.000000000000000000, 1.203932746194552959E-16, 0.000000000000000000 ) ) ;
#249 =( GEOMETRIC_REPRESENTATION_CONTEXT ( 3 ) GLOBAL_UNCERTAINTY_ASSIGNED_CONTEXT ( ( #69 ) ) GLOBAL_UNIT_ASSIGNED_CONTEXT ( ( #263, #146, #200 ) ) REPRESENTATION_CONTEXT ( 'NONE', 'WORKASPACE' ) );
#250 = PRESENTATION_STYLE_ASSIGNMENT (( #128 ) ) ;
#251 = CARTESIAN_POINT ( 'NONE',  ( 2.449293598294706414E-16, 1.000000000000000000, 2.000000000000000000 ) ) ;
#252 = EDGE_CURVE ( 'NONE', #226, #58, #78, .T. ) ;
#253 =( NAMED_UNIT ( * ) SI_UNIT ( $, .STERADIAN. ) SOLID_ANGLE_UNIT ( ) );
#254 = AXIS2_PLACEMENT_3D ( 'NONE', #332, #152, #269 ) ;
#255 = EDGE_CURVE ( 'NONE', #344, #92, #334, .T. ) ;
#256 = EDGE_LOOP ( 'NONE', ( #110, #262 ) ) ;
#257 = VERTEX_POINT ( 'NONE', #246 ) ;
#258 =( LENGTH_UNIT ( ) NAMED_UNIT ( * ) SI_UNIT ( .MILLI., .METRE. ) );
#259 = STYLED_ITEM ( 'NONE', ( #311 ), #317 ) ;
#260 = EDGE_LOOP ( 'NONE', ( #347, #144 ) ) ;
#261 = DIRECTION ( 'NONE',  ( -1.203932746194552959E-16, 1.000000000000000000, -0.000000000000000000 ) ) ;
#262 = ORIENTED_EDGE ( 'NONE', *, *, #214, .F. ) ;
#263 =( LENGTH_UNIT ( ) NAMED_UNIT ( * ) SI_UNIT ( .MILLI., .METRE. ) );
#264 = DIRECTION ( 'NONE',  ( -1.000000000000000000, 0.000000000000000000, 0.000000000000000000 ) ) ;
#265 = UNCERTAINTY_MEASURE_WITH_UNIT (LENGTH_MEASURE( 1.000000000000000082E-05 ), #112, 'distance_accuracy_value', 'NONE');
#266 = CARTESIAN_POINT ( 'NONE',  ( 3.184081677783117402E-15, 63.00000000000000000, 0.000000000000000000 ) ) ;
#267 = CARTESIAN_POINT ( 'NONE',  ( 9.324138683375338132E-15, 11.99999999999999645, 0.000000000000000000 ) ) ;
#268 = CARTESIAN_POINT ( 'NONE',  ( 0.000000000000000000, 0.000000000000000000, 0.000000000000000000 ) ) ;
#269 = DIRECTION ( 'NONE',  ( 0.000000000000000000, 0.000000000000000000, -1.000000000000000000 ) ) ;
#270 = PRODUCT_DEFINITION ( 'UNKNOWN', '', #139, #102 ) ;
#271 = UNCERTAINTY_MEASURE_WITH_UNIT (LENGTH_MEASURE( 1.000000000000000082E-05 ), #16, 'distance_accuracy_value', 'NONE');
#272 = DIRECTION ( 'NONE',  ( -1.203932746194552959E-16, 1.000000000000000000, -0.000000000000000000 ) ) ;
#273 = ORIENTED_EDGE ( 'NONE', *, *, #4, .F. ) ;
#274 = SURFACE_STYLE_FILL_AREA ( #180 ) ;
#275 = ADVANCED_FACE ( 'NONE', ( #103 ), #212, .F. ) ;
#276 = FILL_AREA_STYLE ('',( #156 ) ) ;
#277 = AXIS2_PLACEMENT_3D ( 'NONE', #227, #84, #343 ) ;
#278 =( LENGTH_UNIT ( ) NAMED_UNIT ( * ) SI_UNIT ( .MILLI., .METRE. ) );
#279 = STYLED_ITEM ( 'NONE', ( #126 ), #313 ) ;
#280 = CARTESIAN_POINT ( 'NONE',  ( 0.000000000000000000, 1.000000000000000000, 0.000000000000000000 ) ) ;
#281 = STYLED_ITEM ( 'NONE', ( #292 ), #294 ) ;
#282 =( NAMED_UNIT ( * ) PLANE_ANGLE_UNIT ( ) SI_UNIT ( $, .RADIAN. ) );
#283 =( NAMED_UNIT ( * ) PLANE_ANGLE_UNIT ( ) SI_UNIT ( $, .RADIAN. ) );
#284 = DIRECTION ( 'NONE',  ( 0.000000000000000000, 0.000000000000000000, 1.000000000000000000 ) ) ;
#285 = ADVANCED_FACE ( 'NONE', ( #43 ), #305, .T. ) ;
#286 = VERTEX_POINT ( 'NONE', #355 ) ;
#287 = CIRCLE ( 'NONE', #203, 2.999999999999991562 ) ;
#288 =( GEOMETRIC_REPRESENTATION_CONTEXT ( 3 ) GLOBAL_UNCERTAINTY_ASSIGNED_CONTEXT ( ( #34 ) ) GLOBAL_UNIT_ASSIGNED_CONTEXT ( ( #360, #243, #209 ) ) REPRESENTATION_CONTEXT ( 'NONE', 'WORKASPACE' ) );
#289 = ORIENTED_EDGE ( 'NONE', *, *, #155, .T. ) ;
#290 = DIRECTION ( 'NONE',  ( 0.000000000000000000, 0.000000000000000000, -1.000000000000000000 ) ) ;
#291 = CARTESIAN_POINT ( 'NONE',  ( 0.000000000000000000, 0.000000000000000000, 0.000000000000000000 ) ) ;
#292 = PRESENTATION_STYLE_ASSIGNMENT (( #89 ) ) ;
#293 = CARTESIAN_POINT ( 'NONE',  ( -2.999999999999981792, 11.99999999999999645, 0.000000000000000000 ) ) ;
#294 = ADVANCED_FACE ( 'NONE', ( #326 ), #113, .T. ) ;
#295 = ADVANCED_FACE ( 'NONE', ( #120 ), #11, .T. ) ;
#296 = CARTESIAN_POINT ( 'NONE',  ( 0.000000000000000000, 0.000000000000000000, -2.000000000000000000 ) ) ;
#297 = VECTOR ( 'NONE', #324, 1000.000000000000000 ) ;
#298 = DIRECTION ( 'NONE',  ( -0.000000000000000000, -1.000000000000000000, -0.000000000000000000 ) ) ;
#299 = ORIENTED_EDGE ( 'NONE', *, *, #3, .F. ) ;
#300 = CIRCLE ( 'NONE', #14, 3.000000000000000000 ) ;
#301 = DIRECTION ( 'NONE',  ( 0.000000000000000000, 1.000000000000000000, 0.000000000000000000 ) ) ;
#302 = DIRECTION ( 'NONE',  ( 1.203932746194552959E-16, -1.000000000000000000, 0.000000000000000000 ) ) ;
#303 = EDGE_CURVE ( 'NONE', #286, #61, #171, .T. ) ;
#304 = CYLINDRICAL_SURFACE ( 'NONE', #277, 3.000000000000000000 ) ;
#305 = CYLINDRICAL_SURFACE ( 'NONE', #6, 3.000000000000000000 ) ;
#306 = ADVANCED_FACE ( 'NONE', ( #236 ), #38, .T. ) ;
#307 = FILL_AREA_STYLE_COLOUR ( '', #364 ) ;
#308 = CARTESIAN_POINT ( 'NONE',  ( 3.000000000000000000, 63.00000000000000000, 0.000000000000000000 ) ) ;
#309 = PRODUCT_RELATED_PRODUCT_CATEGORY ( 'part', '', ( #141 ) ) ;
#310 = DIRECTION ( 'NONE',  ( 0.000000000000000000, -1.000000000000000000, -0.000000000000000000 ) ) ;
#311 = PRESENTATION_STYLE_ASSIGNMENT (( #28 ) ) ;
#312 = EDGE_CURVE ( 'NONE', #344, #226, #40, .T. ) ;
#313 = ADVANCED_FACE ( 'NONE', ( #366 ), #207, .T. ) ;
#314 = SURFACE_SIDE_STYLE ('',( #189 ) ) ;
#315 = ORIENTED_EDGE ( 'NONE', *, *, #56, .F. ) ;
#316 = FILL_AREA_STYLE ('',( #134 ) ) ;
#317 = MANIFOLD_SOLID_BREP ( 'Revolve - Tool Body (Straight Shanked)', #143 ) ;
#318 = EDGE_LOOP ( 'NONE', ( #299, #137, #116, #231 ) ) ;
#319 = COLOUR_RGB ( '',0.7921568627450980005, 0.8196078431372548767, 0.9333333333333333481 ) ;
#320 =( NAMED_UNIT ( * ) SI_UNIT ( $, .STERADIAN. ) SOLID_ANGLE_UNIT ( ) );
#321 = ORIENTED_EDGE ( 'NONE', *, *, #147, .F. ) ;
#322 = ORIENTED_EDGE ( 'NONE', *, *, #97, .F. ) ;
#323 = SURFACE_STYLE_FILL_AREA ( #352 ) ;
#324 = DIRECTION ( 'NONE',  ( -0.000000000000000000, -1.000000000000000000, -0.000000000000000000 ) ) ;
#325 = UNCERTAINTY_MEASURE_WITH_UNIT (LENGTH_MEASURE( 1.000000000000000082E-05 ), #240, 'distance_accuracy_value', 'NONE');
#326 = FACE_OUTER_BOUND ( 'NONE', #176, .T. ) ;
#327 = DIRECTION ( 'NONE',  ( -1.203932746194552959E-16, 1.000000000000000000, -0.000000000000000000 ) ) ;
#328 = DIRECTION ( 'NONE',  ( -0.000000000000000000, -1.000000000000000000, -0.000000000000000000 ) ) ;
#329 = FILL_AREA_STYLE ('',( #93 ) ) ;
#330 = DIRECTION ( 'NONE',  ( -1.203932746194552959E-16, 1.000000000000000000, -0.000000000000000000 ) ) ;
#331 = CLOSED_SHELL ( 'NONE', ( #285, #294, #216, #313, #341, #306 ) ) ;
#332 = CARTESIAN_POINT ( 'NONE',  ( 0.000000000000000000, 1.000000000000000000, 0.000000000000000000 ) ) ;
#333 = FACE_OUTER_BOUND ( 'NONE', #260, .T. ) ;
#334 = CIRCLE ( 'NONE', #125, 1.000000000000000000 ) ;
#335 = DIRECTION ( 'NONE',  ( -0.000000000000000000, -1.000000000000000000, -0.000000000000000000 ) ) ;
#336 = DIRECTION ( 'NONE',  ( 0.000000000000000000, -0.000000000000000000, 1.000000000000000000 ) ) ;
#337 = VECTOR ( 'NONE', #8, 1000.000000000000000 ) ;
#338 =( LENGTH_UNIT ( ) NAMED_UNIT ( * ) SI_UNIT ( .MILLI., .METRE. ) );
#339 = SURFACE_SIDE_STYLE ('',( #182 ) ) ;
#340 = DIRECTION ( 'NONE',  ( -0.000000000000000000, -1.000000000000000000, -0.000000000000000000 ) ) ;
#341 = ADVANCED_FACE ( 'NONE', ( #57 ), #304, .T. ) ;
#342 =( GEOMETRIC_REPRESENTATION_CONTEXT ( 3 ) GLOBAL_UNCERTAINTY_ASSIGNED_CONTEXT ( ( #9 ) ) GLOBAL_UNIT_ASSIGNED_CONTEXT ( ( #193, #283, #29 ) ) REPRESENTATION_CONTEXT ( 'NONE', 'WORKASPACE' ) );
#343 = DIRECTION ( 'NONE',  ( 0.000000000000000000, 0.000000000000000000, -1.000000000000000000 ) ) ;
#344 = VERTEX_POINT ( 'NONE', #229 ) ;
#345 = AXIS2_PLACEMENT_3D ( 'NONE', #115, #261, #118 ) ;
#346 = SHAPE_DEFINITION_REPRESENTATION ( #31, #161 ) ;
#347 = ORIENTED_EDGE ( 'NONE', *, *, #303, .T. ) ;
#348 = CIRCLE ( 'NONE', #238, 2.999999999999991562 ) ;
#349 = PRESENTATION_LAYER_ASSIGNMENT (  '', '', ( #223 ) ) ;
#350 = ORIENTED_EDGE ( 'NONE', *, *, #255, .T. ) ;
#351 = PRESENTATION_LAYER_ASSIGNMENT (  '', '', ( #259 ) ) ;
#352 = FILL_AREA_STYLE ('',( #98 ) ) ;
#353 = LINE ( 'NONE', #91, #106 ) ;
#354 = AXIS2_PLACEMENT_3D ( 'NONE', #308, #302, #248 ) ;
#355 = CARTESIAN_POINT ( 'NONE',  ( -2.999999999999993783, 63.00000000000000000, 0.000000000000000000 ) ) ;
#356 = CIRCLE ( 'NONE', #218, 2.999999999999996891 ) ;
#357 = SURFACE_SIDE_STYLE ('',( #239 ) ) ;
#358 = LINE ( 'NONE', #172, #297 ) ;
#359 = DIRECTION ( 'NONE',  ( -0.000000000000000000, -1.000000000000000000, -0.000000000000000000 ) ) ;
#360 =( LENGTH_UNIT ( ) NAMED_UNIT ( * ) SI_UNIT ( .MILLI., .METRE. ) );
#361 = ORIENTED_EDGE ( 'NONE', *, *, #108, .T. ) ;
#362 = VECTOR ( 'NONE', #70, 1000.000000000000000 ) ;
#363 =( NAMED_UNIT ( * ) SI_UNIT ( $, .STERADIAN. ) SOLID_ANGLE_UNIT ( ) );
#364 = COLOUR_RGB ( '',1.000000000000000000, 0.000000000000000000, 0.000000000000000000 ) ;
#365 = STYLED_ITEM ( 'NONE', ( #250 ), #285 ) ;
#366 = FACE_OUTER_BOUND ( 'NONE', #169, .T. ) ;
#367 = PRESENTATION_STYLE_ASSIGNMENT (( #188 ) ) ;
#368 = SURFACE_SIDE_STYLE ('',( #370 ) ) ;
#369 = DIRECTION ( 'NONE',  ( 1.000000000000000000, 0.000000000000000000, 0.000000000000000000 ) ) ;
#370 = SURFACE_STYLE_FILL_AREA ( #192 ) ;
ENDSEC;
END-ISO-10303-21;
