ISO-10303-21;
HEADER;
FILE_DESCRIPTION (( 'STEP AP214' ),
    '1' );
FILE_NAME ('Micro_SD-156.STEP',
    '2021-09-02T13:23:07',
    ( '' ),
    ( '' ),
    'SwSTEP 2.0',
    'SolidWorks 2020',
    '' );
FILE_SCHEMA (( 'AUTOMOTIVE_DESIGN' ));
ENDSEC;

DATA;
#1 = LINE ( 'NONE', #99, #20 ) ;
#2 = ADVANCED_FACE ( 'NONE', ( #64 ), #200, .T. ) ;
#3 = LINE ( 'NONE', #212, #76 ) ;
#4 = MECHANICAL_DESIGN_GEOMETRIC_PRESENTATION_REPRESENTATION (  '', ( #27 ), #126 ) ;
#5 = ORIENTED_EDGE ( 'NONE', *, *, #310, .F. ) ;
#6 = AXIS2_PLACEMENT_3D ( 'NONE', #273, #153, #22 ) ;
#7 = DIRECTION ( 'NONE',  ( -0.7071067811865497932, 8.659560562354959975E-17, 0.7071067811865451302 ) ) ;
#8 = AXIS2_PLACEMENT_3D ( 'NONE', #265, #42, #124 ) ;
#9 = LINE ( 'NONE', #113, #182 ) ;
#10 = EDGE_LOOP ( 'NONE', ( #168, #171 ) ) ;
#11 = CONICAL_SURFACE ( 'NONE', #242, 0.06309999999999993392, 0.7853981633974517207 ) ;
#12 = ADVANCED_BREP_SHAPE_REPRESENTATION ( 'Micro_SD-156', ( #274, #117 ), #198 ) ;
#13 = CARTESIAN_POINT ( 'NONE',  ( 0.0000000000000000000, 0.0000000000000000000, 0.0000000000000000000 ) ) ;
#14 = ADVANCED_FACE ( 'NONE', ( #166 ), #314, .T. ) ;
#15 = PRESENTATION_STYLE_ASSIGNMENT (( #167 ) ) ;
#16 = ORIENTED_EDGE ( 'NONE', *, *, #267, .T. ) ;
#17 = LENGTH_MEASURE_WITH_UNIT ( LENGTH_MEASURE( 0.02539999999999999897 ), #193 );
#18 = VERTEX_POINT ( 'NONE', #92 ) ;
#19 = CARTESIAN_POINT ( 'NONE',  ( 0.06309999999999993392, 7.727521302619790255E-18, 2.000000000000000000 ) ) ;
#20 = VECTOR ( 'NONE', #207, 39.37007874015748854 ) ;
#21 = CARTESIAN_POINT ( 'NONE',  ( 0.0000000000000000000, 0.0000000000000000000, 0.04689717131510079406 ) ) ;
#22 = DIRECTION ( 'NONE',  ( 1.000000000000000000, 0.0000000000000000000, 0.0000000000000000000 ) ) ;
#23 = CARTESIAN_POINT ( 'NONE',  ( -0.07805000000000000826, 0.0000000000000000000, 0.04689717131510079406 ) ) ;
#24 = CIRCLE ( 'NONE', #278, 0.07810000000000001663 ) ;
#25 = DIRECTION ( 'NONE',  ( -0.0000000000000000000, -0.0000000000000000000, -1.000000000000000000 ) ) ;
#26 = AXIS2_PLACEMENT_3D ( 'NONE', #283, #262, #60 ) ;
#27 = STYLED_ITEM ( 'NONE', ( #15 ), #12 ) ;
#28 = FACE_OUTER_BOUND ( 'NONE', #221, .T. ) ;
#29 = DIRECTION ( 'NONE',  ( -0.0000000000000000000, -0.0000000000000000000, -1.000000000000000000 ) ) ;
#30 = ORIENTED_EDGE ( 'NONE', *, *, #121, .T. ) ;
#31 = CIRCLE ( 'NONE', #263, 0.07805000000000000826 ) ;
#32 = ORIENTED_EDGE ( 'NONE', *, *, #108, .T. ) ;
#33 = UNCERTAINTY_MEASURE_WITH_UNIT (LENGTH_MEASURE( 1.000000000000000082E-05 ), #288, 'distance_accuracy_value', 'NONE');
#34 = DIRECTION ( 'NONE',  ( -1.000000000000000000, 0.0000000000000000000, 0.0000000000000000000 ) ) ;
#35 = ADVANCED_FACE ( 'NONE', ( #199 ), #93, .T. ) ;
#36 = LENGTH_MEASURE_WITH_UNIT ( LENGTH_MEASURE( 0.02539999999999999897 ), #116 );
#37 = VERTEX_POINT ( 'NONE', #309 ) ;
#38 = VECTOR ( 'NONE', #259, 39.37007874015748143 ) ;
#39 = DIRECTION ( 'NONE',  ( -0.0000000000000000000, -0.0000000000000000000, -1.000000000000000000 ) ) ;
#40 = EDGE_CURVE ( 'NONE', #269, #194, #316, .T. ) ;
#41 = DIRECTION ( 'NONE',  ( 1.000000000000000000, 0.0000000000000000000, 0.0000000000000000000 ) ) ;
#42 = DIRECTION ( 'NONE',  ( -0.0000000000000000000, -0.0000000000000000000, -1.000000000000000000 ) ) ;
#43 = DIRECTION ( 'NONE',  ( 0.0000000000000000000, 0.0000000000000000000, 1.000000000000000000 ) ) ;
#44 = CARTESIAN_POINT ( 'NONE',  ( 0.0000000000000000000, 0.0000000000000000000, 2.000000000000000000 ) ) ;
#45 = VECTOR ( 'NONE', #319, 39.37007874015748143 ) ;
#46 = CARTESIAN_POINT ( 'NONE',  ( -0.06309999999999993392, 0.0000000000000000000, 2.000000000000000000 ) ) ;
#47 = EDGE_CURVE ( 'NONE', #37, #174, #31, .T. ) ;
#48 = DIRECTION ( 'NONE',  ( 0.0000000000000000000, 0.0000000000000000000, 1.000000000000000000 ) ) ;
#49 = EDGE_CURVE ( 'NONE', #146, #79, #251, .T. ) ;
#50 = CARTESIAN_POINT ( 'NONE',  ( -0.07805000000000003602, 9.561429884342963953E-18, 0.4889999999999999347 ) ) ;
#51 = CONICAL_SURFACE ( 'NONE', #141, 0.06309999999999993392, 0.7853981633974517207 ) ;
#52 = AXIS2_PLACEMENT_3D ( 'NONE', #289, #270, #219 ) ;
#53 = DIMENSIONAL_EXPONENTS ( 1.000000000000000000, 0.0000000000000000000, 0.0000000000000000000, 0.0000000000000000000, 0.0000000000000000000, 0.0000000000000000000, 0.0000000000000000000 ) ;
#54 = CARTESIAN_POINT ( 'NONE',  ( -0.06309999999999993392, 0.0000000000000000000, 2.000000000000000000 ) ) ;
#55 = ORIENTED_EDGE ( 'NONE', *, *, #49, .T. ) ;
#56 = DIRECTION ( 'NONE',  ( -0.0000000000000000000, -0.0000000000000000000, -1.000000000000000000 ) ) ;
#57 = PRODUCT_DEFINITION_FORMATION_WITH_SPECIFIED_SOURCE ( 'ANY', '', #296, .NOT_KNOWN. ) ;
#58 = FACE_OUTER_BOUND ( 'NONE', #187, .T. ) ;
#59 = EDGE_CURVE ( 'NONE', #68, #234, #24, .T. ) ;
#60 = DIRECTION ( 'NONE',  ( 1.000000000000000000, 0.0000000000000000000, 0.0000000000000000000 ) ) ;
#61 = ORIENTED_EDGE ( 'NONE', *, *, #72, .T. ) ;
#62 =( NAMED_UNIT ( * ) PLANE_ANGLE_UNIT ( ) SI_UNIT ( $, .RADIAN. ) );
#63 = VECTOR ( 'NONE', #134, 39.37007874015748143 ) ;
#64 = FACE_OUTER_BOUND ( 'NONE', #245, .T. ) ;
#65 = SURFACE_STYLE_FILL_AREA ( #241 ) ;
#66 = ORIENTED_EDGE ( 'NONE', *, *, #181, .T. ) ;
#67 = ORIENTED_EDGE ( 'NONE', *, *, #267, .F. ) ;
#68 = VERTEX_POINT ( 'NONE', #127 ) ;
#69 = EDGE_LOOP ( 'NONE', ( #5, #287, #285, #190 ) ) ;
#70 = AXIS2_PLACEMENT_3D ( 'NONE', #298, #56, #164 ) ;
#71 = FACE_OUTER_BOUND ( 'NONE', #214, .T. ) ;
#72 = EDGE_CURVE ( 'NONE', #68, #146, #95, .T. ) ;
#73 = DIRECTION ( 'NONE',  ( 0.0000000000000000000, 0.0000000000000000000, 1.000000000000000000 ) ) ;
#74 = CARTESIAN_POINT ( 'NONE',  ( 0.0000000000000000000, 0.0000000000000000000, 1.985000000000000098 ) ) ;
#75 = CARTESIAN_POINT ( 'NONE',  ( 0.0000000000000000000, 0.0000000000000000000, 0.4890499999999999292 ) ) ;
#76 = VECTOR ( 'NONE', #107, 39.37007874015748854 ) ;
#77 = FILL_AREA_STYLE_COLOUR ( '', #100 ) ;
#78 = APPLICATION_CONTEXT ( 'automotive_design' ) ;
#79 = VERTEX_POINT ( 'NONE', #275 ) ;
#80 = LENGTH_MEASURE_WITH_UNIT ( LENGTH_MEASURE( 0.02539999999999999897 ), #101 );
#81 =( CONVERSION_BASED_UNIT ( 'INCH', #80 ) LENGTH_UNIT ( ) NAMED_UNIT ( #293 ) );
#82 = ADVANCED_FACE ( 'NONE', ( #71 ), #51, .T. ) ;
#83 = AXIS2_PLACEMENT_3D ( 'NONE', #201, #73, #297 ) ;
#84 = CARTESIAN_POINT ( 'NONE',  ( -0.07805000000000002214, 0.0000000000000000000, 0.0000000000000000000 ) ) ;
#85 =( NAMED_UNIT ( * ) SI_UNIT ( $, .STERADIAN. ) SOLID_ANGLE_UNIT ( ) );
#86 = ORIENTED_EDGE ( 'NONE', *, *, #254, .T. ) ;
#87 = ORIENTED_EDGE ( 'NONE', *, *, #49, .F. ) ;
#88 = EDGE_CURVE ( 'NONE', #312, #37, #224, .T. ) ;
#89 = SHAPE_DEFINITION_REPRESENTATION ( #225, #12 ) ;
#90 = ORIENTED_EDGE ( 'NONE', *, *, #257, .F. ) ;
#91 = SURFACE_SIDE_STYLE ('',( #65 ) ) ;
#92 = CARTESIAN_POINT ( 'NONE',  ( 0.07805000000000003602, 0.0000000000000000000, 0.4889999999999999347 ) ) ;
#93 = CYLINDRICAL_SURFACE ( 'NONE', #52, 0.07810000000000001663 ) ;
#94 = ADVANCED_FACE ( 'NONE', ( #277 ), #184, .T. ) ;
#95 = LINE ( 'NONE', #250, #158 ) ;
#96 = CARTESIAN_POINT ( 'NONE',  ( 0.07810000000000001663, 9.564491501340829864E-18, 0.4890499999999999292 ) ) ;
#97 = PLANE ( 'NONE',  #233 ) ;
#98 = DIRECTION ( 'NONE',  ( -0.0000000000000000000, -0.0000000000000000000, -1.000000000000000000 ) ) ;
#99 = CARTESIAN_POINT ( 'NONE',  ( 0.07805000000000003602, 0.0000000000000000000, 0.4889999999999999347 ) ) ;
#100 = COLOUR_RGB ( '',0.7921568627450980005, 0.8196078431372548767, 0.9333333333333333481 ) ;
#101 =( LENGTH_UNIT ( ) NAMED_UNIT ( * ) SI_UNIT ( $, .METRE. ) );
#102 = ORIENTED_EDGE ( 'NONE', *, *, #254, .F. ) ;
#103 = CIRCLE ( 'NONE', #192, 0.07805000000000003602 ) ;
#104 =( NAMED_UNIT ( * ) PLANE_ANGLE_UNIT ( ) SI_UNIT ( $, .RADIAN. ) );
#105 = VERTEX_POINT ( 'NONE', #50 ) ;
#106 = EDGE_CURVE ( 'NONE', #194, #269, #131, .T. ) ;
#107 = DIRECTION ( 'NONE',  ( -0.8571673007021137769, 1.049727191138620298E-16, 0.5150380749100518241 ) ) ;
#108 = EDGE_CURVE ( 'NONE', #269, #68, #321, .T. ) ;
#109 = LINE ( 'NONE', #299, #38 ) ;
#110 = ORIENTED_EDGE ( 'NONE', *, *, #261, .T. ) ;
#111 = AXIS2_PLACEMENT_3D ( 'NONE', #231, #48, #175 ) ;
#112 = VECTOR ( 'NONE', #98, 39.37007874015748143 ) ;
#113 = CARTESIAN_POINT ( 'NONE',  ( -0.07805000000000003602, 9.558368267345098042E-18, 0.4889999999999999347 ) ) ;
#114 = ORIENTED_EDGE ( 'NONE', *, *, #59, .T. ) ;
#115 = CIRCLE ( 'NONE', #26, 0.07810000000000001663 ) ;
#116 =( LENGTH_UNIT ( ) NAMED_UNIT ( * ) SI_UNIT ( $, .METRE. ) );
#117 = AXIS2_PLACEMENT_3D ( 'NONE', #244, #119, #41 ) ;
#118 = ORIENTED_EDGE ( 'NONE', *, *, #185, .F. ) ;
#119 = DIRECTION ( 'NONE',  ( 0.0000000000000000000, 0.0000000000000000000, 1.000000000000000000 ) ) ;
#120 = ORIENTED_EDGE ( 'NONE', *, *, #40, .F. ) ;
#121 = EDGE_CURVE ( 'NONE', #234, #79, #157, .T. ) ;
#122 =( CONVERSION_BASED_UNIT ( 'INCH', #17 ) LENGTH_UNIT ( ) NAMED_UNIT ( #258 ) );
#123 = ORIENTED_EDGE ( 'NONE', *, *, #172, .F. ) ;
#124 = DIRECTION ( 'NONE',  ( -1.000000000000000000, 0.0000000000000000000, 0.0000000000000000000 ) ) ;
#125 = MECHANICAL_DESIGN_GEOMETRIC_PRESENTATION_REPRESENTATION (  '', ( #249 ), #320 ) ;
#126 =( GEOMETRIC_REPRESENTATION_CONTEXT ( 3 ) GLOBAL_UNCERTAINTY_ASSIGNED_CONTEXT ( ( #33 ) ) GLOBAL_UNIT_ASSIGNED_CONTEXT ( ( #288, #173, #85 ) ) REPRESENTATION_CONTEXT ( 'NONE', 'WORKASPACE' ) );
#127 = CARTESIAN_POINT ( 'NONE',  ( 0.07810000000000001663, 9.564491501340829864E-18, 1.985000000000000098 ) ) ;
#128 = DIRECTION ( 'NONE',  ( -1.000000000000000000, 0.0000000000000000000, 0.0000000000000000000 ) ) ;
#129 = DIRECTION ( 'NONE',  ( -1.000000000000000000, 0.0000000000000000000, 0.0000000000000000000 ) ) ;
#130 = FACE_OUTER_BOUND ( 'NONE', #243, .T. ) ;
#131 = CIRCLE ( 'NONE', #304, 0.06309999999999993392 ) ;
#132 = DIRECTION ( 'NONE',  ( 1.000000000000000000, 0.0000000000000000000, 0.0000000000000000000 ) ) ;
#133 = DIRECTION ( 'NONE',  ( 0.0000000000000000000, 0.0000000000000000000, -1.000000000000000000 ) ) ;
#134 = DIRECTION ( 'NONE',  ( -0.0000000000000000000, -0.0000000000000000000, -1.000000000000000000 ) ) ;
#135 =( NAMED_UNIT ( * ) SI_UNIT ( $, .STERADIAN. ) SOLID_ANGLE_UNIT ( ) );
#136 = EDGE_CURVE ( 'NONE', #194, #234, #178, .T. ) ;
#137 = CARTESIAN_POINT ( 'NONE',  ( 0.0000000000000000000, 0.0000000000000000000, 2.000000000000000000 ) ) ;
#138 = PRODUCT_RELATED_PRODUCT_CATEGORY ( 'part', '', ( #296 ) ) ;
#139 = DIRECTION ( 'NONE',  ( 1.000000000000000000, 0.0000000000000000000, 0.0000000000000000000 ) ) ;
#140 = AXIS2_PLACEMENT_3D ( 'NONE', #13, #39, #34 ) ;
#141 = AXIS2_PLACEMENT_3D ( 'NONE', #149, #272, #128 ) ;
#142 = ORIENTED_EDGE ( 'NONE', *, *, #310, .T. ) ;
#143 = ORIENTED_EDGE ( 'NONE', *, *, #136, .T. ) ;
#144 = UNCERTAINTY_MEASURE_WITH_UNIT (LENGTH_MEASURE( 1.000000000000000082E-05 ), #81, 'distance_accuracy_value', 'NONE');
#145 = PRESENTATION_LAYER_ASSIGNMENT (  '', '', ( #249 ) ) ;
#146 = VERTEX_POINT ( 'NONE', #96 ) ;
#147 = ORIENTED_EDGE ( 'NONE', *, *, #322, .F. ) ;
#148 = ORIENTED_EDGE ( 'NONE', *, *, #181, .F. ) ;
#149 = CARTESIAN_POINT ( 'NONE',  ( 0.0000000000000000000, 0.0000000000000000000, 2.000000000000000000 ) ) ;
#150 = PRESENTATION_LAYER_ASSIGNMENT (  '', '', ( #27 ) ) ;
#151 = CONICAL_SURFACE ( 'NONE', #6, 0.07805000000000003602, 0.7853981633974516097 ) ;
#152 = DIRECTION ( 'NONE',  ( 1.000000000000000000, 0.0000000000000000000, 0.0000000000000000000 ) ) ;
#153 = DIRECTION ( 'NONE',  ( 0.0000000000000000000, 0.0000000000000000000, 1.000000000000000000 ) ) ;
#154 = ADVANCED_FACE ( 'NONE', ( #202 ), #97, .T. ) ;
#155 = DIRECTION ( 'NONE',  ( 0.0000000000000000000, 0.0000000000000000000, 1.000000000000000000 ) ) ;
#156 = ADVANCED_FACE ( 'NONE', ( #253 ), #151, .T. ) ;
#157 = LINE ( 'NONE', #291, #112 ) ;
#158 = VECTOR ( 'NONE', #176, 39.37007874015748143 ) ;
#159 = DIRECTION ( 'NONE',  ( -1.000000000000000000, 0.0000000000000000000, 0.0000000000000000000 ) ) ;
#160 = FACE_OUTER_BOUND ( 'NONE', #210, .T. ) ;
#161 = ORIENTED_EDGE ( 'NONE', *, *, #108, .F. ) ;
#162 = CARTESIAN_POINT ( 'NONE',  ( 0.0000000000000000000, 0.0000000000000000000, 0.4890499999999999292 ) ) ;
#163 = SURFACE_STYLE_FILL_AREA ( #186 ) ;
#164 = DIRECTION ( 'NONE',  ( -1.000000000000000000, 0.0000000000000000000, 0.0000000000000000000 ) ) ;
#165 = CONICAL_SURFACE ( 'NONE', #209, 65.52281426576882950, 1.029744258676657198 ) ;
#166 = FACE_OUTER_BOUND ( 'NONE', #69, .T. ) ;
#167 = SURFACE_STYLE_USAGE ( .BOTH. , #91 ) ;
#168 = ORIENTED_EDGE ( 'NONE', *, *, #106, .T. ) ;
#169 =( NAMED_UNIT ( * ) SI_UNIT ( $, .STERADIAN. ) SOLID_ANGLE_UNIT ( ) );
#170 = AXIS2_PLACEMENT_3D ( 'NONE', #237, #238, #159 ) ;
#171 = ORIENTED_EDGE ( 'NONE', *, *, #40, .T. ) ;
#172 = EDGE_CURVE ( 'NONE', #18, #105, #103, .T. ) ;
#173 =( NAMED_UNIT ( * ) PLANE_ANGLE_UNIT ( ) SI_UNIT ( $, .RADIAN. ) );
#174 = VERTEX_POINT ( 'NONE', #23 ) ;
#175 = DIRECTION ( 'NONE',  ( 1.000000000000000000, 0.0000000000000000000, 0.0000000000000000000 ) ) ;
#176 = DIRECTION ( 'NONE',  ( -0.0000000000000000000, -0.0000000000000000000, -1.000000000000000000 ) ) ;
#177 = ADVANCED_FACE ( 'NONE', ( #130 ), #165, .T. ) ;
#178 = LINE ( 'NONE', #46, #45 ) ;
#179 = DIRECTION ( 'NONE',  ( 0.8571673007021137769, 0.0000000000000000000, 0.5150380749100518241 ) ) ;
#180 = CARTESIAN_POINT ( 'NONE',  ( 0.0000000000000000000, 0.0000000000000000000, 0.0000000000000000000 ) ) ;
#181 = EDGE_CURVE ( 'NONE', #18, #146, #1, .T. ) ;
#182 = VECTOR ( 'NONE', #7, 39.37007874015748854 ) ;
#183 = SURFACE_STYLE_USAGE ( .BOTH. , #302 ) ;
#184 = CONICAL_SURFACE ( 'NONE', #83, 0.07805000000000003602, 0.7853981633974516097 ) ;
#185 = EDGE_CURVE ( 'NONE', #105, #18, #292, .T. ) ;
#186 = FILL_AREA_STYLE ('',( #77 ) ) ;
#187 = EDGE_LOOP ( 'NONE', ( #247, #306, #239 ) ) ;
#188 = CARTESIAN_POINT ( 'NONE',  ( 0.0000000000000000000, 0.0000000000000000000, 0.04689717131510079406 ) ) ;
#189 = DIRECTION ( 'NONE',  ( 1.000000000000000000, 0.0000000000000000000, 0.0000000000000000000 ) ) ;
#190 = ORIENTED_EDGE ( 'NONE', *, *, #47, .F. ) ;
#191 = ORIENTED_EDGE ( 'NONE', *, *, #121, .F. ) ;
#192 = AXIS2_PLACEMENT_3D ( 'NONE', #252, #204, #256 ) ;
#193 =( LENGTH_UNIT ( ) NAMED_UNIT ( * ) SI_UNIT ( $, .METRE. ) );
#194 = VERTEX_POINT ( 'NONE', #54 ) ;
#195 = ADVANCED_FACE ( 'NONE', ( #28 ), #11, .T. ) ;
#196 = ORIENTED_EDGE ( 'NONE', *, *, #72, .F. ) ;
#197 = APPLICATION_CONTEXT ( 'automotive_design' ) ;
#198 =( GEOMETRIC_REPRESENTATION_CONTEXT ( 3 ) GLOBAL_UNCERTAINTY_ASSIGNED_CONTEXT ( ( #203 ) ) GLOBAL_UNIT_ASSIGNED_CONTEXT ( ( #122, #62, #169 ) ) REPRESENTATION_CONTEXT ( 'NONE', 'WORKASPACE' ) );
#199 = FACE_OUTER_BOUND ( 'NONE', #216, .T. ) ;
#200 = CYLINDRICAL_SURFACE ( 'NONE', #8, 0.07810000000000001663 ) ;
#201 = CARTESIAN_POINT ( 'NONE',  ( 0.0000000000000000000, 0.0000000000000000000, 0.4889999999999999347 ) ) ;
#202 = FACE_OUTER_BOUND ( 'NONE', #10, .T. ) ;
#203 = UNCERTAINTY_MEASURE_WITH_UNIT (LENGTH_MEASURE( 1.000000000000000082E-05 ), #122, 'distance_accuracy_value', 'NONE');
#204 = DIRECTION ( 'NONE',  ( -0.0000000000000000000, -0.0000000000000000000, -1.000000000000000000 ) ) ;
#205 = DIRECTION ( 'NONE',  ( 1.000000000000000000, 0.0000000000000000000, 0.0000000000000000000 ) ) ;
#206 = PRODUCT_DEFINITION_CONTEXT ( 'detailed design', #197, 'design' ) ;
#207 = DIRECTION ( 'NONE',  ( 0.7071067811865497932, 0.0000000000000000000, 0.7071067811865451302 ) ) ;
#208 = CIRCLE ( 'NONE', #218, 0.07810000000000001663 ) ;
#209 = AXIS2_PLACEMENT_3D ( 'NONE', #230, #323, #205 ) ;
#210 = EDGE_LOOP ( 'NONE', ( #223, #142, #102, #147 ) ) ;
#211 = CARTESIAN_POINT ( 'NONE',  ( 0.0000000000000000000, 0.0000000000000000000, 39.37007874015748143 ) ) ;
#212 = CARTESIAN_POINT ( 'NONE',  ( 0.0000000000000000000, 0.0000000000000000000, 0.0000000000000000000 ) ) ;
#213 = CARTESIAN_POINT ( 'NONE',  ( 0.0000000000000000000, 0.0000000000000000000, 0.0000000000000000000 ) ) ;
#214 = EDGE_LOOP ( 'NONE', ( #120, #32, #317, #307 ) ) ;
#215 = CARTESIAN_POINT ( 'NONE',  ( 0.06309999999999993392, 8.646006401980309289E-18, 2.000000000000000000 ) ) ;
#216 = EDGE_LOOP ( 'NONE', ( #196, #114, #30, #87 ) ) ;
#217 = EDGE_CURVE ( 'NONE', #234, #68, #115, .T. ) ;
#218 = AXIS2_PLACEMENT_3D ( 'NONE', #162, #235, #139 ) ;
#219 = DIRECTION ( 'NONE',  ( -1.000000000000000000, 0.0000000000000000000, 0.0000000000000000000 ) ) ;
#220 = APPLICATION_PROTOCOL_DEFINITION ( 'draft international standard', 'automotive_design', 1998, #78 ) ;
#221 = EDGE_LOOP ( 'NONE', ( #161, #286, #143, #264 ) ) ;
#222 = ORIENTED_EDGE ( 'NONE', *, *, #217, .T. ) ;
#223 = ORIENTED_EDGE ( 'NONE', *, *, #185, .T. ) ;
#224 = LINE ( 'NONE', #180, #229 ) ;
#225 = PRODUCT_DEFINITION_SHAPE ( 'NONE', 'NONE',  #276 ) ;
#226 = DIRECTION ( 'NONE',  ( 0.7071067811865499042, 8.659560562354962440E-17, -0.7071067811865451302 ) ) ;
#227 = DIRECTION ( 'NONE',  ( 1.000000000000000000, 0.0000000000000000000, 0.0000000000000000000 ) ) ;
#228 = CONICAL_SURFACE ( 'NONE', #281, 65.52281426576882950, 1.029744258676657198 ) ;
#229 = VECTOR ( 'NONE', #179, 39.37007874015748854 ) ;
#230 = CARTESIAN_POINT ( 'NONE',  ( 0.0000000000000000000, 0.0000000000000000000, 39.37007874015748143 ) ) ;
#231 = CARTESIAN_POINT ( 'NONE',  ( 0.0000000000000000000, 0.0000000000000000000, 2.000000000000000000 ) ) ;
#232 = DIRECTION ( 'NONE',  ( -1.000000000000000000, 0.0000000000000000000, 0.0000000000000000000 ) ) ;
#233 = AXIS2_PLACEMENT_3D ( 'NONE', #294, #43, #295 ) ;
#234 = VERTEX_POINT ( 'NONE', #282 ) ;
#235 = DIRECTION ( 'NONE',  ( -0.0000000000000000000, -0.0000000000000000000, -1.000000000000000000 ) ) ;
#236 = ADVANCED_FACE ( 'NONE', ( #160 ), #303, .T. ) ;
#237 = CARTESIAN_POINT ( 'NONE',  ( 0.0000000000000000000, 0.0000000000000000000, 0.0000000000000000000 ) ) ;
#238 = DIRECTION ( 'NONE',  ( -0.0000000000000000000, -0.0000000000000000000, -1.000000000000000000 ) ) ;
#239 = ORIENTED_EDGE ( 'NONE', *, *, #47, .T. ) ;
#240 = ADVANCED_FACE ( 'NONE', ( #58 ), #228, .T. ) ;
#241 = FILL_AREA_STYLE ('',( #313 ) ) ;
#242 = AXIS2_PLACEMENT_3D ( 'NONE', #137, #133, #280 ) ;
#243 = EDGE_LOOP ( 'NONE', ( #290, #110, #86 ) ) ;
#244 = CARTESIAN_POINT ( 'NONE',  ( 0.0000000000000000000, 0.0000000000000000000, 0.0000000000000000000 ) ) ;
#245 = EDGE_LOOP ( 'NONE', ( #222, #61, #90, #191 ) ) ;
#246 = AXIS2_PLACEMENT_3D ( 'NONE', #75, #25, #132 ) ;
#247 = ORIENTED_EDGE ( 'NONE', *, *, #261, .F. ) ;
#248 = ORIENTED_EDGE ( 'NONE', *, *, #257, .T. ) ;
#249 = STYLED_ITEM ( 'NONE', ( #279 ), #274 ) ;
#250 = CARTESIAN_POINT ( 'NONE',  ( 0.07810000000000001663, 9.564491501340829864E-18, 2.000000000000000000 ) ) ;
#251 = CIRCLE ( 'NONE', #246, 0.07810000000000001663 ) ;
#252 = CARTESIAN_POINT ( 'NONE',  ( 0.0000000000000000000, 0.0000000000000000000, 0.4889999999999999347 ) ) ;
#253 = FACE_OUTER_BOUND ( 'NONE', #300, .T. ) ;
#254 = EDGE_CURVE ( 'NONE', #174, #37, #315, .T. ) ;
#255 = VECTOR ( 'NONE', #226, 39.37007874015748143 ) ;
#256 = DIRECTION ( 'NONE',  ( -1.000000000000000000, 0.0000000000000000000, 0.0000000000000000000 ) ) ;
#257 = EDGE_CURVE ( 'NONE', #79, #146, #208, .T. ) ;
#258 = DIMENSIONAL_EXPONENTS ( 1.000000000000000000, 0.0000000000000000000, 0.0000000000000000000, 0.0000000000000000000, 0.0000000000000000000, 0.0000000000000000000, 0.0000000000000000000 ) ;
#259 = DIRECTION ( 'NONE',  ( -0.0000000000000000000, -0.0000000000000000000, -1.000000000000000000 ) ) ;
#260 = DIRECTION ( 'NONE',  ( 0.0000000000000000000, 0.0000000000000000000, 1.000000000000000000 ) ) ;
#261 = EDGE_CURVE ( 'NONE', #312, #174, #3, .T. ) ;
#262 = DIRECTION ( 'NONE',  ( 0.0000000000000000000, 0.0000000000000000000, -1.000000000000000000 ) ) ;
#263 = AXIS2_PLACEMENT_3D ( 'NONE', #21, #318, #129 ) ;
#264 = ORIENTED_EDGE ( 'NONE', *, *, #59, .F. ) ;
#265 = CARTESIAN_POINT ( 'NONE',  ( 0.0000000000000000000, 0.0000000000000000000, 2.000000000000000000 ) ) ;
#266 = APPLICATION_PROTOCOL_DEFINITION ( 'draft international standard', 'automotive_design', 1998, #197 ) ;
#267 = EDGE_CURVE ( 'NONE', #105, #79, #9, .T. ) ;
#268 = EDGE_LOOP ( 'NONE', ( #67, #123, #66, #55 ) ) ;
#269 = VERTEX_POINT ( 'NONE', #215 ) ;
#270 = DIRECTION ( 'NONE',  ( -0.0000000000000000000, -0.0000000000000000000, -1.000000000000000000 ) ) ;
#271 = DIRECTION ( 'NONE',  ( 0.0000000000000000000, 0.0000000000000000000, -1.000000000000000000 ) ) ;
#272 = DIRECTION ( 'NONE',  ( 0.0000000000000000000, 0.0000000000000000000, -1.000000000000000000 ) ) ;
#273 = CARTESIAN_POINT ( 'NONE',  ( 0.0000000000000000000, 0.0000000000000000000, 0.4889999999999999347 ) ) ;
#274 = MANIFOLD_SOLID_BREP ( 'Cut-Revolve2', #305 ) ;
#275 = CARTESIAN_POINT ( 'NONE',  ( -0.07810000000000001663, 0.0000000000000000000, 0.4890499999999999292 ) ) ;
#276 = PRODUCT_DEFINITION ( 'UNKNOWN', '', #57, #206 ) ;
#277 = FACE_OUTER_BOUND ( 'NONE', #268, .T. ) ;
#278 = AXIS2_PLACEMENT_3D ( 'NONE', #74, #271, #227 ) ;
#279 = PRESENTATION_STYLE_ASSIGNMENT (( #183 ) ) ;
#280 = DIRECTION ( 'NONE',  ( -1.000000000000000000, 0.0000000000000000000, 0.0000000000000000000 ) ) ;
#281 = AXIS2_PLACEMENT_3D ( 'NONE', #211, #260, #189 ) ;
#282 = CARTESIAN_POINT ( 'NONE',  ( -0.07810000000000001663, 0.0000000000000000000, 1.985000000000000098 ) ) ;
#283 = CARTESIAN_POINT ( 'NONE',  ( 0.0000000000000000000, 0.0000000000000000000, 1.985000000000000098 ) ) ;
#284 = AXIS2_PLACEMENT_3D ( 'NONE', #188, #29, #232 ) ;
#285 = ORIENTED_EDGE ( 'NONE', *, *, #322, .T. ) ;
#286 = ORIENTED_EDGE ( 'NONE', *, *, #106, .F. ) ;
#287 = ORIENTED_EDGE ( 'NONE', *, *, #172, .T. ) ;
#288 =( CONVERSION_BASED_UNIT ( 'INCH', #36 ) LENGTH_UNIT ( ) NAMED_UNIT ( #53 ) );
#289 = CARTESIAN_POINT ( 'NONE',  ( 0.0000000000000000000, 0.0000000000000000000, 2.000000000000000000 ) ) ;
#290 = ORIENTED_EDGE ( 'NONE', *, *, #88, .F. ) ;
#291 = CARTESIAN_POINT ( 'NONE',  ( -0.07810000000000001663, 0.0000000000000000000, 2.000000000000000000 ) ) ;
#292 = CIRCLE ( 'NONE', #70, 0.07805000000000003602 ) ;
#293 = DIMENSIONAL_EXPONENTS ( 1.000000000000000000, 0.0000000000000000000, 0.0000000000000000000, 0.0000000000000000000, 0.0000000000000000000, 0.0000000000000000000, 0.0000000000000000000 ) ;
#294 = CARTESIAN_POINT ( 'NONE',  ( 0.0000000000000000000, 0.0000000000000000000, 2.000000000000000000 ) ) ;
#295 = DIRECTION ( 'NONE',  ( 1.000000000000000000, 0.0000000000000000000, -0.0000000000000000000 ) ) ;
#296 = PRODUCT ( 'Micro_SD-156', 'Micro_SD-156', '', ( #311 ) ) ;
#297 = DIRECTION ( 'NONE',  ( 1.000000000000000000, 0.0000000000000000000, 0.0000000000000000000 ) ) ;
#298 = CARTESIAN_POINT ( 'NONE',  ( 0.0000000000000000000, 0.0000000000000000000, 0.4889999999999999347 ) ) ;
#299 = CARTESIAN_POINT ( 'NONE',  ( 0.07805000000000002214, 9.558368267345093420E-18, 0.0000000000000000000 ) ) ;
#300 = EDGE_LOOP ( 'NONE', ( #118, #16, #248, #148 ) ) ;
#301 = LINE ( 'NONE', #84, #63 ) ;
#302 = SURFACE_SIDE_STYLE ('',( #163 ) ) ;
#303 = CYLINDRICAL_SURFACE ( 'NONE', #170, 0.07805000000000002214 ) ;
#304 = AXIS2_PLACEMENT_3D ( 'NONE', #44, #155, #152 ) ;
#305 = CLOSED_SHELL ( 'NONE', ( #177, #236, #156, #82, #2, #35, #154, #195, #94, #14, #240 ) ) ;
#306 = ORIENTED_EDGE ( 'NONE', *, *, #88, .T. ) ;
#307 = ORIENTED_EDGE ( 'NONE', *, *, #136, .F. ) ;
#308 = COLOUR_RGB ( '',0.7921568627450980005, 0.8196078431372548767, 0.9333333333333333481 ) ;
#309 = CARTESIAN_POINT ( 'NONE',  ( 0.07805000000000000826, 9.558368267345093420E-18, 0.04689717131510079406 ) ) ;
#310 = EDGE_CURVE ( 'NONE', #18, #37, #109, .T. ) ;
#311 = PRODUCT_CONTEXT ( 'NONE', #78, 'mechanical' ) ;
#312 = VERTEX_POINT ( 'NONE', #213 ) ;
#313 = FILL_AREA_STYLE_COLOUR ( '', #308 ) ;
#314 = CYLINDRICAL_SURFACE ( 'NONE', #140, 0.07805000000000002214 ) ;
#315 = CIRCLE ( 'NONE', #284, 0.07805000000000000826 ) ;
#316 = CIRCLE ( 'NONE', #111, 0.06309999999999993392 ) ;
#317 = ORIENTED_EDGE ( 'NONE', *, *, #217, .F. ) ;
#318 = DIRECTION ( 'NONE',  ( -0.0000000000000000000, -0.0000000000000000000, -1.000000000000000000 ) ) ;
#319 = DIRECTION ( 'NONE',  ( -0.7071067811865499042, 0.0000000000000000000, -0.7071067811865451302 ) ) ;
#320 =( GEOMETRIC_REPRESENTATION_CONTEXT ( 3 ) GLOBAL_UNCERTAINTY_ASSIGNED_CONTEXT ( ( #144 ) ) GLOBAL_UNIT_ASSIGNED_CONTEXT ( ( #81, #104, #135 ) ) REPRESENTATION_CONTEXT ( 'NONE', 'WORKASPACE' ) );
#321 = LINE ( 'NONE', #19, #255 ) ;
#322 = EDGE_CURVE ( 'NONE', #105, #174, #301, .T. ) ;
#323 = DIRECTION ( 'NONE',  ( 0.0000000000000000000, 0.0000000000000000000, 1.000000000000000000 ) ) ;
ENDSEC;
END-ISO-10303-21;
