ISO-10303-21;
HEADER;
FILE_DESCRIPTION (( 'STEP AP214' ),
    '1' );
FILE_NAME ('Micro_SFA-156-45.STEP',
    '2021-09-02T03:44:34',
    ( '' ),
    ( '' ),
    'SwSTEP 2.0',
    'SolidWorks 2020',
    '' );
FILE_SCHEMA (( 'AUTOMOTIVE_DESIGN' ));
ENDSEC;

DATA;
#1 = DIRECTION ( 'NONE',  ( 1.224646799147353207E-16, 0.0000000000000000000, 1.000000000000000000 ) ) ;
#2 = DIRECTION ( 'NONE',  ( -1.000000000000000000, 0.0000000000000000000, 0.0000000000000000000 ) ) ;
#3 = PRESENTATION_LAYER_ASSIGNMENT (  '', '', ( #242 ) ) ;
#4 = ADVANCED_FACE ( 'NONE', ( #51 ), #65, .T. ) ;
#5 = DIRECTION ( 'NONE',  ( 1.000000000000000000, 0.0000000000000000000, -0.0000000000000000000 ) ) ;
#6 = DIRECTION ( 'NONE',  ( -1.224646799147353207E-16, -0.0000000000000000000, -1.000000000000000000 ) ) ;
#7 = CARTESIAN_POINT ( 'NONE',  ( -0.07802190000000000514, 0.0000000000000000000, 9.554927009839488851E-18 ) ) ;
#8 = ADVANCED_FACE ( 'NONE', ( #288 ), #263, .F. ) ;
#9 = PRODUCT ( 'Micro_SFA-156-45', 'Micro_SFA-156-45', '', ( #178 ) ) ;
#10 = ORIENTED_EDGE ( 'NONE', *, *, #282, .T. ) ;
#11 = SURFACE_STYLE_FILL_AREA ( #31 ) ;
#12 = ORIENTED_EDGE ( 'NONE', *, *, #133, .T. ) ;
#13 = EDGE_LOOP ( 'NONE', ( #220, #14, #199, #130 ) ) ;
#14 = ORIENTED_EDGE ( 'NONE', *, *, #221, .F. ) ;
#15 = EDGE_LOOP ( 'NONE', ( #61, #194 ) ) ;
#16 = STYLED_ITEM ( 'NONE', ( #219 ), #208 ) ;
#17 = CARTESIAN_POINT ( 'NONE',  ( 7.654042494670957853E-17, 0.0000000000000000000, 0.6250000000000000000 ) ) ;
#18 = DIRECTION ( 'NONE',  ( 0.1736481776669313581, 0.0000000000000000000, 0.9848077530122077983 ) ) ;
#19 = VECTOR ( 'NONE', #147, 39.37007874015748143 ) ;
#20 = DIRECTION ( 'NONE',  ( -0.0000000000000000000, -0.0000000000000000000, -1.000000000000000000 ) ) ;
#21 = PRESENTATION_STYLE_ASSIGNMENT (( #83 ) ) ;
#22 = DIRECTION ( 'NONE',  ( 0.0000000000000000000, 0.0000000000000000000, -1.000000000000000000 ) ) ;
#23 = DIRECTION ( 'NONE',  ( 1.000000000000000000, 0.0000000000000000000, 0.0000000000000000000 ) ) ;
#24 = COLOUR_RGB ( '',0.7921568627450980005, 0.8196078431372548767, 0.9333333333333333481 ) ;
#25 = DIRECTION ( 'NONE',  ( -1.000000000000000000, 0.0000000000000000000, 1.224646799147353207E-16 ) ) ;
#26 = EDGE_CURVE ( 'NONE', #155, #124, #184, .T. ) ;
#27 = DIRECTION ( 'NONE',  ( 0.0000000000000000000, 0.0000000000000000000, 1.000000000000000000 ) ) ;
#28 = FACE_OUTER_BOUND ( 'NONE', #222, .T. ) ;
#29 = CONICAL_SURFACE ( 'NONE', #298, 0.07802189999999999126, 0.1745329251994338637 ) ;
#30 = ORIENTED_EDGE ( 'NONE', *, *, #287, .F. ) ;
#31 = FILL_AREA_STYLE ('',( #215 ) ) ;
#32 = ORIENTED_EDGE ( 'NONE', *, *, #249, .F. ) ;
#33 = ORIENTED_EDGE ( 'NONE', *, *, #92, .T. ) ;
#34 = AXIS2_PLACEMENT_3D ( 'NONE', #255, #47, #23 ) ;
#35 = ORIENTED_EDGE ( 'NONE', *, *, #92, .F. ) ;
#36 = VERTEX_POINT ( 'NONE', #227 ) ;
#37 =( LENGTH_UNIT ( ) NAMED_UNIT ( * ) SI_UNIT ( $, .METRE. ) );
#38 = AXIS2_PLACEMENT_3D ( 'NONE', #233, #91, #193 ) ;
#39 = DIRECTION ( 'NONE',  ( -1.000000000000000000, 0.0000000000000000000, 0.0000000000000000000 ) ) ;
#40 = SURFACE_STYLE_FILL_AREA ( #87 ) ;
#41 = CYLINDRICAL_SURFACE ( 'NONE', #185, 0.07802190000000000514 ) ;
#42 = CIRCLE ( 'NONE', #34, 0.1250000000000000000 ) ;
#43 = CARTESIAN_POINT ( 'NONE',  ( 0.0000000000000000000, 0.0000000000000000000, 2.000000000000000000 ) ) ;
#44 = CARTESIAN_POINT ( 'NONE',  ( 0.1250000000000001110, 1.530808498934192742E-17, 0.8914260444501813652 ) ) ;
#45 = CIRCLE ( 'NONE', #85, 0.1250000000000000000 ) ;
#46 = AXIS2_PLACEMENT_3D ( 'NONE', #119, #6, #48 ) ;
#47 = DIRECTION ( 'NONE',  ( -1.224646799147353207E-16, -0.0000000000000000000, -1.000000000000000000 ) ) ;
#48 = DIRECTION ( 'NONE',  ( -1.000000000000000000, 0.0000000000000000000, 1.224646799147353207E-16 ) ) ;
#49 = DIRECTION ( 'NONE',  ( -0.0000000000000000000, -0.0000000000000000000, -1.000000000000000000 ) ) ;
#50 = AXIS2_PLACEMENT_3D ( 'NONE', #280, #115, #286 ) ;
#51 = FACE_OUTER_BOUND ( 'NONE', #102, .T. ) ;
#52 = AXIS2_PLACEMENT_3D ( 'NONE', #123, #269, #97 ) ;
#53 = EDGE_CURVE ( 'NONE', #155, #36, #45, .T. ) ;
#54 = CARTESIAN_POINT ( 'NONE',  ( 0.0000000000000000000, 0.0000000000000000000, 0.0000000000000000000 ) ) ;
#55 = LENGTH_MEASURE_WITH_UNIT ( LENGTH_MEASURE( 0.02539999999999999897 ), #151 );
#56 = EDGE_LOOP ( 'NONE', ( #217, #131 ) ) ;
#57 = ADVANCED_FACE ( 'NONE', ( #132 ), #41, .T. ) ;
#58 = ORIENTED_EDGE ( 'NONE', *, *, #128, .T. ) ;
#59 = AXIS2_PLACEMENT_3D ( 'NONE', #43, #72, #148 ) ;
#60 = EDGE_CURVE ( 'NONE', #106, #238, #289, .T. ) ;
#61 = ORIENTED_EDGE ( 'NONE', *, *, #249, .T. ) ;
#62 = ADVANCED_FACE ( 'NONE', ( #276 ), #139, .T. ) ;
#63 = CARTESIAN_POINT ( 'NONE',  ( -0.07802190000000000514, 0.0000000000000000000, 1.910985401967897770E-17 ) ) ;
#64 = CARTESIAN_POINT ( 'NONE',  ( 0.0000000000000000000, 0.0000000000000000000, 2.000000000000000000 ) ) ;
#65 = CONICAL_SURFACE ( 'NONE', #180, 0.1099999999999996397, 0.7853981633974426169 ) ;
#66 = CONICAL_SURFACE ( 'NONE', #59, 0.1099999999999996397, 0.7853981633974426169 ) ;
#67 = CARTESIAN_POINT ( 'NONE',  ( 0.1099999999999996397, 1.347111479062084158E-17, 2.000000000000000000 ) ) ;
#68 = LINE ( 'NONE', #162, #275 ) ;
#69 =( NAMED_UNIT ( * ) PLANE_ANGLE_UNIT ( ) SI_UNIT ( $, .RADIAN. ) );
#70 = AXIS2_PLACEMENT_3D ( 'NONE', #171, #256, #5 ) ;
#71 = DIRECTION ( 'NONE',  ( 1.224646799147353207E-16, 0.0000000000000000000, 1.000000000000000000 ) ) ;
#72 = DIRECTION ( 'NONE',  ( 0.0000000000000000000, 0.0000000000000000000, -1.000000000000000000 ) ) ;
#73 = DIRECTION ( 'NONE',  ( -1.224646799147353207E-16, -0.0000000000000000000, -1.000000000000000000 ) ) ;
#74 =( LENGTH_UNIT ( ) NAMED_UNIT ( * ) SI_UNIT ( $, .METRE. ) );
#75 = DIRECTION ( 'NONE',  ( 1.000000000000000000, 0.0000000000000000000, 0.0000000000000000000 ) ) ;
#76 = VECTOR ( 'NONE', #138, 39.37007874015748143 ) ;
#77 = ORIENTED_EDGE ( 'NONE', *, *, #53, .T. ) ;
#78 = ORIENTED_EDGE ( 'NONE', *, *, #163, .F. ) ;
#79 = APPLICATION_PROTOCOL_DEFINITION ( 'draft international standard', 'automotive_design', 1998, #270 ) ;
#80 = ORIENTED_EDGE ( 'NONE', *, *, #128, .F. ) ;
#81 = EDGE_LOOP ( 'NONE', ( #218, #179, #10, #104 ) ) ;
#82 = AXIS2_PLACEMENT_3D ( 'NONE', #54, #279, #141 ) ;
#83 = SURFACE_STYLE_USAGE ( .BOTH. , #157 ) ;
#84 = CARTESIAN_POINT ( 'NONE',  ( 0.0000000000000000000, 0.0000000000000000000, 0.0000000000000000000 ) ) ;
#85 = AXIS2_PLACEMENT_3D ( 'NONE', #161, #206, #246 ) ;
#86 = CIRCLE ( 'NONE', #50, 0.1099999999999996397 ) ;
#87 = FILL_AREA_STYLE ('',( #224 ) ) ;
#88 =( CONVERSION_BASED_UNIT ( 'INCH', #228 ) LENGTH_UNIT ( ) NAMED_UNIT ( #232 ) );
#89 = DIRECTION ( 'NONE',  ( 1.000000000000000000, 0.0000000000000000000, 0.0000000000000000000 ) ) ;
#90 =( GEOMETRIC_REPRESENTATION_CONTEXT ( 3 ) GLOBAL_UNCERTAINTY_ASSIGNED_CONTEXT ( ( #187 ) ) GLOBAL_UNIT_ASSIGNED_CONTEXT ( ( #88, #69, #107 ) ) REPRESENTATION_CONTEXT ( 'NONE', 'WORKASPACE' ) );
#91 = DIRECTION ( 'NONE',  ( -1.224646799147353207E-16, -0.0000000000000000000, -1.000000000000000000 ) ) ;
#92 = EDGE_CURVE ( 'NONE', #265, #36, #297, .T. ) ;
#93 = FACE_OUTER_BOUND ( 'NONE', #13, .T. ) ;
#94 = UNCERTAINTY_MEASURE_WITH_UNIT (LENGTH_MEASURE( 1.000000000000000082E-05 ), #121, 'distance_accuracy_value', 'NONE');
#95 = CARTESIAN_POINT ( 'NONE',  ( -0.1099999999999996397, 0.0000000000000000000, 2.000000000000000000 ) ) ;
#96 = DIRECTION ( 'NONE',  ( -1.224646799147353207E-16, -0.0000000000000000000, -1.000000000000000000 ) ) ;
#97 = DIRECTION ( 'NONE',  ( 1.000000000000000000, 0.0000000000000000000, 0.0000000000000000000 ) ) ;
#98 = PRODUCT_DEFINITION_SHAPE ( 'NONE', 'NONE',  #252 ) ;
#99 = DIRECTION ( 'NONE',  ( -1.000000000000000000, 0.0000000000000000000, 0.0000000000000000000 ) ) ;
#100 = ADVANCED_FACE ( 'NONE', ( #230 ), #29, .T. ) ;
#101 = AXIS2_PLACEMENT_3D ( 'NONE', #84, #299, #183 ) ;
#102 = EDGE_LOOP ( 'NONE', ( #261, #33, #198, #80 ) ) ;
#103 = EDGE_CURVE ( 'NONE', #238, #174, #68, .T. ) ;
#104 = ORIENTED_EDGE ( 'NONE', *, *, #103, .F. ) ;
#105 = VERTEX_POINT ( 'NONE', #63 ) ;
#106 = VERTEX_POINT ( 'NONE', #110 ) ;
#107 =( NAMED_UNIT ( * ) SI_UNIT ( $, .STERADIAN. ) SOLID_ANGLE_UNIT ( ) );
#108 = LINE ( 'NONE', #201, #19 ) ;
#109 = MANIFOLD_SOLID_BREP ( 'Cut-Revolve1', #160 ) ;
#110 = CARTESIAN_POINT ( 'NONE',  ( -0.07802189999999992187, 1.243150599959070043E-17, 0.6250000000000000000 ) ) ;
#111 = CARTESIAN_POINT ( 'NONE',  ( 0.0000000000000000000, 0.0000000000000000000, 0.0000000000000000000 ) ) ;
#112 = DIMENSIONAL_EXPONENTS ( 1.000000000000000000, 0.0000000000000000000, 0.0000000000000000000, 0.0000000000000000000, 0.0000000000000000000, 0.0000000000000000000, 0.0000000000000000000 ) ;
#113 = LINE ( 'NONE', #258, #118 ) ;
#114 = AXIS2_PLACEMENT_3D ( 'NONE', #235, #169, #212 ) ;
#115 = DIRECTION ( 'NONE',  ( 0.0000000000000000000, 0.0000000000000000000, 1.000000000000000000 ) ) ;
#116 = LINE ( 'NONE', #7, #192 ) ;
#117 = FACE_OUTER_BOUND ( 'NONE', #176, .T. ) ;
#118 = VECTOR ( 'NONE', #168, 39.37007874015747433 ) ;
#119 = CARTESIAN_POINT ( 'NONE',  ( 1.170141077868652023E-33, 0.0000000000000000000, 9.554927009839488851E-18 ) ) ;
#120 = ADVANCED_FACE ( 'NONE', ( #200 ), #272, .T. ) ;
#121 =( CONVERSION_BASED_UNIT ( 'INCH', #290 ) LENGTH_UNIT ( ) NAMED_UNIT ( #137 ) );
#122 = CARTESIAN_POINT ( 'NONE',  ( 0.0000000000000000000, 0.0000000000000000000, 2.000000000000000000 ) ) ;
#123 = CARTESIAN_POINT ( 'NONE',  ( 0.0000000000000000000, 0.0000000000000000000, 0.0000000000000000000 ) ) ;
#124 = VERTEX_POINT ( 'NONE', #136 ) ;
#125 = EDGE_CURVE ( 'NONE', #36, #174, #108, .T. ) ;
#126 =( NAMED_UNIT ( * ) PLANE_ANGLE_UNIT ( ) SI_UNIT ( $, .RADIAN. ) );
#127 = ORIENTED_EDGE ( 'NONE', *, *, #150, .T. ) ;
#128 = EDGE_CURVE ( 'NONE', #293, #155, #213, .T. ) ;
#129 = APPLICATION_PROTOCOL_DEFINITION ( 'draft international standard', 'automotive_design', 1998, #205 ) ;
#130 = ORIENTED_EDGE ( 'NONE', *, *, #163, .T. ) ;
#131 = ORIENTED_EDGE ( 'NONE', *, *, #287, .T. ) ;
#132 = FACE_OUTER_BOUND ( 'NONE', #177, .T. ) ;
#133 = EDGE_CURVE ( 'NONE', #36, #155, #145, .T. ) ;
#134 = AXIS2_PLACEMENT_3D ( 'NONE', #274, #204, #296 ) ;
#135 =( GEOMETRIC_REPRESENTATION_CONTEXT ( 3 ) GLOBAL_UNCERTAINTY_ASSIGNED_CONTEXT ( ( #226 ) ) GLOBAL_UNIT_ASSIGNED_CONTEXT ( ( #173, #195, #262 ) ) REPRESENTATION_CONTEXT ( 'NONE', 'WORKASPACE' ) );
#136 = CARTESIAN_POINT ( 'NONE',  ( -0.1249999999999999029, 0.0000000000000000000, 0.8914260444501813652 ) ) ;
#137 = DIMENSIONAL_EXPONENTS ( 1.000000000000000000, 0.0000000000000000000, 0.0000000000000000000, 0.0000000000000000000, 0.0000000000000000000, 0.0000000000000000000, 0.0000000000000000000 ) ;
#138 = DIRECTION ( 'NONE',  ( 0.7071067811865434649, 8.659560562354883554E-17, -0.7071067811865515695 ) ) ;
#139 = CYLINDRICAL_SURFACE ( 'NONE', #101, 0.07802190000000000514 ) ;
#140 = CIRCLE ( 'NONE', #46, 0.07802190000000000514 ) ;
#141 = DIRECTION ( 'NONE',  ( 1.000000000000000000, 0.0000000000000000000, -0.0000000000000000000 ) ) ;
#142 = CARTESIAN_POINT ( 'NONE',  ( 1.170141077868652023E-33, 0.0000000000000000000, 9.554927009839488851E-18 ) ) ;
#143 = DIRECTION ( 'NONE',  ( -0.7071067811865434649, 0.0000000000000000000, -0.7071067811865515695 ) ) ;
#144 = EDGE_CURVE ( 'NONE', #106, #105, #116, .T. ) ;
#145 = CIRCLE ( 'NONE', #181, 0.1250000000000000000 ) ;
#146 = DIRECTION ( 'NONE',  ( 1.000000000000000000, 0.0000000000000000000, 0.0000000000000000000 ) ) ;
#147 = DIRECTION ( 'NONE',  ( -0.0000000000000000000, -0.0000000000000000000, -1.000000000000000000 ) ) ;
#148 = DIRECTION ( 'NONE',  ( -1.000000000000000000, 0.0000000000000000000, 0.0000000000000000000 ) ) ;
#149 =( GEOMETRIC_REPRESENTATION_CONTEXT ( 3 ) GLOBAL_UNCERTAINTY_ASSIGNED_CONTEXT ( ( #94 ) ) GLOBAL_UNIT_ASSIGNED_CONTEXT ( ( #121, #126, #264 ) ) REPRESENTATION_CONTEXT ( 'NONE', 'WORKASPACE' ) );
#150 = EDGE_CURVE ( 'NONE', #238, #267, #281, .T. ) ;
#151 =( LENGTH_UNIT ( ) NAMED_UNIT ( * ) SI_UNIT ( $, .METRE. ) );
#152 = ORIENTED_EDGE ( 'NONE', *, *, #125, .T. ) ;
#153 = ORIENTED_EDGE ( 'NONE', *, *, #144, .F. ) ;
#154 = VECTOR ( 'NONE', #143, 39.37007874015748143 ) ;
#155 = VERTEX_POINT ( 'NONE', #231 ) ;
#156 = EDGE_LOOP ( 'NONE', ( #77, #152, #241, #291 ) ) ;
#157 = SURFACE_SIDE_STYLE ('',( #40 ) ) ;
#158 = EDGE_CURVE ( 'NONE', #106, #124, #113, .T. ) ;
#159 = DIRECTION ( 'NONE',  ( -0.0000000000000000000, -0.0000000000000000000, -1.000000000000000000 ) ) ;
#160 = CLOSED_SHELL ( 'NONE', ( #62, #100, #4, #120, #273, #167, #277, #260, #57, #8 ) ) ;
#161 = CARTESIAN_POINT ( 'NONE',  ( 0.0000000000000000000, 0.0000000000000000000, 1.984999999999999432 ) ) ;
#162 = CARTESIAN_POINT ( 'NONE',  ( 0.07802190000000006065, 0.0000000000000000000, 0.6250000000000000000 ) ) ;
#163 = EDGE_CURVE ( 'NONE', #174, #124, #42, .T. ) ;
#164 = PRODUCT_DEFINITION_CONTEXT ( 'detailed design', #205, 'design' ) ;
#165 = CONICAL_SURFACE ( 'NONE', #214, 0.07802189999999999126, 0.1745329251994338637 ) ;
#166 = CARTESIAN_POINT ( 'NONE',  ( 0.07802190000000000514, 9.554927009839488851E-18, -9.554927009839488851E-18 ) ) ;
#167 = ADVANCED_FACE ( 'NONE', ( #188 ), #254, .T. ) ;
#168 = DIRECTION ( 'NONE',  ( -0.1736481776669311639, 2.126576849575783008E-17, 0.9848077530122080203 ) ) ;
#169 = DIRECTION ( 'NONE',  ( -1.224646799147353207E-16, -0.0000000000000000000, -1.000000000000000000 ) ) ;
#170 = VECTOR ( 'NONE', #211, 39.37007874015748143 ) ;
#171 = CARTESIAN_POINT ( 'NONE',  ( 0.0000000000000000000, 0.0000000000000000000, 2.000000000000000000 ) ) ;
#172 = CARTESIAN_POINT ( 'NONE',  ( 7.654042494670957853E-17, 0.0000000000000000000, 0.6250000000000000000 ) ) ;
#173 =( CONVERSION_BASED_UNIT ( 'INCH', #55 ) LENGTH_UNIT ( ) NAMED_UNIT ( #112 ) );
#174 = VERTEX_POINT ( 'NONE', #44 ) ;
#175 = MECHANICAL_DESIGN_GEOMETRIC_PRESENTATION_REPRESENTATION (  '', ( #242 ), #90 ) ;
#176 = EDGE_LOOP ( 'NONE', ( #35, #32, #58, #245 ) ) ;
#177 = EDGE_LOOP ( 'NONE', ( #240, #182, #197, #30 ) ) ;
#178 = PRODUCT_CONTEXT ( 'NONE', #270, 'mechanical' ) ;
#179 = ORIENTED_EDGE ( 'NONE', *, *, #158, .T. ) ;
#180 = AXIS2_PLACEMENT_3D ( 'NONE', #122, #216, #99 ) ;
#181 = AXIS2_PLACEMENT_3D ( 'NONE', #209, #22, #89 ) ;
#182 = ORIENTED_EDGE ( 'NONE', *, *, #221, .T. ) ;
#183 = DIRECTION ( 'NONE',  ( -1.000000000000000000, 0.0000000000000000000, 1.224646799147353207E-16 ) ) ;
#184 = LINE ( 'NONE', #251, #253 ) ;
#185 = AXIS2_PLACEMENT_3D ( 'NONE', #111, #248, #225 ) ;
#186 = PRODUCT_DEFINITION_FORMATION_WITH_SPECIFIED_SOURCE ( 'ANY', '', #9, .NOT_KNOWN. ) ;
#187 = UNCERTAINTY_MEASURE_WITH_UNIT (LENGTH_MEASURE( 1.000000000000000082E-05 ), #88, 'distance_accuracy_value', 'NONE');
#188 = FACE_OUTER_BOUND ( 'NONE', #15, .T. ) ;
#189 = COLOUR_RGB ( '',0.7921568627450980005, 0.8196078431372548767, 0.9333333333333333481 ) ;
#190 = CARTESIAN_POINT ( 'NONE',  ( 0.0000000000000000000, 0.0000000000000000000, 2.000000000000000000 ) ) ;
#191 = CARTESIAN_POINT ( 'NONE',  ( 0.1099999999999996397, 1.438959988998137757E-17, 2.000000000000000000 ) ) ;
#192 = VECTOR ( 'NONE', #96, 39.37007874015748143 ) ;
#193 = DIRECTION ( 'NONE',  ( -1.000000000000000000, 0.0000000000000000000, 0.0000000000000000000 ) ) ;
#194 = ORIENTED_EDGE ( 'NONE', *, *, #202, .T. ) ;
#195 =( NAMED_UNIT ( * ) PLANE_ANGLE_UNIT ( ) SI_UNIT ( $, .RADIAN. ) );
#196 = EDGE_LOOP ( 'NONE', ( #271, #127, #244, #153 ) ) ;
#197 = ORIENTED_EDGE ( 'NONE', *, *, #144, .T. ) ;
#198 = ORIENTED_EDGE ( 'NONE', *, *, #53, .F. ) ;
#199 = ORIENTED_EDGE ( 'NONE', *, *, #103, .T. ) ;
#200 = FACE_OUTER_BOUND ( 'NONE', #156, .T. ) ;
#201 = CARTESIAN_POINT ( 'NONE',  ( 0.1250000000000000000, 1.530808498934191509E-17, 2.000000000000000000 ) ) ;
#202 = EDGE_CURVE ( 'NONE', #265, #293, #237, .T. ) ;
#203 = CIRCLE ( 'NONE', #38, 0.07802189999999999126 ) ;
#204 = DIRECTION ( 'NONE',  ( -1.224646799147353207E-16, -0.0000000000000000000, -1.000000000000000000 ) ) ;
#205 = APPLICATION_CONTEXT ( 'automotive_design' ) ;
#206 = DIRECTION ( 'NONE',  ( 0.0000000000000000000, 0.0000000000000000000, -1.000000000000000000 ) ) ;
#207 = PRODUCT_RELATED_PRODUCT_CATEGORY ( 'part', '', ( #9 ) ) ;
#208 = ADVANCED_BREP_SHAPE_REPRESENTATION ( 'Micro_SFA-156-45', ( #109, #52 ), #149 ) ;
#209 = CARTESIAN_POINT ( 'NONE',  ( 0.0000000000000000000, 0.0000000000000000000, 1.984999999999999432 ) ) ;
#210 = CIRCLE ( 'NONE', #114, 0.1250000000000000000 ) ;
#211 = DIRECTION ( 'NONE',  ( -1.224646799147353207E-16, -0.0000000000000000000, -1.000000000000000000 ) ) ;
#212 = DIRECTION ( 'NONE',  ( 1.000000000000000000, 0.0000000000000000000, 0.0000000000000000000 ) ) ;
#213 = LINE ( 'NONE', #234, #154 ) ;
#214 = AXIS2_PLACEMENT_3D ( 'NONE', #172, #71, #146 ) ;
#215 = FILL_AREA_STYLE_COLOUR ( '', #24 ) ;
#216 = DIRECTION ( 'NONE',  ( 0.0000000000000000000, 0.0000000000000000000, -1.000000000000000000 ) ) ;
#217 = ORIENTED_EDGE ( 'NONE', *, *, #278, .T. ) ;
#218 = ORIENTED_EDGE ( 'NONE', *, *, #60, .F. ) ;
#219 = PRESENTATION_STYLE_ASSIGNMENT (( #239 ) ) ;
#220 = ORIENTED_EDGE ( 'NONE', *, *, #158, .F. ) ;
#221 = EDGE_CURVE ( 'NONE', #238, #106, #203, .T. ) ;
#222 = EDGE_LOOP ( 'NONE', ( #292, #12, #295, #78 ) ) ;
#223 = MECHANICAL_DESIGN_GEOMETRIC_PRESENTATION_REPRESENTATION (  '', ( #16 ), #135 ) ;
#224 = FILL_AREA_STYLE_COLOUR ( '', #189 ) ;
#225 = DIRECTION ( 'NONE',  ( -1.000000000000000000, 0.0000000000000000000, 1.224646799147353207E-16 ) ) ;
#226 = UNCERTAINTY_MEASURE_WITH_UNIT (LENGTH_MEASURE( 1.000000000000000082E-05 ), #173, 'distance_accuracy_value', 'NONE');
#227 = CARTESIAN_POINT ( 'NONE',  ( 0.1250000000000000000, 1.530808498934191509E-17, 1.984999999999999432 ) ) ;
#228 = LENGTH_MEASURE_WITH_UNIT ( LENGTH_MEASURE( 0.02539999999999999897 ), #37 );
#229 = AXIS2_PLACEMENT_3D ( 'NONE', #259, #49, #2 ) ;
#230 = FACE_OUTER_BOUND ( 'NONE', #81, .T. ) ;
#231 = CARTESIAN_POINT ( 'NONE',  ( -0.1250000000000000000, 0.0000000000000000000, 1.984999999999999432 ) ) ;
#232 = DIMENSIONAL_EXPONENTS ( 1.000000000000000000, 0.0000000000000000000, 0.0000000000000000000, 0.0000000000000000000, 0.0000000000000000000, 0.0000000000000000000, 0.0000000000000000000 ) ;
#233 = CARTESIAN_POINT ( 'NONE',  ( 7.654042494670957853E-17, 0.0000000000000000000, 0.6250000000000000000 ) ) ;
#234 = CARTESIAN_POINT ( 'NONE',  ( -0.1099999999999996397, 0.0000000000000000000, 2.000000000000000000 ) ) ;
#235 = CARTESIAN_POINT ( 'NONE',  ( 1.091682052012500869E-16, 0.0000000000000000000, 0.8914260444501813652 ) ) ;
#236 = CARTESIAN_POINT ( 'NONE',  ( 0.07802190000000006065, 0.0000000000000000000, 0.6250000000000000000 ) ) ;
#237 = CIRCLE ( 'NONE', #247, 0.1099999999999996397 ) ;
#238 = VERTEX_POINT ( 'NONE', #236 ) ;
#239 = SURFACE_STYLE_USAGE ( .BOTH. , #243 ) ;
#240 = ORIENTED_EDGE ( 'NONE', *, *, #150, .F. ) ;
#241 = ORIENTED_EDGE ( 'NONE', *, *, #282, .F. ) ;
#242 = STYLED_ITEM ( 'NONE', ( #21 ), #109 ) ;
#243 = SURFACE_SIDE_STYLE ('',( #11 ) ) ;
#244 = ORIENTED_EDGE ( 'NONE', *, *, #278, .F. ) ;
#245 = ORIENTED_EDGE ( 'NONE', *, *, #133, .F. ) ;
#246 = DIRECTION ( 'NONE',  ( 1.000000000000000000, 0.0000000000000000000, 0.0000000000000000000 ) ) ;
#247 = AXIS2_PLACEMENT_3D ( 'NONE', #190, #27, #75 ) ;
#248 = DIRECTION ( 'NONE',  ( -1.224646799147353207E-16, -0.0000000000000000000, -1.000000000000000000 ) ) ;
#249 = EDGE_CURVE ( 'NONE', #293, #265, #86, .T. ) ;
#250 = DIRECTION ( 'NONE',  ( 1.000000000000000000, 0.0000000000000000000, 0.0000000000000000000 ) ) ;
#251 = CARTESIAN_POINT ( 'NONE',  ( -0.1250000000000000000, 0.0000000000000000000, 2.000000000000000000 ) ) ;
#252 = PRODUCT_DEFINITION ( 'UNKNOWN', '', #186, #164 ) ;
#253 = VECTOR ( 'NONE', #20, 39.37007874015748143 ) ;
#254 = PLANE ( 'NONE',  #70 ) ;
#255 = CARTESIAN_POINT ( 'NONE',  ( 1.091682052012500869E-16, 0.0000000000000000000, 0.8914260444501813652 ) ) ;
#256 = DIRECTION ( 'NONE',  ( 0.0000000000000000000, 0.0000000000000000000, 1.000000000000000000 ) ) ;
#257 = CIRCLE ( 'NONE', #268, 0.07802190000000000514 ) ;
#258 = CARTESIAN_POINT ( 'NONE',  ( -0.07802189999999992187, 9.554927009839487310E-18, 0.6250000000000000000 ) ) ;
#259 = CARTESIAN_POINT ( 'NONE',  ( 0.0000000000000000000, 0.0000000000000000000, 2.000000000000000000 ) ) ;
#260 = ADVANCED_FACE ( 'NONE', ( #93 ), #165, .T. ) ;
#261 = ORIENTED_EDGE ( 'NONE', *, *, #202, .F. ) ;
#262 =( NAMED_UNIT ( * ) SI_UNIT ( $, .STERADIAN. ) SOLID_ANGLE_UNIT ( ) );
#263 = PLANE ( 'NONE',  #82 ) ;
#264 =( NAMED_UNIT ( * ) SI_UNIT ( $, .STERADIAN. ) SOLID_ANGLE_UNIT ( ) );
#265 = VERTEX_POINT ( 'NONE', #191 ) ;
#266 = SHAPE_DEFINITION_REPRESENTATION ( #98, #208 ) ;
#267 = VERTEX_POINT ( 'NONE', #284 ) ;
#268 = AXIS2_PLACEMENT_3D ( 'NONE', #142, #73, #25 ) ;
#269 = DIRECTION ( 'NONE',  ( 0.0000000000000000000, 0.0000000000000000000, 1.000000000000000000 ) ) ;
#270 = APPLICATION_CONTEXT ( 'automotive_design' ) ;
#271 = ORIENTED_EDGE ( 'NONE', *, *, #60, .T. ) ;
#272 = CYLINDRICAL_SURFACE ( 'NONE', #285, 0.1250000000000000000 ) ;
#273 = ADVANCED_FACE ( 'NONE', ( #28 ), #283, .T. ) ;
#274 = CARTESIAN_POINT ( 'NONE',  ( 7.654042494670957853E-17, 0.0000000000000000000, 0.6250000000000000000 ) ) ;
#275 = VECTOR ( 'NONE', #18, 39.37007874015748143 ) ;
#276 = FACE_OUTER_BOUND ( 'NONE', #196, .T. ) ;
#277 = ADVANCED_FACE ( 'NONE', ( #117 ), #66, .T. ) ;
#278 = EDGE_CURVE ( 'NONE', #105, #267, #257, .T. ) ;
#279 = DIRECTION ( 'NONE',  ( 0.0000000000000000000, 0.0000000000000000000, 1.000000000000000000 ) ) ;
#280 = CARTESIAN_POINT ( 'NONE',  ( 0.0000000000000000000, 0.0000000000000000000, 2.000000000000000000 ) ) ;
#281 = LINE ( 'NONE', #166, #170 ) ;
#282 = EDGE_CURVE ( 'NONE', #124, #174, #210, .T. ) ;
#283 = CYLINDRICAL_SURFACE ( 'NONE', #229, 0.1250000000000000000 ) ;
#284 = CARTESIAN_POINT ( 'NONE',  ( 0.07802190000000000514, 9.554927009839488851E-18, 0.0000000000000000000 ) ) ;
#285 = AXIS2_PLACEMENT_3D ( 'NONE', #64, #159, #39 ) ;
#286 = DIRECTION ( 'NONE',  ( 1.000000000000000000, 0.0000000000000000000, 0.0000000000000000000 ) ) ;
#287 = EDGE_CURVE ( 'NONE', #267, #105, #140, .T. ) ;
#288 = FACE_OUTER_BOUND ( 'NONE', #56, .T. ) ;
#289 = CIRCLE ( 'NONE', #134, 0.07802189999999999126 ) ;
#290 = LENGTH_MEASURE_WITH_UNIT ( LENGTH_MEASURE( 0.02539999999999999897 ), #74 );
#291 = ORIENTED_EDGE ( 'NONE', *, *, #26, .F. ) ;
#292 = ORIENTED_EDGE ( 'NONE', *, *, #125, .F. ) ;
#293 = VERTEX_POINT ( 'NONE', #95 ) ;
#294 = PRESENTATION_LAYER_ASSIGNMENT (  '', '', ( #16 ) ) ;
#295 = ORIENTED_EDGE ( 'NONE', *, *, #26, .T. ) ;
#296 = DIRECTION ( 'NONE',  ( -1.000000000000000000, 0.0000000000000000000, 0.0000000000000000000 ) ) ;
#297 = LINE ( 'NONE', #67, #76 ) ;
#298 = AXIS2_PLACEMENT_3D ( 'NONE', #17, #1, #250 ) ;
#299 = DIRECTION ( 'NONE',  ( -1.224646799147353207E-16, -0.0000000000000000000, -1.000000000000000000 ) ) ;
ENDSEC;
END-ISO-10303-21;
