ISO-10303-21;
HEADER;
FILE_DESCRIPTION (( 'STEP AP214' ),
    '1' );
FILE_NAME ('06378.STEP',
    '2023-07-05T16:02:16',
    ( '' ),
    ( '' ),
    'SwSTEP 2.0',
    'SolidWorks 2023',
    '' );
FILE_SCHEMA (( 'AUTOMOTIVE_DESIGN' ));
ENDSEC;

DATA;
#1 = MECHANICAL_DESIGN_GEOMETRIC_PRESENTATION_REPRESENTATION (  '', ( #105 ), #207 ) ;
#2 = PRESENTATION_LAYER_ASSIGNMENT (  '', '', ( #156 ) ) ;
#3 = ADVANCED_FACE ( 'NONE', ( #186 ), #63, .F. ) ;
#4 = ORIENTED_EDGE ( 'NONE', *, *, #175, .F. ) ;
#5 = ORIENTED_EDGE ( 'NONE', *, *, #13, .F. ) ;
#6 = COLOUR_RGB ( '',0.7921568627450980005, 0.8196078431372548767, 0.9333333333333333481 ) ;
#7 = AXIS2_PLACEMENT_3D ( 'NONE', #249, #223, #64 ) ;
#8 = CARTESIAN_POINT ( 'NONE',  ( 0.2499999999999998057, 3.000000000000000444, 3.061616997868381785E-17 ) ) ;
#9 = CARTESIAN_POINT ( 'NONE',  ( -6.123233995736770966E-17, 3.000000000000000444, 0.000000000000000000 ) ) ;
#10 = SURFACE_STYLE_FILL_AREA ( #234 ) ;
#11 = UNCERTAINTY_MEASURE_WITH_UNIT (LENGTH_MEASURE( 1.000000000000000082E-05 ), #188, 'distance_accuracy_value', 'NONE');
#12 = PRESENTATION_STYLE_ASSIGNMENT (( #152 ) ) ;
#13 = EDGE_CURVE ( 'NONE', #25, #20, #14, .T. ) ;
#14 = CIRCLE ( 'NONE', #160, 0.2499999999999997224 ) ;
#15 = SURFACE_STYLE_FILL_AREA ( #174 ) ;
#16 = SURFACE_SIDE_STYLE ('',( #179 ) ) ;
#17 = DIRECTION ( 'NONE',  ( -1.252875704100928464E-16, 1.000000000000000000, 0.000000000000000000 ) ) ;
#18 = CLOSED_SHELL ( 'NONE', ( #61, #109, #161, #3 ) ) ;
#19 = FILL_AREA_STYLE_COLOUR ( '', #220 ) ;
#20 = VERTEX_POINT ( 'NONE', #42 ) ;
#21 = DIRECTION ( 'NONE',  ( -1.252875704100928464E-16, 1.000000000000000000, -0.000000000000000000 ) ) ;
#22 = DIRECTION ( 'NONE',  ( 1.252875704100928464E-16, -1.000000000000000000, 0.000000000000000000 ) ) ;
#23 = VECTOR ( 'NONE', #88, 39.37007874015748143 ) ;
#24 = DIRECTION ( 'NONE',  ( -1.252875704100928464E-16, 1.000000000000000000, -0.000000000000000000 ) ) ;
#25 = VERTEX_POINT ( 'NONE', #123 ) ;
#26 = ORIENTED_EDGE ( 'NONE', *, *, #58, .F. ) ;
#27 = PRESENTATION_LAYER_ASSIGNMENT (  '', '', ( #32 ) ) ;
#28 = LENGTH_MEASURE_WITH_UNIT ( LENGTH_MEASURE( 0.02539999999999999897 ), #198 );
#29 = DIRECTION ( 'NONE',  ( -1.000000000000000000, 0.000000000000000000, 0.000000000000000000 ) ) ;
#30 = DIRECTION ( 'NONE',  ( 0.000000000000000000, 0.8660254037844380415, 0.5000000000000009992 ) ) ;
#31 =( NAMED_UNIT ( * ) SI_UNIT ( $, .STERADIAN. ) SOLID_ANGLE_UNIT ( ) );
#32 = STYLED_ITEM ( 'NONE', ( #12 ), #184 ) ;
#33 =( CONVERSION_BASED_UNIT ( 'INCH', #217 ) LENGTH_UNIT ( ) NAMED_UNIT ( #114 ) );
#34 = DIRECTION ( 'NONE',  ( 0.000000000000000000, 0.000000000000000000, 1.000000000000000000 ) ) ;
#35 = DIMENSIONAL_EXPONENTS ( 1.000000000000000000, 0.000000000000000000, 0.000000000000000000, 0.000000000000000000, 0.000000000000000000, 0.000000000000000000, 0.000000000000000000 ) ;
#36 = CARTESIAN_POINT ( 'NONE',  ( 0.000000000000000000, 0.000000000000000000, 0.000000000000000000 ) ) ;
#37 = DIRECTION ( 'NONE',  ( -1.252875704100928464E-16, 1.000000000000000000, -0.000000000000000000 ) ) ;
#38 = CARTESIAN_POINT ( 'NONE',  ( 0.2499999999999999722, 3.000000000000000444, 3.061616997868383018E-17 ) ) ;
#39 = ORIENTED_EDGE ( 'NONE', *, *, #59, .T. ) ;
#40 = CARTESIAN_POINT ( 'NONE',  ( -0.2500000000000001110, 3.000000000000000444, 0.000000000000000000 ) ) ;
#41 = CARTESIAN_POINT ( 'NONE',  ( 0.2499999999999999722, 3.000000000000000444, 0.000000000000000000 ) ) ;
#42 = CARTESIAN_POINT ( 'NONE',  ( 0.2500000000000000000, 0.4330127018922179105, 3.061616997868383018E-17 ) ) ;
#43 = ORIENTED_EDGE ( 'NONE', *, *, #89, .F. ) ;
#44 = ORIENTED_EDGE ( 'NONE', *, *, #231, .F. ) ;
#45 = LENGTH_MEASURE_WITH_UNIT ( LENGTH_MEASURE( 0.02539999999999999897 ), #190 );
#46 = CIRCLE ( 'NONE', #211, 0.2499999999999999722 ) ;
#47 = DIRECTION ( 'NONE',  ( 1.000000000000000000, 0.000000000000000000, 0.000000000000000000 ) ) ;
#48 = LINE ( 'NONE', #209, #129 ) ;
#49 = FACE_OUTER_BOUND ( 'NONE', #141, .T. ) ;
#50 =( NAMED_UNIT ( * ) PLANE_ANGLE_UNIT ( ) SI_UNIT ( $, .RADIAN. ) );
#51 = SHAPE_DEFINITION_REPRESENTATION ( #148, #108 ) ;
#52 = DIRECTION ( 'NONE',  ( -1.000000000000000000, -1.252875704100928464E-16, 0.000000000000000000 ) ) ;
#53 = APPLICATION_CONTEXT ( 'automotive_design' ) ;
#54 = CARTESIAN_POINT ( 'NONE',  ( 0.000000000000000000, 0.4330127018922180770, 0.000000000000000000 ) ) ;
#55 = CARTESIAN_POINT ( 'NONE',  ( -6.123233995736772199E-17, 3.000000000000000444, 0.000000000000000000 ) ) ;
#56 = CLOSED_SHELL ( 'NONE', ( #184, #238, #85 ) ) ;
#57 =( LENGTH_UNIT ( ) NAMED_UNIT ( * ) SI_UNIT ( $, .METRE. ) );
#58 = EDGE_CURVE ( 'NONE', #20, #25, #62, .T. ) ;
#59 = EDGE_CURVE ( 'NONE', #121, #250, #166, .T. ) ;
#60 =( CONVERSION_BASED_UNIT ( 'INCH', #127 ) LENGTH_UNIT ( ) NAMED_UNIT ( #78 ) );
#61 = ADVANCED_FACE ( 'NONE', ( #192 ), #208, .T. ) ;
#62 = CIRCLE ( 'NONE', #243, 0.2499999999999997224 ) ;
#63 = PLANE ( 'NONE',  #235 ) ;
#64 = DIRECTION ( 'NONE',  ( 0.000000000000000000, -0.000000000000000000, 1.000000000000000000 ) ) ;
#65 = DIRECTION ( 'NONE',  ( -1.252875704100928464E-16, 1.000000000000000000, -0.000000000000000000 ) ) ;
#66 = ORIENTED_EDGE ( 'NONE', *, *, #58, .T. ) ;
#67 = CIRCLE ( 'NONE', #118, 0.2500000000000000555 ) ;
#68 = DIRECTION ( 'NONE',  ( -1.252875704100928464E-16, 1.000000000000000000, -0.000000000000000000 ) ) ;
#69 = APPLICATION_CONTEXT ( 'automotive_design' ) ;
#70 =( NAMED_UNIT ( * ) SI_UNIT ( $, .STERADIAN. ) SOLID_ANGLE_UNIT ( ) );
#71 = SURFACE_STYLE_USAGE ( .BOTH. , #189 ) ;
#72 = DIRECTION ( 'NONE',  ( 0.000000000000000000, 0.000000000000000000, 1.000000000000000000 ) ) ;
#73 = FACE_OUTER_BOUND ( 'NONE', #82, .T. ) ;
#74 = CARTESIAN_POINT ( 'NONE',  ( 2.603792618961250911E-16, 0.4330127018922180770, 0.000000000000000000 ) ) ;
#75 = VECTOR ( 'NONE', #237, 39.37007874015748143 ) ;
#76 = AXIS2_PLACEMENT_3D ( 'NONE', #199, #21, #162 ) ;
#77 = UNCERTAINTY_MEASURE_WITH_UNIT (LENGTH_MEASURE( 1.000000000000000082E-05 ), #33, 'distance_accuracy_value', 'NONE');
#78 = DIMENSIONAL_EXPONENTS ( 1.000000000000000000, 0.000000000000000000, 0.000000000000000000, 0.000000000000000000, 0.000000000000000000, 0.000000000000000000, 0.000000000000000000 ) ;
#79 = AXIS2_PLACEMENT_3D ( 'NONE', #126, #68, #232 ) ;
#80 = UNCERTAINTY_MEASURE_WITH_UNIT (LENGTH_MEASURE( 1.000000000000000082E-05 ), #176, 'distance_accuracy_value', 'NONE');
#81 =( NAMED_UNIT ( * ) PLANE_ANGLE_UNIT ( ) SI_UNIT ( $, .RADIAN. ) );
#82 = EDGE_LOOP ( 'NONE', ( #4, #159, #100 ) ) ;
#83 = APPLICATION_PROTOCOL_DEFINITION ( 'draft international standard', 'automotive_design', 1998, #53 ) ;
#84 = EDGE_LOOP ( 'NONE', ( #122, #165, #39 ) ) ;
#85 = ADVANCED_FACE ( 'NONE', ( #73 ), #113, .T. ) ;
#86 = EDGE_LOOP ( 'NONE', ( #200, #203 ) ) ;
#87 = AXIS2_PLACEMENT_3D ( 'NONE', #170, #258, #72 ) ;
#88 = DIRECTION ( 'NONE',  ( -1.252875704100928464E-16, 1.000000000000000000, -0.000000000000000000 ) ) ;
#89 = EDGE_CURVE ( 'NONE', #204, #248, #67, .T. ) ;
#90 =( NAMED_UNIT ( * ) SI_UNIT ( $, .STERADIAN. ) SOLID_ANGLE_UNIT ( ) );
#91 = MECHANICAL_DESIGN_GEOMETRIC_PRESENTATION_REPRESENTATION (  '', ( #230 ), #103 ) ;
#92 = FILL_AREA_STYLE_COLOUR ( '', #110 ) ;
#93 = DIRECTION ( 'NONE',  ( 0.000000000000000000, 0.000000000000000000, -1.000000000000000000 ) ) ;
#94 = PRODUCT ( '06378', '06378', '', ( #133 ) ) ;
#95 =( LENGTH_UNIT ( ) NAMED_UNIT ( * ) SI_UNIT ( $, .METRE. ) );
#96 = FACE_OUTER_BOUND ( 'NONE', #247, .T. ) ;
#97 = CARTESIAN_POINT ( 'NONE',  ( 0.000000000000000000, 0.000000000000000000, 0.000000000000000000 ) ) ;
#98 = MANIFOLD_SOLID_BREP ( 'Revolve - Tool Body (Pointed)', #18 ) ;
#99 = LINE ( 'NONE', #120, #202 ) ;
#100 = ORIENTED_EDGE ( 'NONE', *, *, #128, .T. ) ;
#101 = EDGE_CURVE ( 'NONE', #164, #250, #48, .T. ) ;
#102 = DIRECTION ( 'NONE',  ( 1.000000000000000000, 1.252875704100928464E-16, 0.000000000000000000 ) ) ;
#103 =( GEOMETRIC_REPRESENTATION_CONTEXT ( 3 ) GLOBAL_UNCERTAINTY_ASSIGNED_CONTEXT ( ( #11 ) ) GLOBAL_UNIT_ASSIGNED_CONTEXT ( ( #188, #50, #205 ) ) REPRESENTATION_CONTEXT ( 'NONE', 'WORKASPACE' ) );
#104 = ORIENTED_EDGE ( 'NONE', *, *, #218, .F. ) ;
#105 = STYLED_ITEM ( 'NONE', ( #265 ), #238 ) ;
#106 = CARTESIAN_POINT ( 'NONE',  ( 0.000000000000000000, 0.4330127018922180770, 0.2499999999999999722 ) ) ;
#107 = PRESENTATION_STYLE_ASSIGNMENT (( #212 ) ) ;
#108 = ADVANCED_BREP_SHAPE_REPRESENTATION ( '06378', ( #187, #98, #260 ), #180 ) ;
#109 = ADVANCED_FACE ( 'NONE', ( #49 ), #244, .F. ) ;
#110 = COLOUR_RGB ( '',1.000000000000000000, 0.000000000000000000, 0.000000000000000000 ) ;
#111 = SURFACE_SIDE_STYLE ('',( #10 ) ) ;
#112 = AXIS2_PLACEMENT_3D ( 'NONE', #74, #17, #52 ) ;
#113 = CONICAL_SURFACE ( 'NONE', #87, 22.73032555864674364, 0.5235987755983000369 ) ;
#114 = DIMENSIONAL_EXPONENTS ( 1.000000000000000000, 0.000000000000000000, 0.000000000000000000, 0.000000000000000000, 0.000000000000000000, 0.000000000000000000, 0.000000000000000000 ) ;
#115 = SURFACE_STYLE_USAGE ( .BOTH. , #261 ) ;
#116 =( NAMED_UNIT ( * ) SI_UNIT ( $, .STERADIAN. ) SOLID_ANGLE_UNIT ( ) );
#117 =( NAMED_UNIT ( * ) SI_UNIT ( $, .STERADIAN. ) SOLID_ANGLE_UNIT ( ) );
#118 = AXIS2_PLACEMENT_3D ( 'NONE', #9, #193, #233 ) ;
#119 = MECHANICAL_DESIGN_GEOMETRIC_PRESENTATION_REPRESENTATION (  '', ( #156 ), #151 ) ;
#120 = CARTESIAN_POINT ( 'NONE',  ( -0.2499999999999999167, 3.000000000000000444, 0.000000000000000000 ) ) ;
#121 = VERTEX_POINT ( 'NONE', #216 ) ;
#122 = ORIENTED_EDGE ( 'NONE', *, *, #101, .F. ) ;
#123 = CARTESIAN_POINT ( 'NONE',  ( -0.2499999999999994449, 0.4330127018922179105, 0.000000000000000000 ) ) ;
#124 = ORIENTED_EDGE ( 'NONE', *, *, #13, .T. ) ;
#125 = PRODUCT_DEFINITION ( 'UNKNOWN', '', #197, #246 ) ;
#126 = CARTESIAN_POINT ( 'NONE',  ( -6.123233995736772199E-17, 3.000000000000000444, 0.000000000000000000 ) ) ;
#127 = LENGTH_MEASURE_WITH_UNIT ( LENGTH_MEASURE( 0.02539999999999999897 ), #228 );
#128 = EDGE_CURVE ( 'NONE', #250, #121, #46, .T. ) ;
#129 = VECTOR ( 'NONE', #30, 39.37007874015748143 ) ;
#130 =( LENGTH_UNIT ( ) NAMED_UNIT ( * ) SI_UNIT ( $, .METRE. ) );
#131 = FILL_AREA_STYLE ('',( #19 ) ) ;
#132 = SURFACE_STYLE_USAGE ( .BOTH. , #111 ) ;
#133 = PRODUCT_CONTEXT ( 'NONE', #53, 'mechanical' ) ;
#134 = AXIS2_PLACEMENT_3D ( 'NONE', #241, #214, #34 ) ;
#135 = SURFACE_SIDE_STYLE ('',( #256 ) ) ;
#136 = FACE_OUTER_BOUND ( 'NONE', #84, .T. ) ;
#137 =( NAMED_UNIT ( * ) PLANE_ANGLE_UNIT ( ) SI_UNIT ( $, .RADIAN. ) );
#138 = PRESENTATION_LAYER_ASSIGNMENT (  '', '', ( #230 ) ) ;
#139 = PRODUCT_RELATED_PRODUCT_CATEGORY ( 'part', '', ( #94 ) ) ;
#140 = DIRECTION ( 'NONE',  ( -1.000000000000000000, 0.000000000000000000, 0.000000000000000000 ) ) ;
#141 = EDGE_LOOP ( 'NONE', ( #5, #26 ) ) ;
#142 = COLOUR_RGB ( '',1.000000000000000000, 0.000000000000000000, 0.000000000000000000 ) ;
#143 = ORIENTED_EDGE ( 'NONE', *, *, #213, .T. ) ;
#144 = PRESENTATION_STYLE_ASSIGNMENT (( #132 ) ) ;
#145 =( CONVERSION_BASED_UNIT ( 'INCH', #28 ) LENGTH_UNIT ( ) NAMED_UNIT ( #177 ) );
#146 = AXIS2_PLACEMENT_3D ( 'NONE', #55, #37, #172 ) ;
#147 = APPLICATION_PROTOCOL_DEFINITION ( 'draft international standard', 'automotive_design', 1998, #69 ) ;
#148 = PRODUCT_DEFINITION_SHAPE ( 'NONE', 'NONE',  #125 ) ;
#149 = FILL_AREA_STYLE ('',( #253 ) ) ;
#150 = DIRECTION ( 'NONE',  ( 0.000000000000000000, 0.000000000000000000, -1.000000000000000000 ) ) ;
#151 =( GEOMETRIC_REPRESENTATION_CONTEXT ( 3 ) GLOBAL_UNCERTAINTY_ASSIGNED_CONTEXT ( ( #80 ) ) GLOBAL_UNIT_ASSIGNED_CONTEXT ( ( #176, #137, #117 ) ) REPRESENTATION_CONTEXT ( 'NONE', 'WORKASPACE' ) );
#152 = SURFACE_STYLE_USAGE ( .BOTH. , #16 ) ;
#153 = DIMENSIONAL_EXPONENTS ( 1.000000000000000000, 0.000000000000000000, 0.000000000000000000, 0.000000000000000000, 0.000000000000000000, 0.000000000000000000, 0.000000000000000000 ) ;
#154 = LINE ( 'NONE', #36, #75 ) ;
#155 = CONICAL_SURFACE ( 'NONE', #134, 22.73032555864674364, 0.5235987755983000369 ) ;
#156 = STYLED_ITEM ( 'NONE', ( #178 ), #187 ) ;
#157 = FILL_AREA_STYLE_COLOUR ( '', #257 ) ;
#158 = UNCERTAINTY_MEASURE_WITH_UNIT (LENGTH_MEASURE( 1.000000000000000082E-05 ), #145, 'distance_accuracy_value', 'NONE');
#159 = ORIENTED_EDGE ( 'NONE', *, *, #101, .T. ) ;
#160 = AXIS2_PLACEMENT_3D ( 'NONE', #163, #65, #140 ) ;
#161 = ADVANCED_FACE ( 'NONE', ( #96 ), #196, .T. ) ;
#162 = DIRECTION ( 'NONE',  ( -1.000000000000000000, 0.000000000000000000, 0.000000000000000000 ) ) ;
#163 = CARTESIAN_POINT ( 'NONE',  ( 2.603792618961250418E-16, 0.4330127018922179105, 0.000000000000000000 ) ) ;
#164 = VERTEX_POINT ( 'NONE', #97 ) ;
#165 = ORIENTED_EDGE ( 'NONE', *, *, #175, .T. ) ;
#166 = CIRCLE ( 'NONE', #215, 0.2499999999999999722 ) ;
#167 = PRESENTATION_LAYER_ASSIGNMENT (  '', '', ( #105 ) ) ;
#168 = DIRECTION ( 'NONE',  ( -1.252875704100928464E-16, 1.000000000000000000, -0.000000000000000000 ) ) ;
#169 = LENGTH_MEASURE_WITH_UNIT ( LENGTH_MEASURE( 0.02539999999999999897 ), #130 );
#170 = CARTESIAN_POINT ( 'NONE',  ( 0.000000000000000000, 39.37007874015748143, 0.000000000000000000 ) ) ;
#171 =( CONVERSION_BASED_UNIT ( 'INCH', #169 ) LENGTH_UNIT ( ) NAMED_UNIT ( #35 ) );
#172 = DIRECTION ( 'NONE',  ( -1.000000000000000000, 0.000000000000000000, 0.000000000000000000 ) ) ;
#173 = MECHANICAL_DESIGN_GEOMETRIC_PRESENTATION_REPRESENTATION (  '', ( #226 ), #183 ) ;
#174 = FILL_AREA_STYLE ('',( #157 ) ) ;
#175 = EDGE_CURVE ( 'NONE', #164, #121, #154, .T. ) ;
#176 =( CONVERSION_BASED_UNIT ( 'INCH', #263 ) LENGTH_UNIT ( ) NAMED_UNIT ( #153 ) );
#177 = DIMENSIONAL_EXPONENTS ( 1.000000000000000000, 0.000000000000000000, 0.000000000000000000, 0.000000000000000000, 0.000000000000000000, 0.000000000000000000, 0.000000000000000000 ) ;
#178 = PRESENTATION_STYLE_ASSIGNMENT (( #115 ) ) ;
#179 = SURFACE_STYLE_FILL_AREA ( #240 ) ;
#180 =( GEOMETRIC_REPRESENTATION_CONTEXT ( 3 ) GLOBAL_UNCERTAINTY_ASSIGNED_CONTEXT ( ( #221 ) ) GLOBAL_UNIT_ASSIGNED_CONTEXT ( ( #60, #182, #90 ) ) REPRESENTATION_CONTEXT ( 'NONE', 'WORKASPACE' ) );
#181 = ORIENTED_EDGE ( 'NONE', *, *, #231, .T. ) ;
#182 =( NAMED_UNIT ( * ) PLANE_ANGLE_UNIT ( ) SI_UNIT ( $, .RADIAN. ) );
#183 =( GEOMETRIC_REPRESENTATION_CONTEXT ( 3 ) GLOBAL_UNCERTAINTY_ASSIGNED_CONTEXT ( ( #239 ) ) GLOBAL_UNIT_ASSIGNED_CONTEXT ( ( #171, #210, #31 ) ) REPRESENTATION_CONTEXT ( 'NONE', 'WORKASPACE' ) );
#184 = ADVANCED_FACE ( 'NONE', ( #136 ), #155, .T. ) ;
#185 = DIRECTION ( 'NONE',  ( 0.000000000000000000, 0.000000000000000000, 1.000000000000000000 ) ) ;
#186 = FACE_OUTER_BOUND ( 'NONE', #227, .T. ) ;
#187 = MANIFOLD_SOLID_BREP ( 'Revolve - Cutting Edge', #56 ) ;
#188 =( CONVERSION_BASED_UNIT ( 'INCH', #45 ) LENGTH_UNIT ( ) NAMED_UNIT ( #242 ) );
#189 = SURFACE_SIDE_STYLE ('',( #206 ) ) ;
#190 =( LENGTH_UNIT ( ) NAMED_UNIT ( * ) SI_UNIT ( $, .METRE. ) );
#191 = DIRECTION ( 'NONE',  ( -0.000000000000000000, -1.000000000000000000, -0.000000000000000000 ) ) ;
#192 = FACE_OUTER_BOUND ( 'NONE', #222, .T. ) ;
#193 = DIRECTION ( 'NONE',  ( -1.252875704100928464E-16, 1.000000000000000000, -0.000000000000000000 ) ) ;
#194 = DIRECTION ( 'NONE',  ( -0.000000000000000000, -1.000000000000000000, -0.000000000000000000 ) ) ;
#195 = LINE ( 'NONE', #8, #23 ) ;
#196 = CYLINDRICAL_SURFACE ( 'NONE', #146, 0.2499999999999998612 ) ;
#197 = PRODUCT_DEFINITION_FORMATION_WITH_SPECIFIED_SOURCE ( 'ANY', '', #94, .NOT_KNOWN. ) ;
#198 =( LENGTH_UNIT ( ) NAMED_UNIT ( * ) SI_UNIT ( $, .METRE. ) );
#199 = CARTESIAN_POINT ( 'NONE',  ( -6.123233995736770966E-17, 3.000000000000000444, 0.000000000000000000 ) ) ;
#200 = ORIENTED_EDGE ( 'NONE', *, *, #128, .F. ) ;
#201 = CARTESIAN_POINT ( 'NONE',  ( 2.603792618961250418E-16, 0.4330127018922179105, 0.000000000000000000 ) ) ;
#202 = VECTOR ( 'NONE', #168, 39.37007874015748143 ) ;
#203 = ORIENTED_EDGE ( 'NONE', *, *, #59, .F. ) ;
#204 = VERTEX_POINT ( 'NONE', #38 ) ;
#205 =( NAMED_UNIT ( * ) SI_UNIT ( $, .STERADIAN. ) SOLID_ANGLE_UNIT ( ) );
#206 = SURFACE_STYLE_FILL_AREA ( #131 ) ;
#207 =( GEOMETRIC_REPRESENTATION_CONTEXT ( 3 ) GLOBAL_UNCERTAINTY_ASSIGNED_CONTEXT ( ( #158 ) ) GLOBAL_UNIT_ASSIGNED_CONTEXT ( ( #145, #81, #70 ) ) REPRESENTATION_CONTEXT ( 'NONE', 'WORKASPACE' ) );
#208 = CYLINDRICAL_SURFACE ( 'NONE', #79, 0.2499999999999998612 ) ;
#209 = CARTESIAN_POINT ( 'NONE',  ( 0.000000000000000000, 0.000000000000000000, 0.000000000000000000 ) ) ;
#210 =( NAMED_UNIT ( * ) PLANE_ANGLE_UNIT ( ) SI_UNIT ( $, .RADIAN. ) );
#211 = AXIS2_PLACEMENT_3D ( 'NONE', #54, #194, #150 ) ;
#212 = SURFACE_STYLE_USAGE ( .BOTH. , #135 ) ;
#213 = EDGE_CURVE ( 'NONE', #20, #204, #195, .T. ) ;
#214 = DIRECTION ( 'NONE',  ( 0.000000000000000000, 1.000000000000000000, 0.000000000000000000 ) ) ;
#215 = AXIS2_PLACEMENT_3D ( 'NONE', #259, #191, #93 ) ;
#216 = CARTESIAN_POINT ( 'NONE',  ( 3.061616997868382402E-17, 0.4330127018922180770, -0.2499999999999999722 ) ) ;
#217 = LENGTH_MEASURE_WITH_UNIT ( LENGTH_MEASURE( 0.02539999999999999897 ), #57 );
#218 = EDGE_CURVE ( 'NONE', #248, #204, #236, .T. ) ;
#219 = MECHANICAL_DESIGN_GEOMETRIC_PRESENTATION_REPRESENTATION (  '', ( #32 ), #252 ) ;
#220 = COLOUR_RGB ( '',1.000000000000000000, 0.000000000000000000, 0.000000000000000000 ) ;
#221 = UNCERTAINTY_MEASURE_WITH_UNIT (LENGTH_MEASURE( 1.000000000000000082E-05 ), #60, 'distance_accuracy_value', 'NONE');
#222 = EDGE_LOOP ( 'NONE', ( #124, #143, #104, #44 ) ) ;
#223 = DIRECTION ( 'NONE',  ( 0.000000000000000000, 1.000000000000000000, 0.000000000000000000 ) ) ;
#224 = ORIENTED_EDGE ( 'NONE', *, *, #89, .T. ) ;
#225 = ORIENTED_EDGE ( 'NONE', *, *, #213, .F. ) ;
#226 = STYLED_ITEM ( 'NONE', ( #107 ), #98 ) ;
#227 = EDGE_LOOP ( 'NONE', ( #251, #224 ) ) ;
#228 =( LENGTH_UNIT ( ) NAMED_UNIT ( * ) SI_UNIT ( $, .METRE. ) );
#229 = PRESENTATION_LAYER_ASSIGNMENT (  '', '', ( #226 ) ) ;
#230 = STYLED_ITEM ( 'NONE', ( #144 ), #85 ) ;
#231 = EDGE_CURVE ( 'NONE', #25, #248, #99, .T. ) ;
#232 = DIRECTION ( 'NONE',  ( -1.000000000000000000, 0.000000000000000000, 0.000000000000000000 ) ) ;
#233 = DIRECTION ( 'NONE',  ( -1.000000000000000000, 0.000000000000000000, 0.000000000000000000 ) ) ;
#234 = FILL_AREA_STYLE ('',( #92 ) ) ;
#235 = AXIS2_PLACEMENT_3D ( 'NONE', #41, #22, #102 ) ;
#236 = CIRCLE ( 'NONE', #76, 0.2500000000000000555 ) ;
#237 = DIRECTION ( 'NONE',  ( 6.123233995736778362E-17, 0.8660254037844380415, -0.5000000000000009992 ) ) ;
#238 = ADVANCED_FACE ( 'NONE', ( #255 ), #254, .T. ) ;
#239 = UNCERTAINTY_MEASURE_WITH_UNIT (LENGTH_MEASURE( 1.000000000000000082E-05 ), #171, 'distance_accuracy_value', 'NONE');
#240 = FILL_AREA_STYLE ('',( #264 ) ) ;
#241 = CARTESIAN_POINT ( 'NONE',  ( 0.000000000000000000, 39.37007874015748143, 0.000000000000000000 ) ) ;
#242 = DIMENSIONAL_EXPONENTS ( 1.000000000000000000, 0.000000000000000000, 0.000000000000000000, 0.000000000000000000, 0.000000000000000000, 0.000000000000000000, 0.000000000000000000 ) ;
#243 = AXIS2_PLACEMENT_3D ( 'NONE', #201, #24, #29 ) ;
#244 = PLANE ( 'NONE',  #112 ) ;
#245 = CARTESIAN_POINT ( 'NONE',  ( 0.000000000000000000, 0.000000000000000000, 0.000000000000000000 ) ) ;
#246 = PRODUCT_DEFINITION_CONTEXT ( 'detailed design', #69, 'design' ) ;
#247 = EDGE_LOOP ( 'NONE', ( #225, #66, #181, #43 ) ) ;
#248 = VERTEX_POINT ( 'NONE', #40 ) ;
#249 = CARTESIAN_POINT ( 'NONE',  ( 0.000000000000000000, 0.4330127018922180770, 0.000000000000000000 ) ) ;
#250 = VERTEX_POINT ( 'NONE', #106 ) ;
#251 = ORIENTED_EDGE ( 'NONE', *, *, #218, .T. ) ;
#252 =( GEOMETRIC_REPRESENTATION_CONTEXT ( 3 ) GLOBAL_UNCERTAINTY_ASSIGNED_CONTEXT ( ( #77 ) ) GLOBAL_UNIT_ASSIGNED_CONTEXT ( ( #33, #262, #116 ) ) REPRESENTATION_CONTEXT ( 'NONE', 'WORKASPACE' ) );
#253 = FILL_AREA_STYLE_COLOUR ( '', #6 ) ;
#254 = PLANE ( 'NONE',  #7 ) ;
#255 = FACE_OUTER_BOUND ( 'NONE', #86, .T. ) ;
#256 = SURFACE_STYLE_FILL_AREA ( #149 ) ;
#257 = COLOUR_RGB ( '',0.7921568627450980005, 0.8196078431372548767, 0.9333333333333333481 ) ;
#258 = DIRECTION ( 'NONE',  ( 0.000000000000000000, 1.000000000000000000, 0.000000000000000000 ) ) ;
#259 = CARTESIAN_POINT ( 'NONE',  ( 0.000000000000000000, 0.4330127018922180770, 0.000000000000000000 ) ) ;
#260 = AXIS2_PLACEMENT_3D ( 'NONE', #245, #185, #47 ) ;
#261 = SURFACE_SIDE_STYLE ('',( #15 ) ) ;
#262 =( NAMED_UNIT ( * ) PLANE_ANGLE_UNIT ( ) SI_UNIT ( $, .RADIAN. ) );
#263 = LENGTH_MEASURE_WITH_UNIT ( LENGTH_MEASURE( 0.02539999999999999897 ), #95 );
#264 = FILL_AREA_STYLE_COLOUR ( '', #142 ) ;
#265 = PRESENTATION_STYLE_ASSIGNMENT (( #71 ) ) ;
ENDSEC;
END-ISO-10303-21;
