ISO-10303-21;
HEADER;
FILE_DESCRIPTION (( 'STEP AP214' ),
    '1' );
FILE_NAME ('84384.STEP',
    '2023-06-23T12:39:20',
    ( '' ),
    ( '' ),
    'SwSTEP 2.0',
    'SolidWorks 2023',
    '' );
FILE_SCHEMA (( 'AUTOMOTIVE_DESIGN' ));
ENDSEC;

DATA;
#1 =( LENGTH_UNIT ( ) NAMED_UNIT ( * ) SI_UNIT ( $, .METRE. ) );
#2 = DIRECTION ( 'NONE',  ( -3.061616997868383018E-17, 1.000000000000000000, -0.000000000000000000 ) ) ;
#3 = PRESENTATION_LAYER_ASSIGNMENT (  '', '', ( #270 ) ) ;
#4 = AXIS2_PLACEMENT_3D ( 'NONE', #71, #235, #5 ) ;
#5 = DIRECTION ( 'NONE',  ( -1.000000000000000000, 0.000000000000000000, 0.000000000000000000 ) ) ;
#6 = STYLED_ITEM ( 'NONE', ( #158 ), #22 ) ;
#7 = DIRECTION ( 'NONE',  ( -0.000000000000000000, -1.000000000000000000, -0.000000000000000000 ) ) ;
#8 = FACE_OUTER_BOUND ( 'NONE', #211, .T. ) ;
#9 = AXIS2_PLACEMENT_3D ( 'NONE', #232, #156, #277 ) ;
#10 = SURFACE_STYLE_USAGE ( .BOTH. , #177 ) ;
#11 = FACE_OUTER_BOUND ( 'NONE', #203, .T. ) ;
#12 = ORIENTED_EDGE ( 'NONE', *, *, #227, .F. ) ;
#13 = DIRECTION ( 'NONE',  ( 0.000000000000000000, 1.000000000000000000, 0.000000000000000000 ) ) ;
#14 =( NAMED_UNIT ( * ) PLANE_ANGLE_UNIT ( ) SI_UNIT ( $, .RADIAN. ) );
#15 = CARTESIAN_POINT ( 'NONE',  ( 0.000000000000000000, 0.5000000000000001110, 0.000000000000000000 ) ) ;
#16 = FACE_OUTER_BOUND ( 'NONE', #207, .T. ) ;
#17 = AXIS2_PLACEMENT_3D ( 'NONE', #107, #204, #170 ) ;
#18 = SURFACE_STYLE_USAGE ( .BOTH. , #69 ) ;
#19 = ORIENTED_EDGE ( 'NONE', *, *, #296, .T. ) ;
#20 = DIRECTION ( 'NONE',  ( -3.061616997868383018E-17, 1.000000000000000000, -0.000000000000000000 ) ) ;
#21 = CYLINDRICAL_SURFACE ( 'NONE', #49, 0.06250000000000001388 ) ;
#22 = MANIFOLD_SOLID_BREP ( 'Revolve - Tool Body (Straight Shanked)', #288 ) ;
#23 = MANIFOLD_SOLID_BREP ( 'Revolve - Cutting Edge', #298 ) ;
#24 = LENGTH_MEASURE_WITH_UNIT ( LENGTH_MEASURE( 0.02539999999999999897 ), #1 );
#25 = FACE_OUTER_BOUND ( 'NONE', #197, .T. ) ;
#26 = PLANE ( 'NONE',  #124 ) ;
#27 = UNCERTAINTY_MEASURE_WITH_UNIT (LENGTH_MEASURE( 1.000000000000000082E-05 ), #58, 'distance_accuracy_value', 'NONE');
#28 =( LENGTH_UNIT ( ) NAMED_UNIT ( * ) SI_UNIT ( $, .METRE. ) );
#29 = COLOUR_RGB ( '',0.7921568627450980005, 0.8196078431372548767, 0.9333333333333333481 ) ;
#30 = STYLED_ITEM ( 'NONE', ( #52 ), #152 ) ;
#31 = ORIENTED_EDGE ( 'NONE', *, *, #227, .T. ) ;
#32 = SURFACE_STYLE_FILL_AREA ( #105 ) ;
#33 = FILL_AREA_STYLE ('',( #178 ) ) ;
#34 =( CONVERSION_BASED_UNIT ( 'INCH', #103 ) LENGTH_UNIT ( ) NAMED_UNIT ( #56 ) );
#35 = UNCERTAINTY_MEASURE_WITH_UNIT (LENGTH_MEASURE( 1.000000000000000082E-05 ), #262, 'distance_accuracy_value', 'NONE');
#36 = CIRCLE ( 'NONE', #76, 0.06250000000000000000 ) ;
#37 = ADVANCED_FACE ( 'NONE', ( #11 ), #21, .T. ) ;
#38 = COLOUR_RGB ( '',1.000000000000000000, 0.000000000000000000, 0.000000000000000000 ) ;
#39 =( CONVERSION_BASED_UNIT ( 'INCH', #260 ) LENGTH_UNIT ( ) NAMED_UNIT ( #244 ) );
#40 = CARTESIAN_POINT ( 'NONE',  ( 0.06250000000000000000, 0.5000000000000001110, 7.654042494670963708E-18 ) ) ;
#41 = APPLICATION_PROTOCOL_DEFINITION ( 'draft international standard', 'automotive_design', 1998, #192 ) ;
#42 = DIRECTION ( 'NONE',  ( -0.000000000000000000, -1.000000000000000000, -0.000000000000000000 ) ) ;
#43 = PRODUCT_DEFINITION ( 'UNKNOWN', '', #84, #161 ) ;
#44 =( LENGTH_UNIT ( ) NAMED_UNIT ( * ) SI_UNIT ( $, .METRE. ) );
#45 = APPLICATION_PROTOCOL_DEFINITION ( 'draft international standard', 'automotive_design', 1998, #265 ) ;
#46 = LINE ( 'NONE', #240, #138 ) ;
#47 = ORIENTED_EDGE ( 'NONE', *, *, #222, .T. ) ;
#48 = CARTESIAN_POINT ( 'NONE',  ( -0.06250000000000012490, 2.500000000000000000, 0.000000000000000000 ) ) ;
#49 = AXIS2_PLACEMENT_3D ( 'NONE', #65, #88, #202 ) ;
#50 =( GEOMETRIC_REPRESENTATION_CONTEXT ( 3 ) GLOBAL_UNCERTAINTY_ASSIGNED_CONTEXT ( ( #182 ) ) GLOBAL_UNIT_ASSIGNED_CONTEXT ( ( #34, #252, #254 ) ) REPRESENTATION_CONTEXT ( 'NONE', 'WORKASPACE' ) );
#51 = EDGE_LOOP ( 'NONE', ( #12, #139 ) ) ;
#52 = PRESENTATION_STYLE_ASSIGNMENT (( #225 ) ) ;
#53 = ORIENTED_EDGE ( 'NONE', *, *, #284, .F. ) ;
#54 = FILL_AREA_STYLE ('',( #167 ) ) ;
#55 = VERTEX_POINT ( 'NONE', #40 ) ;
#56 = DIMENSIONAL_EXPONENTS ( 1.000000000000000000, 0.000000000000000000, 0.000000000000000000, 0.000000000000000000, 0.000000000000000000, 0.000000000000000000, 0.000000000000000000 ) ;
#57 = ORIENTED_EDGE ( 'NONE', *, *, #110, .F. ) ;
#58 =( CONVERSION_BASED_UNIT ( 'INCH', #179 ) LENGTH_UNIT ( ) NAMED_UNIT ( #221 ) );
#59 = DIRECTION ( 'NONE',  ( 0.000000000000000000, 0.000000000000000000, -1.000000000000000000 ) ) ;
#60 = PRODUCT_RELATED_PRODUCT_CATEGORY ( 'part', '', ( #160 ) ) ;
#61 = ORIENTED_EDGE ( 'NONE', *, *, #110, .T. ) ;
#62 = CYLINDRICAL_SURFACE ( 'NONE', #87, 0.06250000000000001388 ) ;
#63 = AXIS2_PLACEMENT_3D ( 'NONE', #224, #195, #218 ) ;
#64 = SURFACE_SIDE_STYLE ('',( #126 ) ) ;
#65 = CARTESIAN_POINT ( 'NONE',  ( 0.000000000000000000, 0.000000000000000000, 0.000000000000000000 ) ) ;
#66 =( NAMED_UNIT ( * ) SI_UNIT ( $, .STERADIAN. ) SOLID_ANGLE_UNIT ( ) );
#67 = ORIENTED_EDGE ( 'NONE', *, *, #250, .F. ) ;
#68 = DIRECTION ( 'NONE',  ( -1.000000000000000000, 0.000000000000000000, 0.000000000000000000 ) ) ;
#69 = SURFACE_SIDE_STYLE ('',( #131 ) ) ;
#70 = ORIENTED_EDGE ( 'NONE', *, *, #135, .F. ) ;
#71 = CARTESIAN_POINT ( 'NONE',  ( -6.123233995736766036E-17, 2.500000000000000000, 0.000000000000000000 ) ) ;
#72 = PRESENTATION_STYLE_ASSIGNMENT (( #264 ) ) ;
#73 = CIRCLE ( 'NONE', #17, 0.06250000000000000000 ) ;
#74 = CARTESIAN_POINT ( 'NONE',  ( 7.654042494670959086E-18, 0.5000000000000000000, 0.06250000000000000000 ) ) ;
#75 = DIMENSIONAL_EXPONENTS ( 1.000000000000000000, 0.000000000000000000, 0.000000000000000000, 0.000000000000000000, 0.000000000000000000, 0.000000000000000000, 0.000000000000000000 ) ;
#76 = AXIS2_PLACEMENT_3D ( 'NONE', #127, #242, #297 ) ;
#77 = ADVANCED_FACE ( 'NONE', ( #91 ), #118, .F. ) ;
#78 =( CONVERSION_BASED_UNIT ( 'INCH', #24 ) LENGTH_UNIT ( ) NAMED_UNIT ( #75 ) );
#79 = CARTESIAN_POINT ( 'NONE',  ( 0.000000000000000000, 0.000000000000000000, 0.000000000000000000 ) ) ;
#80 = DIRECTION ( 'NONE',  ( 0.000000000000000000, -1.000000000000000000, -0.000000000000000000 ) ) ;
#81 = PRESENTATION_LAYER_ASSIGNMENT (  '', '', ( #30 ) ) ;
#82 = DIMENSIONAL_EXPONENTS ( 1.000000000000000000, 0.000000000000000000, 0.000000000000000000, 0.000000000000000000, 0.000000000000000000, 0.000000000000000000, 0.000000000000000000 ) ;
#83 = MECHANICAL_DESIGN_GEOMETRIC_PRESENTATION_REPRESENTATION (  '', ( #266 ), #99 ) ;
#84 = PRODUCT_DEFINITION_FORMATION_WITH_SPECIFIED_SOURCE ( 'ANY', '', #160, .NOT_KNOWN. ) ;
#85 = VERTEX_POINT ( 'NONE', #300 ) ;
#86 = PLANE ( 'NONE',  #174 ) ;
#87 = AXIS2_PLACEMENT_3D ( 'NONE', #79, #7, #175 ) ;
#88 = DIRECTION ( 'NONE',  ( -0.000000000000000000, -1.000000000000000000, -0.000000000000000000 ) ) ;
#89 = UNCERTAINTY_MEASURE_WITH_UNIT (LENGTH_MEASURE( 1.000000000000000082E-05 ), #78, 'distance_accuracy_value', 'NONE');
#90 = VERTEX_POINT ( 'NONE', #196 ) ;
#91 = FACE_OUTER_BOUND ( 'NONE', #111, .T. ) ;
#92 = VERTEX_POINT ( 'NONE', #74 ) ;
#93 = CARTESIAN_POINT ( 'NONE',  ( -6.123233995736766036E-17, 2.500000000000000000, 0.000000000000000000 ) ) ;
#94 = ADVANCED_FACE ( 'NONE', ( #16 ), #134, .T. ) ;
#95 = COLOUR_RGB ( '',1.000000000000000000, 0.000000000000000000, 0.000000000000000000 ) ;
#96 = DIRECTION ( 'NONE',  ( -3.061616997868383018E-17, 1.000000000000000000, -0.000000000000000000 ) ) ;
#97 = ADVANCED_FACE ( 'NONE', ( #117 ), #86, .T. ) ;
#98 = DIRECTION ( 'NONE',  ( -0.000000000000000000, -1.000000000000000000, -0.000000000000000000 ) ) ;
#99 =( GEOMETRIC_REPRESENTATION_CONTEXT ( 3 ) GLOBAL_UNCERTAINTY_ASSIGNED_CONTEXT ( ( #248 ) ) GLOBAL_UNIT_ASSIGNED_CONTEXT ( ( #39, #253, #66 ) ) REPRESENTATION_CONTEXT ( 'NONE', 'WORKASPACE' ) );
#100 = VECTOR ( 'NONE', #149, 39.37007874015748143 ) ;
#101 =( NAMED_UNIT ( * ) SI_UNIT ( $, .STERADIAN. ) SOLID_ANGLE_UNIT ( ) );
#102 =( NAMED_UNIT ( * ) PLANE_ANGLE_UNIT ( ) SI_UNIT ( $, .RADIAN. ) );
#103 = LENGTH_MEASURE_WITH_UNIT ( LENGTH_MEASURE( 0.02539999999999999897 ), #140 );
#104 = CARTESIAN_POINT ( 'NONE',  ( 0.000000000000000000, 0.000000000000000000, 0.000000000000000000 ) ) ;
#105 = FILL_AREA_STYLE ('',( #147 ) ) ;
#106 = UNCERTAINTY_MEASURE_WITH_UNIT (LENGTH_MEASURE( 1.000000000000000082E-05 ), #220, 'distance_accuracy_value', 'NONE');
#107 = CARTESIAN_POINT ( 'NONE',  ( 0.000000000000000000, 0.5000000000000000000, 0.000000000000000000 ) ) ;
#108 = FILL_AREA_STYLE ('',( #180 ) ) ;
#109 = VERTEX_POINT ( 'NONE', #48 ) ;
#110 = EDGE_CURVE ( 'NONE', #109, #230, #199, .T. ) ;
#111 = EDGE_LOOP ( 'NONE', ( #239, #53 ) ) ;
#112 = DIRECTION ( 'NONE',  ( -3.061616997868383018E-17, 1.000000000000000000, -0.000000000000000000 ) ) ;
#113 = DIRECTION ( 'NONE',  ( -1.000000000000000000, 0.000000000000000000, 0.000000000000000000 ) ) ;
#114 = PRESENTATION_LAYER_ASSIGNMENT (  '', '', ( #6 ) ) ;
#115 = CARTESIAN_POINT ( 'NONE',  ( 0.000000000000000000, 0.000000000000000000, 0.000000000000000000 ) ) ;
#116 = ORIENTED_EDGE ( 'NONE', *, *, #176, .F. ) ;
#117 = FACE_OUTER_BOUND ( 'NONE', #51, .T. ) ;
#118 = PLANE ( 'NONE',  #299 ) ;
#119 = DIRECTION ( 'NONE',  ( 0.000000000000000000, -0.000000000000000000, 1.000000000000000000 ) ) ;
#120 = MECHANICAL_DESIGN_GEOMETRIC_PRESENTATION_REPRESENTATION (  '', ( #270 ), #121 ) ;
#121 =( GEOMETRIC_REPRESENTATION_CONTEXT ( 3 ) GLOBAL_UNCERTAINTY_ASSIGNED_CONTEXT ( ( #35 ) ) GLOBAL_UNIT_ASSIGNED_CONTEXT ( ( #262, #285, #259 ) ) REPRESENTATION_CONTEXT ( 'NONE', 'WORKASPACE' ) );
#122 = LENGTH_MEASURE_WITH_UNIT ( LENGTH_MEASURE( 0.02539999999999999897 ), #28 );
#123 = DIMENSIONAL_EXPONENTS ( 1.000000000000000000, 0.000000000000000000, 0.000000000000000000, 0.000000000000000000, 0.000000000000000000, 0.000000000000000000, 0.000000000000000000 ) ;
#124 = AXIS2_PLACEMENT_3D ( 'NONE', #104, #80, #59 ) ;
#125 =( NAMED_UNIT ( * ) PLANE_ANGLE_UNIT ( ) SI_UNIT ( $, .RADIAN. ) );
#126 = SURFACE_STYLE_FILL_AREA ( #33 ) ;
#127 = CARTESIAN_POINT ( 'NONE',  ( 0.000000000000000000, 0.5000000000000000000, 0.000000000000000000 ) ) ;
#128 = CIRCLE ( 'NONE', #206, 0.06250000000000001388 ) ;
#129 = PRESENTATION_STYLE_ASSIGNMENT (( #301 ) ) ;
#130 = AXIS2_PLACEMENT_3D ( 'NONE', #287, #112, #68 ) ;
#131 = SURFACE_STYLE_FILL_AREA ( #108 ) ;
#132 = CARTESIAN_POINT ( 'NONE',  ( 2.929218325511440640E-35, 0.5000000000000000000, 0.000000000000000000 ) ) ;
#133 = VERTEX_POINT ( 'NONE', #256 ) ;
#134 = CYLINDRICAL_SURFACE ( 'NONE', #130, 0.06250000000000002776 ) ;
#135 = EDGE_CURVE ( 'NONE', #92, #133, #184, .T. ) ;
#136 = PRESENTATION_STYLE_ASSIGNMENT (( #18 ) ) ;
#137 = LINE ( 'NONE', #281, #191 ) ;
#138 = VECTOR ( 'NONE', #20, 39.37007874015748143 ) ;
#139 = ORIENTED_EDGE ( 'NONE', *, *, #263, .F. ) ;
#140 =( LENGTH_UNIT ( ) NAMED_UNIT ( * ) SI_UNIT ( $, .METRE. ) );
#141 =( LENGTH_UNIT ( ) NAMED_UNIT ( * ) SI_UNIT ( $, .METRE. ) );
#142 = DIRECTION ( 'NONE',  ( 0.000000000000000000, 0.000000000000000000, 1.000000000000000000 ) ) ;
#143 = SURFACE_SIDE_STYLE ('',( #172 ) ) ;
#144 = CIRCLE ( 'NONE', #9, 0.06250000000000005551 ) ;
#145 = SURFACE_SIDE_STYLE ('',( #304 ) ) ;
#146 = ORIENTED_EDGE ( 'NONE', *, *, #293, .T. ) ;
#147 = FILL_AREA_STYLE_COLOUR ( '', #226 ) ;
#148 = ORIENTED_EDGE ( 'NONE', *, *, #295, .T. ) ;
#149 = DIRECTION ( 'NONE',  ( -0.000000000000000000, -1.000000000000000000, -0.000000000000000000 ) ) ;
#150 = MECHANICAL_DESIGN_GEOMETRIC_PRESENTATION_REPRESENTATION (  '', ( #173 ), #219 ) ;
#151 = AXIS2_PLACEMENT_3D ( 'NONE', #154, #246, #269 ) ;
#152 = ADVANCED_FACE ( 'NONE', ( #8 ), #26, .T. ) ;
#153 = LINE ( 'NONE', #272, #100 ) ;
#154 = CARTESIAN_POINT ( 'NONE',  ( 0.000000000000000000, 0.000000000000000000, 0.000000000000000000 ) ) ;
#155 = EDGE_CURVE ( 'NONE', #85, #133, #128, .T. ) ;
#156 = DIRECTION ( 'NONE',  ( -3.061616997868383018E-17, 1.000000000000000000, -0.000000000000000000 ) ) ;
#157 = PRODUCT_DEFINITION_SHAPE ( 'NONE', 'NONE',  #43 ) ;
#158 = PRESENTATION_STYLE_ASSIGNMENT (( #223 ) ) ;
#159 =( NAMED_UNIT ( * ) SI_UNIT ( $, .STERADIAN. ) SOLID_ANGLE_UNIT ( ) );
#160 = PRODUCT ( '84384', '84384', '', ( #286 ) ) ;
#161 = PRODUCT_DEFINITION_CONTEXT ( 'detailed design', #265, 'design' ) ;
#162 = AXIS2_PLACEMENT_3D ( 'NONE', #15, #96, #113 ) ;
#163 = ORIENTED_EDGE ( 'NONE', *, *, #250, .T. ) ;
#164 = SURFACE_STYLE_FILL_AREA ( #305 ) ;
#165 = CARTESIAN_POINT ( 'NONE',  ( 0.000000000000000000, 0.5000000000000001110, 0.000000000000000000 ) ) ;
#166 =( GEOMETRIC_REPRESENTATION_CONTEXT ( 3 ) GLOBAL_UNCERTAINTY_ASSIGNED_CONTEXT ( ( #106 ) ) GLOBAL_UNIT_ASSIGNED_CONTEXT ( ( #220, #125, #291 ) ) REPRESENTATION_CONTEXT ( 'NONE', 'WORKASPACE' ) );
#167 = FILL_AREA_STYLE_COLOUR ( '', #38 ) ;
#168 = MECHANICAL_DESIGN_GEOMETRIC_PRESENTATION_REPRESENTATION (  '', ( #30 ), #271 ) ;
#169 = ADVANCED_FACE ( 'NONE', ( #268 ), #292, .F. ) ;
#170 = DIRECTION ( 'NONE',  ( 0.000000000000000000, 0.000000000000000000, -1.000000000000000000 ) ) ;
#171 = ORIENTED_EDGE ( 'NONE', *, *, #293, .F. ) ;
#172 = SURFACE_STYLE_FILL_AREA ( #54 ) ;
#173 = STYLED_ITEM ( 'NONE', ( #129 ), #23 ) ;
#174 = AXIS2_PLACEMENT_3D ( 'NONE', #188, #13, #119 ) ;
#175 = DIRECTION ( 'NONE',  ( 0.000000000000000000, 0.000000000000000000, -1.000000000000000000 ) ) ;
#176 = EDGE_CURVE ( 'NONE', #309, #85, #153, .T. ) ;
#177 = SURFACE_SIDE_STYLE ('',( #32 ) ) ;
#178 = FILL_AREA_STYLE_COLOUR ( '', #190 ) ;
#179 = LENGTH_MEASURE_WITH_UNIT ( LENGTH_MEASURE( 0.02539999999999999897 ), #200 );
#180 = FILL_AREA_STYLE_COLOUR ( '', #95 ) ;
#181 = SURFACE_SIDE_STYLE ('',( #164 ) ) ;
#182 = UNCERTAINTY_MEASURE_WITH_UNIT (LENGTH_MEASURE( 1.000000000000000082E-05 ), #34, 'distance_accuracy_value', 'NONE');
#183 = PRESENTATION_LAYER_ASSIGNMENT (  '', '', ( #290 ) ) ;
#184 = LINE ( 'NONE', #283, #267 ) ;
#185 =( NAMED_UNIT ( * ) SI_UNIT ( $, .STERADIAN. ) SOLID_ANGLE_UNIT ( ) );
#186 = FILL_AREA_STYLE ('',( #231 ) ) ;
#187 =( LENGTH_UNIT ( ) NAMED_UNIT ( * ) SI_UNIT ( $, .METRE. ) );
#188 = CARTESIAN_POINT ( 'NONE',  ( 0.000000000000000000, 0.5000000000000000000, 0.000000000000000000 ) ) ;
#189 = ORIENTED_EDGE ( 'NONE', *, *, #222, .F. ) ;
#190 = COLOUR_RGB ( '',0.7921568627450980005, 0.8196078431372548767, 0.9333333333333333481 ) ;
#191 = VECTOR ( 'NONE', #208, 39.37007874015748143 ) ;
#192 = APPLICATION_CONTEXT ( 'automotive_design' ) ;
#193 = DIRECTION ( 'NONE',  ( 0.000000000000000000, 0.000000000000000000, -1.000000000000000000 ) ) ;
#194 = ORIENTED_EDGE ( 'NONE', *, *, #284, .T. ) ;
#195 = DIRECTION ( 'NONE',  ( 3.061616997868383018E-17, -1.000000000000000000, 0.000000000000000000 ) ) ;
#196 = CARTESIAN_POINT ( 'NONE',  ( -0.06250000000000000000, 0.5000000000000001110, 0.000000000000000000 ) ) ;
#197 = EDGE_LOOP ( 'NONE', ( #255, #194, #146, #67 ) ) ;
#198 =( GEOMETRIC_REPRESENTATION_CONTEXT ( 3 ) GLOBAL_UNCERTAINTY_ASSIGNED_CONTEXT ( ( #27 ) ) GLOBAL_UNIT_ASSIGNED_CONTEXT ( ( #58, #229, #185 ) ) REPRESENTATION_CONTEXT ( 'NONE', 'WORKASPACE' ) );
#199 = CIRCLE ( 'NONE', #294, 0.06250000000000005551 ) ;
#200 =( LENGTH_UNIT ( ) NAMED_UNIT ( * ) SI_UNIT ( $, .METRE. ) );
#201 = ADVANCED_FACE ( 'NONE', ( #243 ), #62, .T. ) ;
#202 = DIRECTION ( 'NONE',  ( 0.000000000000000000, 0.000000000000000000, -1.000000000000000000 ) ) ;
#203 = EDGE_LOOP ( 'NONE', ( #31, #261, #228, #116 ) ) ;
#204 = DIRECTION ( 'NONE',  ( -0.000000000000000000, -1.000000000000000000, -0.000000000000000000 ) ) ;
#205 = MECHANICAL_DESIGN_GEOMETRIC_PRESENTATION_REPRESENTATION (  '', ( #6 ), #198 ) ;
#206 = AXIS2_PLACEMENT_3D ( 'NONE', #245, #98, #193 ) ;
#207 = EDGE_LOOP ( 'NONE', ( #148, #19, #57, #171 ) ) ;
#208 = DIRECTION ( 'NONE',  ( -3.061616997868383018E-17, 1.000000000000000000, -0.000000000000000000 ) ) ;
#209 = ORIENTED_EDGE ( 'NONE', *, *, #155, .T. ) ;
#210 = DIRECTION ( 'NONE',  ( -1.000000000000000000, -3.061616997868383018E-17, 0.000000000000000000 ) ) ;
#211 = EDGE_LOOP ( 'NONE', ( #209, #47 ) ) ;
#212 = ADVANCED_BREP_SHAPE_REPRESENTATION ( '84384', ( #23, #22, #251 ), #50 ) ;
#213 = PRESENTATION_LAYER_ASSIGNMENT (  '', '', ( #173 ) ) ;
#214 = MECHANICAL_DESIGN_GEOMETRIC_PRESENTATION_REPRESENTATION (  '', ( #290 ), #166 ) ;
#215 = LENGTH_MEASURE_WITH_UNIT ( LENGTH_MEASURE( 0.02539999999999999897 ), #141 );
#216 = CYLINDRICAL_SURFACE ( 'NONE', #4, 0.06250000000000002776 ) ;
#217 = DIMENSIONAL_EXPONENTS ( 1.000000000000000000, 0.000000000000000000, 0.000000000000000000, 0.000000000000000000, 0.000000000000000000, 0.000000000000000000, 0.000000000000000000 ) ;
#218 = DIRECTION ( 'NONE',  ( 1.000000000000000000, 3.061616997868383018E-17, 0.000000000000000000 ) ) ;
#219 =( GEOMETRIC_REPRESENTATION_CONTEXT ( 3 ) GLOBAL_UNCERTAINTY_ASSIGNED_CONTEXT ( ( #279 ) ) GLOBAL_UNIT_ASSIGNED_CONTEXT ( ( #233, #14, #159 ) ) REPRESENTATION_CONTEXT ( 'NONE', 'WORKASPACE' ) );
#220 =( CONVERSION_BASED_UNIT ( 'INCH', #122 ) LENGTH_UNIT ( ) NAMED_UNIT ( #123 ) );
#221 = DIMENSIONAL_EXPONENTS ( 1.000000000000000000, 0.000000000000000000, 0.000000000000000000, 0.000000000000000000, 0.000000000000000000, 0.000000000000000000, 0.000000000000000000 ) ;
#222 = EDGE_CURVE ( 'NONE', #133, #85, #303, .T. ) ;
#223 = SURFACE_STYLE_USAGE ( .BOTH. , #64 ) ;
#224 = CARTESIAN_POINT ( 'NONE',  ( 0.06250000000000000000, 2.500000000000000000, 0.000000000000000000 ) ) ;
#225 = SURFACE_STYLE_USAGE ( .BOTH. , #145 ) ;
#226 = COLOUR_RGB ( '',1.000000000000000000, 0.000000000000000000, 0.000000000000000000 ) ;
#227 = EDGE_CURVE ( 'NONE', #309, #92, #36, .T. ) ;
#228 = ORIENTED_EDGE ( 'NONE', *, *, #155, .F. ) ;
#229 =( NAMED_UNIT ( * ) PLANE_ANGLE_UNIT ( ) SI_UNIT ( $, .RADIAN. ) );
#230 = VERTEX_POINT ( 'NONE', #275 ) ;
#231 = FILL_AREA_STYLE_COLOUR ( '', #237 ) ;
#232 = CARTESIAN_POINT ( 'NONE',  ( -6.123233995736766036E-17, 2.500000000000000000, 0.000000000000000000 ) ) ;
#233 =( CONVERSION_BASED_UNIT ( 'INCH', #257 ) LENGTH_UNIT ( ) NAMED_UNIT ( #217 ) );
#234 = ORIENTED_EDGE ( 'NONE', *, *, #263, .T. ) ;
#235 = DIRECTION ( 'NONE',  ( -3.061616997868383018E-17, 1.000000000000000000, -0.000000000000000000 ) ) ;
#236 = DIRECTION ( 'NONE',  ( 1.000000000000000000, 0.000000000000000000, 0.000000000000000000 ) ) ;
#237 = COLOUR_RGB ( '',1.000000000000000000, 0.000000000000000000, 0.000000000000000000 ) ;
#238 = DIRECTION ( 'NONE',  ( -1.000000000000000000, 0.000000000000000000, 0.000000000000000000 ) ) ;
#239 = ORIENTED_EDGE ( 'NONE', *, *, #295, .F. ) ;
#240 = CARTESIAN_POINT ( 'NONE',  ( 0.06249999999999997224, 2.500000000000000000, 7.654042494670960626E-18 ) ) ;
#241 = CIRCLE ( 'NONE', #276, 0.06250000000000000000 ) ;
#242 = DIRECTION ( 'NONE',  ( -0.000000000000000000, -1.000000000000000000, -0.000000000000000000 ) ) ;
#243 = FACE_OUTER_BOUND ( 'NONE', #282, .T. ) ;
#244 = DIMENSIONAL_EXPONENTS ( 1.000000000000000000, 0.000000000000000000, 0.000000000000000000, 0.000000000000000000, 0.000000000000000000, 0.000000000000000000, 0.000000000000000000 ) ;
#245 = CARTESIAN_POINT ( 'NONE',  ( 0.000000000000000000, 0.000000000000000000, 0.000000000000000000 ) ) ;
#246 = DIRECTION ( 'NONE',  ( -0.000000000000000000, -1.000000000000000000, -0.000000000000000000 ) ) ;
#247 = EDGE_LOOP ( 'NONE', ( #61, #163 ) ) ;
#248 = UNCERTAINTY_MEASURE_WITH_UNIT (LENGTH_MEASURE( 1.000000000000000082E-05 ), #39, 'distance_accuracy_value', 'NONE');
#249 = CIRCLE ( 'NONE', #162, 0.06250000000000000000 ) ;
#250 = EDGE_CURVE ( 'NONE', #230, #109, #144, .T. ) ;
#251 = AXIS2_PLACEMENT_3D ( 'NONE', #115, #142, #236 ) ;
#252 =( NAMED_UNIT ( * ) PLANE_ANGLE_UNIT ( ) SI_UNIT ( $, .RADIAN. ) );
#253 =( NAMED_UNIT ( * ) PLANE_ANGLE_UNIT ( ) SI_UNIT ( $, .RADIAN. ) );
#254 =( NAMED_UNIT ( * ) SI_UNIT ( $, .STERADIAN. ) SOLID_ANGLE_UNIT ( ) );
#255 = ORIENTED_EDGE ( 'NONE', *, *, #296, .F. ) ;
#256 = CARTESIAN_POINT ( 'NONE',  ( 7.654042494670960626E-18, 0.000000000000000000, 0.06250000000000002776 ) ) ;
#257 = LENGTH_MEASURE_WITH_UNIT ( LENGTH_MEASURE( 0.02539999999999999897 ), #44 );
#258 = DIRECTION ( 'NONE',  ( -3.061616997868383018E-17, 1.000000000000000000, -0.000000000000000000 ) ) ;
#259 =( NAMED_UNIT ( * ) SI_UNIT ( $, .STERADIAN. ) SOLID_ANGLE_UNIT ( ) );
#260 = LENGTH_MEASURE_WITH_UNIT ( LENGTH_MEASURE( 0.02539999999999999897 ), #187 );
#261 = ORIENTED_EDGE ( 'NONE', *, *, #135, .T. ) ;
#262 =( CONVERSION_BASED_UNIT ( 'INCH', #215 ) LENGTH_UNIT ( ) NAMED_UNIT ( #82 ) );
#263 = EDGE_CURVE ( 'NONE', #92, #309, #73, .T. ) ;
#264 = SURFACE_STYLE_USAGE ( .BOTH. , #143 ) ;
#265 = APPLICATION_CONTEXT ( 'automotive_design' ) ;
#266 = STYLED_ITEM ( 'NONE', ( #136 ), #37 ) ;
#267 = VECTOR ( 'NONE', #42, 39.37007874015748143 ) ;
#268 = FACE_OUTER_BOUND ( 'NONE', #247, .T. ) ;
#269 = DIRECTION ( 'NONE',  ( 0.000000000000000000, 0.000000000000000000, -1.000000000000000000 ) ) ;
#270 = STYLED_ITEM ( 'NONE', ( #72 ), #97 ) ;
#271 =( GEOMETRIC_REPRESENTATION_CONTEXT ( 3 ) GLOBAL_UNCERTAINTY_ASSIGNED_CONTEXT ( ( #89 ) ) GLOBAL_UNIT_ASSIGNED_CONTEXT ( ( #78, #102, #101 ) ) REPRESENTATION_CONTEXT ( 'NONE', 'WORKASPACE' ) );
#272 = CARTESIAN_POINT ( 'NONE',  ( 0.000000000000000000, 0.000000000000000000, -0.06250000000000001388 ) ) ;
#273 = ADVANCED_FACE ( 'NONE', ( #25 ), #216, .T. ) ;
#274 = PRESENTATION_STYLE_ASSIGNMENT (( #10 ) ) ;
#275 = CARTESIAN_POINT ( 'NONE',  ( 0.06250000000000000000, 2.500000000000000000, 7.654042494670963708E-18 ) ) ;
#276 = AXIS2_PLACEMENT_3D ( 'NONE', #165, #258, #238 ) ;
#277 = DIRECTION ( 'NONE',  ( -1.000000000000000000, 0.000000000000000000, 0.000000000000000000 ) ) ;
#278 = FILL_AREA_STYLE_COLOUR ( '', #29 ) ;
#279 = UNCERTAINTY_MEASURE_WITH_UNIT (LENGTH_MEASURE( 1.000000000000000082E-05 ), #233, 'distance_accuracy_value', 'NONE');
#280 = ORIENTED_EDGE ( 'NONE', *, *, #176, .T. ) ;
#281 = CARTESIAN_POINT ( 'NONE',  ( -0.06250000000000009714, 2.500000000000000000, 0.000000000000000000 ) ) ;
#282 = EDGE_LOOP ( 'NONE', ( #70, #234, #280, #189 ) ) ;
#283 = CARTESIAN_POINT ( 'NONE',  ( 7.654042494670959086E-18, 0.000000000000000000, 0.06250000000000001388 ) ) ;
#284 = EDGE_CURVE ( 'NONE', #55, #90, #249, .T. ) ;
#285 =( NAMED_UNIT ( * ) PLANE_ANGLE_UNIT ( ) SI_UNIT ( $, .RADIAN. ) );
#286 = PRODUCT_CONTEXT ( 'NONE', #192, 'mechanical' ) ;
#287 = CARTESIAN_POINT ( 'NONE',  ( -6.123233995736766036E-17, 2.500000000000000000, 0.000000000000000000 ) ) ;
#288 = CLOSED_SHELL ( 'NONE', ( #94, #77, #273, #169 ) ) ;
#289 = PRESENTATION_LAYER_ASSIGNMENT (  '', '', ( #266 ) ) ;
#290 = STYLED_ITEM ( 'NONE', ( #274 ), #201 ) ;
#291 =( NAMED_UNIT ( * ) SI_UNIT ( $, .STERADIAN. ) SOLID_ANGLE_UNIT ( ) );
#292 = PLANE ( 'NONE',  #63 ) ;
#293 = EDGE_CURVE ( 'NONE', #90, #109, #137, .T. ) ;
#294 = AXIS2_PLACEMENT_3D ( 'NONE', #93, #2, #302 ) ;
#295 = EDGE_CURVE ( 'NONE', #90, #55, #241, .T. ) ;
#296 = EDGE_CURVE ( 'NONE', #55, #230, #46, .T. ) ;
#297 = DIRECTION ( 'NONE',  ( 0.000000000000000000, 0.000000000000000000, -1.000000000000000000 ) ) ;
#298 = CLOSED_SHELL ( 'NONE', ( #37, #97, #201, #152 ) ) ;
#299 = AXIS2_PLACEMENT_3D ( 'NONE', #132, #308, #210 ) ;
#300 = CARTESIAN_POINT ( 'NONE',  ( 0.000000000000000000, 0.000000000000000000, -0.06250000000000001388 ) ) ;
#301 = SURFACE_STYLE_USAGE ( .BOTH. , #181 ) ;
#302 = DIRECTION ( 'NONE',  ( -1.000000000000000000, 0.000000000000000000, 0.000000000000000000 ) ) ;
#303 = CIRCLE ( 'NONE', #151, 0.06250000000000001388 ) ;
#304 = SURFACE_STYLE_FILL_AREA ( #186 ) ;
#305 = FILL_AREA_STYLE ('',( #278 ) ) ;
#306 = SHAPE_DEFINITION_REPRESENTATION ( #157, #212 ) ;
#307 = CARTESIAN_POINT ( 'NONE',  ( 0.000000000000000000, 0.5000000000000000000, -0.06250000000000000000 ) ) ;
#308 = DIRECTION ( 'NONE',  ( -3.061616997868383018E-17, 1.000000000000000000, 0.000000000000000000 ) ) ;
#309 = VERTEX_POINT ( 'NONE', #307 ) ;
ENDSEC;
END-ISO-10303-21;
