ISO-10303-21;
HEADER;
FILE_DESCRIPTION (( 'STEP AP214' ),
    '1' );
FILE_NAME ('Micro_GEC-250-4-030X.STEP',
    '2021-09-03T17:17:16',
    ( '' ),
    ( '' ),
    'SwSTEP 2.0',
    'SolidWorks 2020',
    '' );
FILE_SCHEMA (( 'AUTOMOTIVE_DESIGN' ));
ENDSEC;

DATA;
#1 = AXIS2_PLACEMENT_3D ( 'NONE', #166, #322, #58 ) ;
#2 = FACE_OUTER_BOUND ( 'NONE', #291, .T. ) ;
#3 = CARTESIAN_POINT ( 'NONE',  ( 0.1250000000000000000, 1.530808498934191509E-17, 2.485000000000000320 ) ) ;
#4 = PRODUCT_DEFINITION_CONTEXT ( 'detailed design', #234, 'design' ) ;
#5 = DIRECTION ( 'NONE',  ( 1.000000000000000000, 0.0000000000000000000, 0.0000000000000000000 ) ) ;
#6 = VERTEX_POINT ( 'NONE', #35 ) ;
#7 = AXIS2_PLACEMENT_3D ( 'NONE', #92, #333, #129 ) ;
#8 = UNCERTAINTY_MEASURE_WITH_UNIT (LENGTH_MEASURE( 1.000000000000000082E-05 ), #187, 'distance_accuracy_value', 'NONE');
#9 = ORIENTED_EDGE ( 'NONE', *, *, #307, .F. ) ;
#10 = PRODUCT_DEFINITION_SHAPE ( 'NONE', 'NONE',  #78 ) ;
#11 = CARTESIAN_POINT ( 'NONE',  ( 9.184850993605150903E-17, 0.0000000000000000000, 0.7500000000000001110 ) ) ;
#12 = LINE ( 'NONE', #183, #113 ) ;
#13 = PRODUCT_RELATED_PRODUCT_CATEGORY ( 'part', '', ( #295 ) ) ;
#14 = CIRCLE ( 'NONE', #112, 0.03000000000000000583 ) ;
#15 = DIRECTION ( 'NONE',  ( 1.000000000000000000, 0.0000000000000000000, 0.0000000000000000000 ) ) ;
#16 = CARTESIAN_POINT ( 'NONE',  ( 3.673940397442059960E-18, 0.0000000000000000000, 0.03000000000000000583 ) ) ;
#17 = CARTESIAN_POINT ( 'NONE',  ( -0.1100000000000001948, 0.0000000000000000000, 2.500000000000000000 ) ) ;
#18 = EDGE_CURVE ( 'NONE', #104, #261, #145, .T. ) ;
#19 = CONICAL_SURFACE ( 'NONE', #40, 0.1100000000000001948, 0.7853981633974517207 ) ;
#20 = FACE_OUTER_BOUND ( 'NONE', #171, .T. ) ;
#21 = ORIENTED_EDGE ( 'NONE', *, *, #18, .F. ) ;
#22 = DIRECTION ( 'NONE',  ( 1.000000000000000000, 0.0000000000000000000, 0.0000000000000000000 ) ) ;
#23 = DIRECTION ( 'NONE',  ( 1.224646799147353207E-16, 0.0000000000000000000, 1.000000000000000000 ) ) ;
#24 = ADVANCED_FACE ( 'NONE', ( #330 ), #350, .T. ) ;
#25 = FACE_OUTER_BOUND ( 'NONE', #91, .T. ) ;
#26 = AXIS2_PLACEMENT_3D ( 'NONE', #319, #135, #55 ) ;
#27 = CARTESIAN_POINT ( 'NONE',  ( 9.184850993605150903E-17, 0.0000000000000000000, 0.7500000000000001110 ) ) ;
#28 = LENGTH_MEASURE_WITH_UNIT ( LENGTH_MEASURE( 0.02539999999999999897 ), #249 );
#29 = EDGE_CURVE ( 'NONE', #149, #47, #172, .T. ) ;
#30 = FILL_AREA_STYLE_COLOUR ( '', #94 ) ;
#31 = DIRECTION ( 'NONE',  ( -1.000000000000000000, 0.0000000000000000000, 0.0000000000000000000 ) ) ;
#32 = CYLINDRICAL_SURFACE ( 'NONE', #1, 0.1248749999999999999 ) ;
#33 = ORIENTED_EDGE ( 'NONE', *, *, #318, .T. ) ;
#34 = LENGTH_MEASURE_WITH_UNIT ( LENGTH_MEASURE( 0.02539999999999999897 ), #120 );
#35 = CARTESIAN_POINT ( 'NONE',  ( 0.1100000000000001948, 1.438959988998141146E-17, 2.500000000000000000 ) ) ;
#36 = ADVANCED_FACE ( 'NONE', ( #38 ), #213, .T. ) ;
#37 = DIRECTION ( 'NONE',  ( 1.000000000000000000, 0.0000000000000000000, -0.0000000000000000000 ) ) ;
#38 = FACE_OUTER_BOUND ( 'NONE', #252, .T. ) ;
#39 = CIRCLE ( 'NONE', #179, 0.1100000000000001948 ) ;
#40 = AXIS2_PLACEMENT_3D ( 'NONE', #188, #163, #266 ) ;
#41 = VERTEX_POINT ( 'NONE', #3 ) ;
#42 = EDGE_CURVE ( 'NONE', #110, #47, #77, .T. ) ;
#43 = CARTESIAN_POINT ( 'NONE',  ( 0.0000000000000000000, 0.0000000000000000000, 2.485000000000000320 ) ) ;
#44 = APPLICATION_CONTEXT ( 'automotive_design' ) ;
#45 = FACE_OUTER_BOUND ( 'NONE', #259, .T. ) ;
#46 = DIRECTION ( 'NONE',  ( -1.000000000000000000, 0.0000000000000000000, 0.0000000000000000000 ) ) ;
#47 = VERTEX_POINT ( 'NONE', #254 ) ;
#48 = DIRECTION ( 'NONE',  ( 1.000000000000000000, 0.0000000000000000000, 0.0000000000000000000 ) ) ;
#49 = ORIENTED_EDGE ( 'NONE', *, *, #318, .F. ) ;
#50 = CIRCLE ( 'NONE', #241, 0.1248749999999999999 ) ;
#51 = VECTOR ( 'NONE', #130, 39.37007874015748143 ) ;
#52 = DIRECTION ( 'NONE',  ( -0.0000000000000000000, -0.0000000000000000000, -1.000000000000000000 ) ) ;
#53 = EDGE_CURVE ( 'NONE', #306, #104, #219, .T. ) ;
#54 =( LENGTH_UNIT ( ) NAMED_UNIT ( * ) SI_UNIT ( $, .METRE. ) );
#55 = DIRECTION ( 'NONE',  ( 0.0000000000000000000, 0.0000000000000000000, -1.000000000000000000 ) ) ;
#56 = CARTESIAN_POINT ( 'NONE',  ( 0.0000000000000000000, 0.0000000000000000000, 2.500000000000000000 ) ) ;
#57 = ORIENTED_EDGE ( 'NONE', *, *, #278, .T. ) ;
#58 = DIRECTION ( 'NONE',  ( -1.000000000000000000, 0.0000000000000000000, 1.224646799147353454E-16 ) ) ;
#59 = MECHANICAL_DESIGN_GEOMETRIC_PRESENTATION_REPRESENTATION (  '', ( #192 ), #308 ) ;
#60 = ORIENTED_EDGE ( 'NONE', *, *, #42, .T. ) ;
#61 = EDGE_CURVE ( 'NONE', #196, #261, #14, .T. ) ;
#62 = ORIENTED_EDGE ( 'NONE', *, *, #307, .T. ) ;
#63 = SHAPE_DEFINITION_REPRESENTATION ( #10, #181 ) ;
#64 = ORIENTED_EDGE ( 'NONE', *, *, #53, .T. ) ;
#65 = ORIENTED_EDGE ( 'NONE', *, *, #270, .F. ) ;
#66 = CIRCLE ( 'NONE', #209, 0.1248749999999999999 ) ;
#67 = STYLED_ITEM ( 'NONE', ( #326 ), #181 ) ;
#68 = DIRECTION ( 'NONE',  ( 1.000000000000000000, 0.0000000000000000000, -0.0000000000000000000 ) ) ;
#69 = EDGE_CURVE ( 'NONE', #41, #110, #231, .T. ) ;
#70 = DIRECTION ( 'NONE',  ( 0.0000000000000000000, 0.0000000000000000000, 1.000000000000000000 ) ) ;
#71 = DIRECTION ( 'NONE',  ( -1.000000000000000000, 1.224646799147352714E-16, 0.0000000000000000000 ) ) ;
#72 = AXIS2_PLACEMENT_3D ( 'NONE', #227, #340, #177 ) ;
#73 = DIRECTION ( 'NONE',  ( -1.224646799147353207E-16, -0.0000000000000000000, -1.000000000000000000 ) ) ;
#74 = ADVANCED_FACE ( 'NONE', ( #152 ), #76, .T. ) ;
#75 = ORIENTED_EDGE ( 'NONE', *, *, #18, .T. ) ;
#76 = CYLINDRICAL_SURFACE ( 'NONE', #293, 0.1250000000000000000 ) ;
#77 = CIRCLE ( 'NONE', #321, 0.1250000000000000000 ) ;
#78 = PRODUCT_DEFINITION ( 'UNKNOWN', '', #169, #4 ) ;
#79 = VECTOR ( 'NONE', #292, 39.37007874015748143 ) ;
#80 = FACE_OUTER_BOUND ( 'NONE', #221, .T. ) ;
#81 = DIRECTION ( 'NONE',  ( -0.0000000000000000000, -0.0000000000000000000, -1.000000000000000000 ) ) ;
#82 = FACE_OUTER_BOUND ( 'NONE', #147, .T. ) ;
#83 = CIRCLE ( 'NONE', #199, 0.09487500000000000100 ) ;
#84 = DIRECTION ( 'NONE',  ( 1.000000000000000000, 0.0000000000000000000, 0.0000000000000000000 ) ) ;
#85 =( NAMED_UNIT ( * ) PLANE_ANGLE_UNIT ( ) SI_UNIT ( $, .RADIAN. ) );
#86 = CARTESIAN_POINT ( 'NONE',  ( 9.193532640014472135E-17, 0.0000000000000000000, 0.7507089102274522308 ) ) ;
#87 = AXIS2_PLACEMENT_3D ( 'NONE', #342, #70, #48 ) ;
#88 = ORIENTED_EDGE ( 'NONE', *, *, #42, .F. ) ;
#89 = AXIS2_PLACEMENT_3D ( 'NONE', #159, #260, #22 ) ;
#90 = DIRECTION ( 'NONE',  ( 1.224646799147353207E-16, 0.0000000000000000000, 1.000000000000000000 ) ) ;
#91 = EDGE_LOOP ( 'NONE', ( #327, #245, #343, #304 ) ) ;
#92 = CARTESIAN_POINT ( 'NONE',  ( 3.673940397442059190E-18, 0.0000000000000000000, 0.02999999999999999889 ) ) ;
#93 = CIRCLE ( 'NONE', #139, 0.1248749999999999999 ) ;
#94 = COLOUR_RGB ( '',0.7921568627450980005, 0.8196078431372548767, 0.9333333333333333481 ) ;
#95 = ORIENTED_EDGE ( 'NONE', *, *, #69, .T. ) ;
#96 = CARTESIAN_POINT ( 'NONE',  ( 0.0000000000000000000, 0.0000000000000000000, 0.0000000000000000000 ) ) ;
#97 = ORIENTED_EDGE ( 'NONE', *, *, #158, .T. ) ;
#98 = EDGE_CURVE ( 'NONE', #261, #194, #66, .T. ) ;
#99 = CARTESIAN_POINT ( 'NONE',  ( 0.0000000000000000000, 0.0000000000000000000, 2.500000000000000000 ) ) ;
#100 = AXIS2_PLACEMENT_3D ( 'NONE', #96, #73, #339 ) ;
#101 = AXIS2_PLACEMENT_3D ( 'NONE', #207, #238, #111 ) ;
#102 = ORIENTED_EDGE ( 'NONE', *, *, #61, .F. ) ;
#103 = CARTESIAN_POINT ( 'NONE',  ( -0.1250000000000000000, 0.0000000000000000000, 2.485000000000000320 ) ) ;
#104 = VERTEX_POINT ( 'NONE', #128 ) ;
#105 = CARTESIAN_POINT ( 'NONE',  ( 0.1248750000000000970, 0.0000000000000000000, 0.7500000000000001110 ) ) ;
#106 = ADVANCED_FACE ( 'NONE', ( #20 ), #351, .T. ) ;
#107 = CARTESIAN_POINT ( 'NONE',  ( 3.673940397442059190E-18, 0.0000000000000000000, 0.0000000000000000000 ) ) ;
#108 = CYLINDRICAL_SURFACE ( 'NONE', #281, 0.1250000000000000000 ) ;
#109 = SURFACE_STYLE_FILL_AREA ( #235 ) ;
#110 = VERTEX_POINT ( 'NONE', #229 ) ;
#111 = DIRECTION ( 'NONE',  ( 1.000000000000000000, 0.0000000000000000000, 0.0000000000000000000 ) ) ;
#112 = AXIS2_PLACEMENT_3D ( 'NONE', #175, #280, #71 ) ;
#113 = VECTOR ( 'NONE', #262, 39.37007874015747433 ) ;
#114 = VERTEX_POINT ( 'NONE', #200 ) ;
#115 = PRODUCT_CONTEXT ( 'NONE', #44, 'mechanical' ) ;
#116 = VERTEX_POINT ( 'NONE', #17 ) ;
#117 = DIRECTION ( 'NONE',  ( 0.7071067811865499042, 8.659560562354961208E-17, -0.7071067811865451302 ) ) ;
#118 = COLOUR_RGB ( '',0.7921568627450980005, 0.8196078431372548767, 0.9333333333333333481 ) ;
#119 = ORIENTED_EDGE ( 'NONE', *, *, #161, .F. ) ;
#120 =( LENGTH_UNIT ( ) NAMED_UNIT ( * ) SI_UNIT ( $, .METRE. ) );
#121 = ORIENTED_EDGE ( 'NONE', *, *, #122, .T. ) ;
#122 = EDGE_CURVE ( 'NONE', #6, #116, #39, .T. ) ;
#123 = ORIENTED_EDGE ( 'NONE', *, *, #265, .F. ) ;
#124 = FILL_AREA_STYLE_COLOUR ( '', #118 ) ;
#125 = ORIENTED_EDGE ( 'NONE', *, *, #173, .T. ) ;
#126 = CARTESIAN_POINT ( 'NONE',  ( 3.673940397442059190E-18, 0.0000000000000000000, 0.0000000000000000000 ) ) ;
#127 = EDGE_CURVE ( 'NONE', #196, #114, #83, .T. ) ;
#128 = CARTESIAN_POINT ( 'NONE',  ( -0.1248749999999999166, 1.530043094684724646E-17, 0.7500000000000001110 ) ) ;
#129 = DIRECTION ( 'NONE',  ( 1.000000000000000000, 0.0000000000000000000, 0.0000000000000000000 ) ) ;
#130 = DIRECTION ( 'NONE',  ( -0.7071067811865499042, 0.0000000000000000000, -0.7071067811865451302 ) ) ;
#131 = ORIENTED_EDGE ( 'NONE', *, *, #29, .T. ) ;
#132 = ORIENTED_EDGE ( 'NONE', *, *, #140, .T. ) ;
#133 = CARTESIAN_POINT ( 'NONE',  ( 0.1248749999999999999, 1.529277690435257475E-17, 0.03000000000000000583 ) ) ;
#134 = ADVANCED_FACE ( 'NONE', ( #257 ), #288, .T. ) ;
#135 = DIRECTION ( 'NONE',  ( 0.0000000000000000000, -1.000000000000000000, 0.0000000000000000000 ) ) ;
#136 = DIRECTION ( 'NONE',  ( -1.000000000000000000, 0.0000000000000000000, 0.0000000000000000000 ) ) ;
#137 = ADVANCED_FACE ( 'NONE', ( #45 ), #228, .T. ) ;
#138 = CARTESIAN_POINT ( 'NONE',  ( -0.1248749999999999999, 0.0000000000000000000, 0.03000000000000000583 ) ) ;
#139 = AXIS2_PLACEMENT_3D ( 'NONE', #180, #284, #46 ) ;
#140 = EDGE_CURVE ( 'NONE', #194, #261, #50, .T. ) ;
#141 = ORIENTED_EDGE ( 'NONE', *, *, #61, .T. ) ;
#142 = EDGE_LOOP ( 'NONE', ( #176, #174, #57, #60 ) ) ;
#143 = VECTOR ( 'NONE', #325, 39.37007874015748143 ) ;
#144 = FILL_AREA_STYLE ('',( #30 ) ) ;
#145 = LINE ( 'NONE', #268, #143 ) ;
#146 = EDGE_LOOP ( 'NONE', ( #125, #95, #119, #223 ) ) ;
#147 = EDGE_LOOP ( 'NONE', ( #299, #33, #198, #65 ) ) ;
#148 = DIRECTION ( 'NONE',  ( 0.0000000000000000000, 0.0000000000000000000, -1.000000000000000000 ) ) ;
#149 = VERTEX_POINT ( 'NONE', #103 ) ;
#150 = CARTESIAN_POINT ( 'NONE',  ( 0.1250000000000000000, 1.530808498934191509E-17, 2.500000000000000000 ) ) ;
#151 = AXIS2_PLACEMENT_3D ( 'NONE', #43, #148, #253 ) ;
#152 = FACE_OUTER_BOUND ( 'NONE', #146, .T. ) ;
#153 = DIRECTION ( 'NONE',  ( 1.000000000000000000, 0.0000000000000000000, 0.0000000000000000000 ) ) ;
#154 = VECTOR ( 'NONE', #323, 39.37007874015748143 ) ;
#155 = ORIENTED_EDGE ( 'NONE', *, *, #69, .F. ) ;
#156 = PLANE ( 'NONE',  #334 ) ;
#157 = CONICAL_SURFACE ( 'NONE', #193, 0.1248749999999999999, 0.1745329251994338082 ) ;
#158 = EDGE_CURVE ( 'NONE', #104, #306, #93, .T. ) ;
#159 = CARTESIAN_POINT ( 'NONE',  ( 0.0000000000000000000, 0.0000000000000000000, 2.500000000000000000 ) ) ;
#160 = PRESENTATION_STYLE_ASSIGNMENT (( #290 ) ) ;
#161 = EDGE_CURVE ( 'NONE', #47, #110, #300, .T. ) ;
#162 = AXIS2_PLACEMENT_3D ( 'NONE', #242, #324, #5 ) ;
#163 = DIRECTION ( 'NONE',  ( 0.0000000000000000000, 0.0000000000000000000, -1.000000000000000000 ) ) ;
#164 = CARTESIAN_POINT ( 'NONE',  ( -0.1100000000000001948, 0.0000000000000000000, 2.500000000000000000 ) ) ;
#165 = ADVANCED_FACE ( 'NONE', ( #286 ), #156, .F. ) ;
#166 = CARTESIAN_POINT ( 'NONE',  ( 0.0000000000000000000, 0.0000000000000000000, 0.0000000000000000000 ) ) ;
#167 = EDGE_LOOP ( 'NONE', ( #62, #277 ) ) ;
#168 = AXIS2_PLACEMENT_3D ( 'NONE', #206, #315, #182 ) ;
#169 = PRODUCT_DEFINITION_FORMATION_WITH_SPECIFIED_SOURCE ( 'ANY', '', #295, .NOT_KNOWN. ) ;
#170 = ORIENTED_EDGE ( 'NONE', *, *, #98, .F. ) ;
#171 = EDGE_LOOP ( 'NONE', ( #102, #9, #302, #170 ) ) ;
#172 = LINE ( 'NONE', #275, #154 ) ;
#173 = EDGE_CURVE ( 'NONE', #149, #41, #184, .T. ) ;
#174 = ORIENTED_EDGE ( 'NONE', *, *, #53, .F. ) ;
#175 = CARTESIAN_POINT ( 'NONE',  ( -0.09487500000000000100, 1.161883650691051402E-17, 0.02999999999999999889 ) ) ;
#176 = ORIENTED_EDGE ( 'NONE', *, *, #210, .F. ) ;
#177 = DIRECTION ( 'NONE',  ( -1.000000000000000000, 0.0000000000000000000, 0.0000000000000000000 ) ) ;
#178 = DIRECTION ( 'NONE',  ( 1.000000000000000000, 0.0000000000000000000, 0.0000000000000000000 ) ) ;
#179 = AXIS2_PLACEMENT_3D ( 'NONE', #99, #205, #279 ) ;
#180 = CARTESIAN_POINT ( 'NONE',  ( 9.184850993605150903E-17, 0.0000000000000000000, 0.7500000000000001110 ) ) ;
#181 = ADVANCED_BREP_SHAPE_REPRESENTATION ( 'Micro_GEC-250-4-030X', ( #186, #162 ), #201 ) ;
#182 = DIRECTION ( 'NONE',  ( 1.000000000000000000, 0.0000000000000000000, 0.0000000000000000000 ) ) ;
#183 = CARTESIAN_POINT ( 'NONE',  ( -0.1248749999999999166, 1.529277690435257475E-17, 0.7500000000000001110 ) ) ;
#184 = CIRCLE ( 'NONE', #151, 0.1250000000000000000 ) ;
#185 =( GEOMETRIC_REPRESENTATION_CONTEXT ( 3 ) GLOBAL_UNCERTAINTY_ASSIGNED_CONTEXT ( ( #338 ) ) GLOBAL_UNIT_ASSIGNED_CONTEXT ( ( #197, #85, #240 ) ) REPRESENTATION_CONTEXT ( 'NONE', 'WORKASPACE' ) );
#186 = MANIFOLD_SOLID_BREP ( 'Fillet1', #344 ) ;
#187 =( CONVERSION_BASED_UNIT ( 'INCH', #289 ) LENGTH_UNIT ( ) NAMED_UNIT ( #224 ) );
#188 = CARTESIAN_POINT ( 'NONE',  ( 0.0000000000000000000, 0.0000000000000000000, 2.500000000000000000 ) ) ;
#189 = LINE ( 'NONE', #164, #51 ) ;
#190 = ORIENTED_EDGE ( 'NONE', *, *, #127, .F. ) ;
#191 = DIRECTION ( 'NONE',  ( -1.224646799147353207E-16, -0.0000000000000000000, -1.000000000000000000 ) ) ;
#192 = STYLED_ITEM ( 'NONE', ( #160 ), #186 ) ;
#193 = AXIS2_PLACEMENT_3D ( 'NONE', #27, #23, #264 ) ;
#194 = VERTEX_POINT ( 'NONE', #133 ) ;
#195 = DIRECTION ( 'NONE',  ( 0.0000000000000000000, 0.0000000000000000000, 1.000000000000000000 ) ) ;
#196 = VERTEX_POINT ( 'NONE', #211 ) ;
#197 =( CONVERSION_BASED_UNIT ( 'INCH', #28 ) LENGTH_UNIT ( ) NAMED_UNIT ( #276 ) );
#198 = ORIENTED_EDGE ( 'NONE', *, *, #173, .F. ) ;
#199 = AXIS2_PLACEMENT_3D ( 'NONE', #126, #311, #314 ) ;
#200 = CARTESIAN_POINT ( 'NONE',  ( 0.09487500000000000100, 0.0000000000000000000, 0.0000000000000000000 ) ) ;
#201 =( GEOMETRIC_REPRESENTATION_CONTEXT ( 3 ) GLOBAL_UNCERTAINTY_ASSIGNED_CONTEXT ( ( #273 ) ) GLOBAL_UNIT_ASSIGNED_CONTEXT ( ( #267, #329, #216 ) ) REPRESENTATION_CONTEXT ( 'NONE', 'WORKASPACE' ) );
#202 = DIRECTION ( 'NONE',  ( -1.000000000000000000, 0.0000000000000000000, 0.0000000000000000000 ) ) ;
#203 = ORIENTED_EDGE ( 'NONE', *, *, #270, .T. ) ;
#204 = CARTESIAN_POINT ( 'NONE',  ( 3.673940397442059960E-18, 0.0000000000000000000, 0.03000000000000000583 ) ) ;
#205 = DIRECTION ( 'NONE',  ( 0.0000000000000000000, 0.0000000000000000000, 1.000000000000000000 ) ) ;
#206 = CARTESIAN_POINT ( 'NONE',  ( 9.193532640014472135E-17, 0.0000000000000000000, 0.7507089102274522308 ) ) ;
#207 = CARTESIAN_POINT ( 'NONE',  ( 0.0000000000000000000, 0.0000000000000000000, 2.485000000000000320 ) ) ;
#208 = LINE ( 'NONE', #317, #220 ) ;
#209 = AXIS2_PLACEMENT_3D ( 'NONE', #16, #337, #15 ) ;
#210 = EDGE_CURVE ( 'NONE', #104, #47, #12, .T. ) ;
#211 = CARTESIAN_POINT ( 'NONE',  ( -0.09487500000000000100, 1.345580670563154592E-17, 0.0000000000000000000 ) ) ;
#212 = CARTESIAN_POINT ( 'NONE',  ( 0.1248749999999999999, 1.529277690435257475E-17, -1.529277690435257475E-17 ) ) ;
#213 = CONICAL_SURFACE ( 'NONE', #236, 0.1100000000000001948, 0.7853981633974517207 ) ;
#214 = CIRCLE ( 'NONE', #89, 0.1100000000000001948 ) ;
#215 = EDGE_CURVE ( 'NONE', #306, #194, #349, .T. ) ;
#216 =( NAMED_UNIT ( * ) SI_UNIT ( $, .STERADIAN. ) SOLID_ANGLE_UNIT ( ) );
#217 = DIRECTION ( 'NONE',  ( 0.0000000000000000000, 0.0000000000000000000, -1.000000000000000000 ) ) ;
#218 = ORIENTED_EDGE ( 'NONE', *, *, #239, .F. ) ;
#219 = CIRCLE ( 'NONE', #72, 0.1248749999999999999 ) ;
#220 = VECTOR ( 'NONE', #117, 39.37007874015748143 ) ;
#221 = EDGE_LOOP ( 'NONE', ( #155, #335, #131, #88 ) ) ;
#222 = FACE_OUTER_BOUND ( 'NONE', #243, .T. ) ;
#223 = ORIENTED_EDGE ( 'NONE', *, *, #29, .F. ) ;
#224 = DIMENSIONAL_EXPONENTS ( 1.000000000000000000, 0.0000000000000000000, 0.0000000000000000000, 0.0000000000000000000, 0.0000000000000000000, 0.0000000000000000000, 0.0000000000000000000 ) ;
#225 = DIRECTION ( 'NONE',  ( -0.0000000000000000000, -0.0000000000000000000, -1.000000000000000000 ) ) ;
#226 = PRESENTATION_LAYER_ASSIGNMENT (  '', '', ( #192 ) ) ;
#227 = CARTESIAN_POINT ( 'NONE',  ( 9.184850993605150903E-17, 0.0000000000000000000, 0.7500000000000001110 ) ) ;
#228 = CYLINDRICAL_SURFACE ( 'NONE', #100, 0.1248749999999999999 ) ;
#229 = CARTESIAN_POINT ( 'NONE',  ( 0.1250000000000000833, 1.530808498934192433E-17, 0.7507089102274522308 ) ) ;
#230 = ADVANCED_FACE ( 'NONE', ( #25 ), #157, .T. ) ;
#231 = LINE ( 'NONE', #150, #346 ) ;
#232 = LINE ( 'NONE', #105, #336 ) ;
#233 =( NAMED_UNIT ( * ) SI_UNIT ( $, .STERADIAN. ) SOLID_ANGLE_UNIT ( ) );
#234 = APPLICATION_CONTEXT ( 'automotive_design' ) ;
#235 = FILL_AREA_STYLE ('',( #124 ) ) ;
#236 = AXIS2_PLACEMENT_3D ( 'NONE', #250, #217, #31 ) ;
#237 = AXIS2_PLACEMENT_3D ( 'NONE', #107, #52, #345 ) ;
#238 = DIRECTION ( 'NONE',  ( 0.0000000000000000000, 0.0000000000000000000, -1.000000000000000000 ) ) ;
#239 = EDGE_CURVE ( 'NONE', #114, #194, #347, .T. ) ;
#240 =( NAMED_UNIT ( * ) SI_UNIT ( $, .STERADIAN. ) SOLID_ANGLE_UNIT ( ) );
#241 = AXIS2_PLACEMENT_3D ( 'NONE', #204, #313, #178 ) ;
#242 = CARTESIAN_POINT ( 'NONE',  ( 0.0000000000000000000, 0.0000000000000000000, 0.0000000000000000000 ) ) ;
#243 = EDGE_LOOP ( 'NONE', ( #310, #121 ) ) ;
#244 = APPLICATION_PROTOCOL_DEFINITION ( 'draft international standard', 'automotive_design', 1998, #44 ) ;
#245 = ORIENTED_EDGE ( 'NONE', *, *, #210, .T. ) ;
#246 = ADVANCED_FACE ( 'NONE', ( #80 ), #108, .T. ) ;
#247 = EDGE_LOOP ( 'NONE', ( #190, #141, #283, #218 ) ) ;
#248 = CIRCLE ( 'NONE', #237, 0.09487500000000000100 ) ;
#249 =( LENGTH_UNIT ( ) NAMED_UNIT ( * ) SI_UNIT ( $, .METRE. ) );
#250 = CARTESIAN_POINT ( 'NONE',  ( 0.0000000000000000000, 0.0000000000000000000, 2.500000000000000000 ) ) ;
#251 = DIMENSIONAL_EXPONENTS ( 1.000000000000000000, 0.0000000000000000000, 0.0000000000000000000, 0.0000000000000000000, 0.0000000000000000000, 0.0000000000000000000, 0.0000000000000000000 ) ;
#252 = EDGE_LOOP ( 'NONE', ( #49, #297, #203, #123 ) ) ;
#253 = DIRECTION ( 'NONE',  ( 1.000000000000000000, 0.0000000000000000000, 0.0000000000000000000 ) ) ;
#254 = CARTESIAN_POINT ( 'NONE',  ( -0.1249999999999999167, 0.0000000000000000000, 0.7507089102274522308 ) ) ;
#255 = CARTESIAN_POINT ( 'NONE',  ( 0.0000000000000000000, 0.0000000000000000000, 2.500000000000000000 ) ) ;
#256 = ADVANCED_FACE ( 'NONE', ( #82 ), #19, .T. ) ;
#257 = FACE_OUTER_BOUND ( 'NONE', #247, .T. ) ;
#258 = CARTESIAN_POINT ( 'NONE',  ( 0.0000000000000000000, 0.0000000000000000000, 0.0000000000000000000 ) ) ;
#259 = EDGE_LOOP ( 'NONE', ( #332, #64, #75, #272 ) ) ;
#260 = DIRECTION ( 'NONE',  ( 0.0000000000000000000, 0.0000000000000000000, 1.000000000000000000 ) ) ;
#261 = VERTEX_POINT ( 'NONE', #138 ) ;
#262 = DIRECTION ( 'NONE',  ( -0.1736481776669311083, 2.126576849575782084E-17, 0.9848077530122080203 ) ) ;
#263 = PRESENTATION_LAYER_ASSIGNMENT (  '', '', ( #67 ) ) ;
#264 = DIRECTION ( 'NONE',  ( 1.000000000000000000, 0.0000000000000000000, 0.0000000000000000000 ) ) ;
#265 = EDGE_CURVE ( 'NONE', #41, #149, #269, .T. ) ;
#266 = DIRECTION ( 'NONE',  ( -1.000000000000000000, 0.0000000000000000000, 0.0000000000000000000 ) ) ;
#267 =( CONVERSION_BASED_UNIT ( 'INCH', #34 ) LENGTH_UNIT ( ) NAMED_UNIT ( #251 ) );
#268 = CARTESIAN_POINT ( 'NONE',  ( -0.1248749999999999999, 0.0000000000000000000, 1.529277690435257475E-17 ) ) ;
#269 = CIRCLE ( 'NONE', #101, 0.1250000000000000000 ) ;
#270 = EDGE_CURVE ( 'NONE', #116, #149, #189, .T. ) ;
#271 = ORIENTED_EDGE ( 'NONE', *, *, #215, .T. ) ;
#272 = ORIENTED_EDGE ( 'NONE', *, *, #98, .T. ) ;
#273 = UNCERTAINTY_MEASURE_WITH_UNIT (LENGTH_MEASURE( 1.000000000000000082E-05 ), #267, 'distance_accuracy_value', 'NONE');
#274 = SURFACE_STYLE_FILL_AREA ( #144 ) ;
#275 = CARTESIAN_POINT ( 'NONE',  ( -0.1250000000000000000, 0.0000000000000000000, 2.500000000000000000 ) ) ;
#276 = DIMENSIONAL_EXPONENTS ( 1.000000000000000000, 0.0000000000000000000, 0.0000000000000000000, 0.0000000000000000000, 0.0000000000000000000, 0.0000000000000000000, 0.0000000000000000000 ) ;
#277 = ORIENTED_EDGE ( 'NONE', *, *, #127, .T. ) ;
#278 = EDGE_CURVE ( 'NONE', #306, #110, #232, .T. ) ;
#279 = DIRECTION ( 'NONE',  ( 1.000000000000000000, 0.0000000000000000000, 0.0000000000000000000 ) ) ;
#280 = DIRECTION ( 'NONE',  ( 1.224646799147353207E-16, 1.000000000000000000, -0.0000000000000000000 ) ) ;
#281 = AXIS2_PLACEMENT_3D ( 'NONE', #56, #81, #136 ) ;
#282 = DIRECTION ( 'NONE',  ( -0.0000000000000000000, -0.0000000000000000000, -1.000000000000000000 ) ) ;
#283 = ORIENTED_EDGE ( 'NONE', *, *, #140, .F. ) ;
#284 = DIRECTION ( 'NONE',  ( -1.224646799147353207E-16, -0.0000000000000000000, -1.000000000000000000 ) ) ;
#285 = AXIS2_PLACEMENT_3D ( 'NONE', #11, #90, #84 ) ;
#286 = FACE_OUTER_BOUND ( 'NONE', #167, .T. ) ;
#287 = CARTESIAN_POINT ( 'NONE',  ( 0.1248750000000000970, 0.0000000000000000000, 0.7500000000000001110 ) ) ;
#288 = TOROIDAL_SURFACE ( 'NONE', #87, 0.09487500000000000100, 0.02999999999999999889 ) ;
#289 = LENGTH_MEASURE_WITH_UNIT ( LENGTH_MEASURE( 0.02539999999999999897 ), #54 );
#290 = SURFACE_STYLE_USAGE ( .BOTH. , #320 ) ;
#291 = EDGE_LOOP ( 'NONE', ( #97, #271, #132, #21 ) ) ;
#292 = DIRECTION ( 'NONE',  ( -1.224646799147353207E-16, -0.0000000000000000000, -1.000000000000000000 ) ) ;
#293 = AXIS2_PLACEMENT_3D ( 'NONE', #255, #282, #202 ) ;
#294 =( NAMED_UNIT ( * ) PLANE_ANGLE_UNIT ( ) SI_UNIT ( $, .RADIAN. ) );
#295 = PRODUCT ( 'Micro_GEC-250-4-030X', 'Micro_GEC-250-4-030X', '', ( #115 ) ) ;
#296 = SURFACE_SIDE_STYLE ('',( #274 ) ) ;
#297 = ORIENTED_EDGE ( 'NONE', *, *, #312, .F. ) ;
#298 = PLANE ( 'NONE',  #341 ) ;
#299 = ORIENTED_EDGE ( 'NONE', *, *, #122, .F. ) ;
#300 = CIRCLE ( 'NONE', #168, 0.1250000000000000000 ) ;
#301 = CARTESIAN_POINT ( 'NONE',  ( 0.0000000000000000000, 0.0000000000000000000, 2.500000000000000000 ) ) ;
#302 = ORIENTED_EDGE ( 'NONE', *, *, #239, .T. ) ;
#303 = APPLICATION_PROTOCOL_DEFINITION ( 'draft international standard', 'automotive_design', 1998, #234 ) ;
#304 = ORIENTED_EDGE ( 'NONE', *, *, #278, .F. ) ;
#305 = SURFACE_STYLE_USAGE ( .BOTH. , #296 ) ;
#306 = VERTEX_POINT ( 'NONE', #287 ) ;
#307 = EDGE_CURVE ( 'NONE', #114, #196, #248, .T. ) ;
#308 =( GEOMETRIC_REPRESENTATION_CONTEXT ( 3 ) GLOBAL_UNCERTAINTY_ASSIGNED_CONTEXT ( ( #8 ) ) GLOBAL_UNIT_ASSIGNED_CONTEXT ( ( #187, #294, #233 ) ) REPRESENTATION_CONTEXT ( 'NONE', 'WORKASPACE' ) );
#309 = DIRECTION ( 'NONE',  ( 0.0000000000000000000, 0.0000000000000000000, 1.000000000000000000 ) ) ;
#310 = ORIENTED_EDGE ( 'NONE', *, *, #312, .T. ) ;
#311 = DIRECTION ( 'NONE',  ( -0.0000000000000000000, -0.0000000000000000000, -1.000000000000000000 ) ) ;
#312 = EDGE_CURVE ( 'NONE', #116, #6, #214, .T. ) ;
#313 = DIRECTION ( 'NONE',  ( 0.0000000000000000000, 0.0000000000000000000, 1.000000000000000000 ) ) ;
#314 = DIRECTION ( 'NONE',  ( 1.000000000000000000, 0.0000000000000000000, 0.0000000000000000000 ) ) ;
#315 = DIRECTION ( 'NONE',  ( -1.224646799147353207E-16, -0.0000000000000000000, -1.000000000000000000 ) ) ;
#316 = DIRECTION ( 'NONE',  ( 0.1736481776669313026, 0.0000000000000000000, 0.9848077530122077983 ) ) ;
#317 = CARTESIAN_POINT ( 'NONE',  ( 0.1100000000000001948, 1.347111479062090784E-17, 2.500000000000000000 ) ) ;
#318 = EDGE_CURVE ( 'NONE', #6, #41, #208, .T. ) ;
#319 = CARTESIAN_POINT ( 'NONE',  ( 0.09487500000000000100, 0.0000000000000000000, 0.02999999999999999889 ) ) ;
#320 = SURFACE_SIDE_STYLE ('',( #109 ) ) ;
#321 = AXIS2_PLACEMENT_3D ( 'NONE', #86, #191, #153 ) ;
#322 = DIRECTION ( 'NONE',  ( -1.224646799147353207E-16, -0.0000000000000000000, -1.000000000000000000 ) ) ;
#323 = DIRECTION ( 'NONE',  ( -0.0000000000000000000, -0.0000000000000000000, -1.000000000000000000 ) ) ;
#324 = DIRECTION ( 'NONE',  ( 0.0000000000000000000, 0.0000000000000000000, 1.000000000000000000 ) ) ;
#325 = DIRECTION ( 'NONE',  ( -1.224646799147353207E-16, -0.0000000000000000000, -1.000000000000000000 ) ) ;
#326 = PRESENTATION_STYLE_ASSIGNMENT (( #305 ) ) ;
#327 = ORIENTED_EDGE ( 'NONE', *, *, #158, .F. ) ;
#328 = MECHANICAL_DESIGN_GEOMETRIC_PRESENTATION_REPRESENTATION (  '', ( #67 ), #185 ) ;
#329 =( NAMED_UNIT ( * ) PLANE_ANGLE_UNIT ( ) SI_UNIT ( $, .RADIAN. ) );
#330 = FACE_OUTER_BOUND ( 'NONE', #142, .T. ) ;
#331 = ADVANCED_FACE ( 'NONE', ( #2 ), #32, .T. ) ;
#332 = ORIENTED_EDGE ( 'NONE', *, *, #215, .F. ) ;
#333 = DIRECTION ( 'NONE',  ( 0.0000000000000000000, 0.0000000000000000000, 1.000000000000000000 ) ) ;
#334 = AXIS2_PLACEMENT_3D ( 'NONE', #258, #309, #68 ) ;
#335 = ORIENTED_EDGE ( 'NONE', *, *, #265, .T. ) ;
#336 = VECTOR ( 'NONE', #316, 39.37007874015748143 ) ;
#337 = DIRECTION ( 'NONE',  ( 0.0000000000000000000, 0.0000000000000000000, 1.000000000000000000 ) ) ;
#338 = UNCERTAINTY_MEASURE_WITH_UNIT (LENGTH_MEASURE( 1.000000000000000082E-05 ), #197, 'distance_accuracy_value', 'NONE');
#339 = DIRECTION ( 'NONE',  ( -1.000000000000000000, 0.0000000000000000000, 1.224646799147353454E-16 ) ) ;
#340 = DIRECTION ( 'NONE',  ( -1.224646799147353207E-16, -0.0000000000000000000, -1.000000000000000000 ) ) ;
#341 = AXIS2_PLACEMENT_3D ( 'NONE', #301, #195, #37 ) ;
#342 = CARTESIAN_POINT ( 'NONE',  ( 3.673940397442059190E-18, 0.0000000000000000000, 0.02999999999999999889 ) ) ;
#343 = ORIENTED_EDGE ( 'NONE', *, *, #161, .T. ) ;
#344 = CLOSED_SHELL ( 'NONE', ( #134, #331, #230, #256, #74, #246, #348, #36, #24, #137, #165, #106 ) ) ;
#345 = DIRECTION ( 'NONE',  ( 1.000000000000000000, 0.0000000000000000000, 0.0000000000000000000 ) ) ;
#346 = VECTOR ( 'NONE', #225, 39.37007874015748143 ) ;
#347 = CIRCLE ( 'NONE', #26, 0.02999999999999999889 ) ;
#348 = ADVANCED_FACE ( 'NONE', ( #222 ), #298, .T. ) ;
#349 = LINE ( 'NONE', #212, #79 ) ;
#350 = CONICAL_SURFACE ( 'NONE', #285, 0.1248749999999999999, 0.1745329251994338082 ) ;
#351 = TOROIDAL_SURFACE ( 'NONE', #7, 0.09487500000000000100, 0.02999999999999999889 ) ;
ENDSEC;
END-ISO-10303-21;
