ISO-10303-21;
HEADER;
FILE_DESCRIPTION (( 'STEP AP214' ),
    '1' );
FILE_NAME ('Micro_RMEM-008-2X.STEP',
    '2021-09-01T23:46:35',
    ( '' ),
    ( '' ),
    'SwSTEP 2.0',
    'SolidWorks 2020',
    '' );
FILE_SCHEMA (( 'AUTOMOTIVE_DESIGN' ));
ENDSEC;

DATA;
#1 =( NAMED_UNIT ( * ) SI_UNIT ( $, .STERADIAN. ) SOLID_ANGLE_UNIT ( ) );
#2 = ORIENTED_EDGE ( 'NONE', *, *, #129, .T. ) ;
#3 = ORIENTED_EDGE ( 'NONE', *, *, #66, .T. ) ;
#4 = PRESENTATION_STYLE_ASSIGNMENT (( #206 ) ) ;
#5 = DIRECTION ( 'NONE',  ( -1.224646799147353207E-16, -0.0000000000000000000, -1.000000000000000000 ) ) ;
#6 = ADVANCED_FACE ( 'NONE', ( #283 ), #212, .T. ) ;
#7 = DIRECTION ( 'NONE',  ( -1.224646799147353207E-16, -0.0000000000000000000, -1.000000000000000000 ) ) ;
#8 = DIRECTION ( 'NONE',  ( -0.0000000000000000000, -0.0000000000000000000, -1.000000000000000000 ) ) ;
#9 = MECHANICAL_DESIGN_GEOMETRIC_PRESENTATION_REPRESENTATION (  '', ( #14 ), #275 ) ;
#10 = CYLINDRICAL_SURFACE ( 'NONE', #191, 0.05905500000000000332 ) ;
#11 = MANIFOLD_SOLID_BREP ( 'Cut-Revolve1', #188 ) ;
#12 = FACE_OUTER_BOUND ( 'NONE', #90, .T. ) ;
#13 = CARTESIAN_POINT ( 'NONE',  ( -0.01573225199999998825, 4.579398438941324335E-18, 0.09448800000000000254 ) ) ;
#14 = STYLED_ITEM ( 'NONE', ( #4 ), #11 ) ;
#15 = CARTESIAN_POINT ( 'NONE',  ( 0.01573225199999999865, 1.926645205517954404E-18, 0.0000000000000000000 ) ) ;
#16 = CARTESIAN_POINT ( 'NONE',  ( 2.359459884030157069E-34, 0.0000000000000000000, 1.926645205517954404E-18 ) ) ;
#17 = DIRECTION ( 'NONE',  ( -0.7071067811865482389, 0.0000000000000000000, -0.7071067811865469066 ) ) ;
#18 = PRODUCT_DEFINITION ( 'UNKNOWN', '', #115, #162 ) ;
#19 = DIRECTION ( 'NONE',  ( 0.0000000000000000000, 0.0000000000000000000, -1.000000000000000000 ) ) ;
#20 =( CONVERSION_BASED_UNIT ( 'INCH', #225 ) LENGTH_UNIT ( ) NAMED_UNIT ( #186 ) );
#21 = ORIENTED_EDGE ( 'NONE', *, *, #75, .F. ) ;
#22 = VECTOR ( 'NONE', #71, 39.37007874015747433 ) ;
#23 = ORIENTED_EDGE ( 'NONE', *, *, #288, .F. ) ;
#24 = ADVANCED_FACE ( 'NONE', ( #262 ), #180, .T. ) ;
#25 = DIRECTION ( 'NONE',  ( 0.0000000000000000000, 0.0000000000000000000, -1.000000000000000000 ) ) ;
#26 = ORIENTED_EDGE ( 'NONE', *, *, #209, .T. ) ;
#27 = ORIENTED_EDGE ( 'NONE', *, *, #123, .F. ) ;
#28 = CARTESIAN_POINT ( 'NONE',  ( 0.05905500000000004496, 7.232151672364700045E-18, 0.3401835131082782127 ) ) ;
#29 = CARTESIAN_POINT ( 'NONE',  ( 0.01573225199999999865, 1.926645205517954404E-18, -1.926645205517954404E-18 ) ) ;
#30 = EDGE_CURVE ( 'NONE', #224, #282, #69, .T. ) ;
#31 = CIRCLE ( 'NONE', #108, 0.01573225199999999865 ) ;
#32 = CIRCLE ( 'NONE', #160, 0.01573225199999999865 ) ;
#33 = DIRECTION ( 'NONE',  ( 0.0000000000000000000, 0.0000000000000000000, 1.000000000000000000 ) ) ;
#34 = DIRECTION ( 'NONE',  ( 1.224646799147353207E-16, 0.0000000000000000000, 1.000000000000000000 ) ) ;
#35 = FACE_OUTER_BOUND ( 'NONE', #255, .T. ) ;
#36 =( GEOMETRIC_REPRESENTATION_CONTEXT ( 3 ) GLOBAL_UNCERTAINTY_ASSIGNED_CONTEXT ( ( #87 ) ) GLOBAL_UNIT_ASSIGNED_CONTEXT ( ( #20, #82, #134 ) ) REPRESENTATION_CONTEXT ( 'NONE', 'WORKASPACE' ) );
#37 = COLOUR_RGB ( '',0.7921568627450980005, 0.8196078431372548767, 0.9333333333333333481 ) ;
#38 = CARTESIAN_POINT ( 'NONE',  ( 1.157144267578351175E-17, 0.0000000000000000000, 0.09448800000000000254 ) ) ;
#39 = CARTESIAN_POINT ( 'NONE',  ( 2.359459884030157069E-34, 0.0000000000000000000, 1.926645205517954404E-18 ) ) ;
#40 = ADVANCED_FACE ( 'NONE', ( #122 ), #242, .T. ) ;
#41 = LENGTH_MEASURE_WITH_UNIT ( LENGTH_MEASURE( 0.02539999999999999897 ), #270 );
#42 = CYLINDRICAL_SURFACE ( 'NONE', #60, 0.01573225199999999865 ) ;
#43 = ADVANCED_FACE ( 'NONE', ( #12 ), #145, .F. ) ;
#44 = ORIENTED_EDGE ( 'NONE', *, *, #106, .F. ) ;
#45 = ORIENTED_EDGE ( 'NONE', *, *, #138, .T. ) ;
#46 = COLOUR_RGB ( '',0.7921568627450980005, 0.8196078431372548767, 0.9333333333333333481 ) ;
#47 = ORIENTED_EDGE ( 'NONE', *, *, #103, .F. ) ;
#48 = VERTEX_POINT ( 'NONE', #28 ) ;
#49 = EDGE_LOOP ( 'NONE', ( #113, #221, #279, #202 ) ) ;
#50 = LINE ( 'NONE', #233, #65 ) ;
#51 = LINE ( 'NONE', #265, #22 ) ;
#52 = CARTESIAN_POINT ( 'NONE',  ( 1.157144267578351175E-17, 0.0000000000000000000, 0.09448800000000000254 ) ) ;
#53 =( NAMED_UNIT ( * ) PLANE_ANGLE_UNIT ( ) SI_UNIT ( $, .RADIAN. ) );
#54 = CARTESIAN_POINT ( 'NONE',  ( 4.166046504507545479E-17, 0.0000000000000000000, 0.3401835131082782127 ) ) ;
#55 = DIRECTION ( 'NONE',  ( 0.7071067811865482389, 8.659560562354941486E-17, -0.7071067811865469066 ) ) ;
#56 = CARTESIAN_POINT ( 'NONE',  ( 0.0000000000000000000, 0.0000000000000000000, 1.496062999999999921 ) ) ;
#57 = CARTESIAN_POINT ( 'NONE',  ( 0.0000000000000000000, 0.0000000000000000000, 0.0000000000000000000 ) ) ;
#58 = CARTESIAN_POINT ( 'NONE',  ( -0.04405499999999973326, 0.0000000000000000000, 1.496062999999999921 ) ) ;
#59 = CARTESIAN_POINT ( 'NONE',  ( 0.0000000000000000000, 0.0000000000000000000, 1.481062999999999574 ) ) ;
#60 = AXIS2_PLACEMENT_3D ( 'NONE', #147, #152, #217 ) ;
#61 = EDGE_LOOP ( 'NONE', ( #109, #3, #2, #200 ) ) ;
#62 = PRODUCT_CONTEXT ( 'NONE', #297, 'mechanical' ) ;
#63 = ORIENTED_EDGE ( 'NONE', *, *, #129, .F. ) ;
#64 = ORIENTED_EDGE ( 'NONE', *, *, #260, .T. ) ;
#65 = VECTOR ( 'NONE', #7, 39.37007874015748143 ) ;
#66 = EDGE_CURVE ( 'NONE', #282, #224, #31, .T. ) ;
#67 = FILL_AREA_STYLE_COLOUR ( '', #37 ) ;
#68 = CARTESIAN_POINT ( 'NONE',  ( 0.0000000000000000000, 0.0000000000000000000, 1.496062999999999921 ) ) ;
#69 = CIRCLE ( 'NONE', #183, 0.01573225199999999865 ) ;
#70 = DIRECTION ( 'NONE',  ( 0.0000000000000000000, 0.0000000000000000000, 1.000000000000000000 ) ) ;
#71 = DIRECTION ( 'NONE',  ( -0.1736481776669311639, 2.126576849575783008E-17, 0.9848077530122080203 ) ) ;
#72 = CARTESIAN_POINT ( 'NONE',  ( 1.157144267578351175E-17, 0.0000000000000000000, 0.09448800000000000254 ) ) ;
#73 =( NAMED_UNIT ( * ) PLANE_ANGLE_UNIT ( ) SI_UNIT ( $, .RADIAN. ) );
#74 = LINE ( 'NONE', #272, #198 ) ;
#75 = EDGE_CURVE ( 'NONE', #139, #192, #284, .T. ) ;
#76 = AXIS2_PLACEMENT_3D ( 'NONE', #163, #240, #118 ) ;
#77 = PLANE ( 'NONE',  #179 ) ;
#78 = CIRCLE ( 'NONE', #231, 0.05905500000000000332 ) ;
#79 = FACE_OUTER_BOUND ( 'NONE', #61, .T. ) ;
#80 = ORIENTED_EDGE ( 'NONE', *, *, #299, .F. ) ;
#81 = CARTESIAN_POINT ( 'NONE',  ( 0.01573225200000000906, 0.0000000000000000000, 0.09448800000000000254 ) ) ;
#82 =( NAMED_UNIT ( * ) PLANE_ANGLE_UNIT ( ) SI_UNIT ( $, .RADIAN. ) );
#83 = AXIS2_PLACEMENT_3D ( 'NONE', #143, #70, #126 ) ;
#84 = ORIENTED_EDGE ( 'NONE', *, *, #267, .F. ) ;
#85 = CIRCLE ( 'NONE', #264, 0.05905500000000000332 ) ;
#86 = EDGE_CURVE ( 'NONE', #48, #175, #223, .T. ) ;
#87 = UNCERTAINTY_MEASURE_WITH_UNIT (LENGTH_MEASURE( 1.000000000000000082E-05 ), #20, 'distance_accuracy_value', 'NONE');
#88 = ORIENTED_EDGE ( 'NONE', *, *, #75, .T. ) ;
#89 = FILL_AREA_STYLE ('',( #278 ) ) ;
#90 = EDGE_LOOP ( 'NONE', ( #256, #64 ) ) ;
#91 = SHAPE_DEFINITION_REPRESENTATION ( #150, #277 ) ;
#92 = CARTESIAN_POINT ( 'NONE',  ( 0.0000000000000000000, 0.0000000000000000000, 1.496062999999999921 ) ) ;
#93 = ORIENTED_EDGE ( 'NONE', *, *, #86, .F. ) ;
#94 = CARTESIAN_POINT ( 'NONE',  ( 0.0000000000000000000, 0.0000000000000000000, 1.481062999999999574 ) ) ;
#95 = LINE ( 'NONE', #29, #127 ) ;
#96 = AXIS2_PLACEMENT_3D ( 'NONE', #99, #182, #263 ) ;
#97 = PRESENTATION_LAYER_ASSIGNMENT (  '', '', ( #14 ) ) ;
#98 = DIRECTION ( 'NONE',  ( -1.224646799147353207E-16, -0.0000000000000000000, -1.000000000000000000 ) ) ;
#99 = CARTESIAN_POINT ( 'NONE',  ( 4.166046504507545479E-17, 0.0000000000000000000, 0.3401835131082782127 ) ) ;
#100 = DIRECTION ( 'NONE',  ( -1.000000000000000000, 0.0000000000000000000, 0.0000000000000000000 ) ) ;
#101 = AXIS2_PLACEMENT_3D ( 'NONE', #68, #33, #161 ) ;
#102 = DIRECTION ( 'NONE',  ( -1.000000000000000000, 0.0000000000000000000, 1.224646799147353207E-16 ) ) ;
#103 = EDGE_CURVE ( 'NONE', #207, #155, #137, .T. ) ;
#104 = FACE_OUTER_BOUND ( 'NONE', #49, .T. ) ;
#105 = DIRECTION ( 'NONE',  ( 0.0000000000000000000, 0.0000000000000000000, 1.000000000000000000 ) ) ;
#106 = EDGE_CURVE ( 'NONE', #192, #175, #159, .T. ) ;
#107 = SURFACE_STYLE_FILL_AREA ( #89 ) ;
#108 = AXIS2_PLACEMENT_3D ( 'NONE', #238, #5, #211 ) ;
#109 = ORIENTED_EDGE ( 'NONE', *, *, #138, .F. ) ;
#110 = PRESENTATION_LAYER_ASSIGNMENT (  '', '', ( #205 ) ) ;
#111 = EDGE_LOOP ( 'NONE', ( #141, #153, #257, #117 ) ) ;
#112 = DIRECTION ( 'NONE',  ( 0.0000000000000000000, 0.0000000000000000000, 1.000000000000000000 ) ) ;
#113 = ORIENTED_EDGE ( 'NONE', *, *, #116, .F. ) ;
#114 = EDGE_LOOP ( 'NONE', ( #232, #194, #27, #44 ) ) ;
#115 = PRODUCT_DEFINITION_FORMATION_WITH_SPECIFIED_SOURCE ( 'ANY', '', #235, .NOT_KNOWN. ) ;
#116 = EDGE_CURVE ( 'NONE', #224, #175, #51, .T. ) ;
#117 = ORIENTED_EDGE ( 'NONE', *, *, #177, .F. ) ;
#118 = DIRECTION ( 'NONE',  ( -1.000000000000000000, 0.0000000000000000000, 0.0000000000000000000 ) ) ;
#119 = DIRECTION ( 'NONE',  ( -1.000000000000000000, 0.0000000000000000000, 0.0000000000000000000 ) ) ;
#120 = AXIS2_PLACEMENT_3D ( 'NONE', #52, #34, #208 ) ;
#121 = AXIS2_PLACEMENT_3D ( 'NONE', #57, #151, #244 ) ;
#122 = FACE_OUTER_BOUND ( 'NONE', #111, .T. ) ;
#123 = EDGE_CURVE ( 'NONE', #175, #48, #85, .T. ) ;
#124 = ADVANCED_FACE ( 'NONE', ( #125 ), #243, .T. ) ;
#125 = FACE_OUTER_BOUND ( 'NONE', #298, .T. ) ;
#126 = DIRECTION ( 'NONE',  ( 1.000000000000000000, 0.0000000000000000000, -0.0000000000000000000 ) ) ;
#127 = VECTOR ( 'NONE', #98, 39.37007874015748143 ) ;
#128 = DIRECTION ( 'NONE',  ( 0.0000000000000000000, 0.0000000000000000000, 1.000000000000000000 ) ) ;
#129 = EDGE_CURVE ( 'NONE', #224, #178, #50, .T. ) ;
#130 = LINE ( 'NONE', #81, #170 ) ;
#131 = DIRECTION ( 'NONE',  ( -1.000000000000000000, 0.0000000000000000000, 1.224646799147353207E-16 ) ) ;
#132 =( CONVERSION_BASED_UNIT ( 'INCH', #41 ) LENGTH_UNIT ( ) NAMED_UNIT ( #239 ) );
#133 = UNCERTAINTY_MEASURE_WITH_UNIT (LENGTH_MEASURE( 1.000000000000000082E-05 ), #187, 'distance_accuracy_value', 'NONE');
#134 =( NAMED_UNIT ( * ) SI_UNIT ( $, .STERADIAN. ) SOLID_ANGLE_UNIT ( ) );
#135 = ORIENTED_EDGE ( 'NONE', *, *, #228, .F. ) ;
#136 = PRESENTATION_STYLE_ASSIGNMENT (( #253 ) ) ;
#137 = CIRCLE ( 'NONE', #101, 0.04405499999999973326 ) ;
#138 = EDGE_CURVE ( 'NONE', #282, #226, #95, .T. ) ;
#139 = VERTEX_POINT ( 'NONE', #185 ) ;
#140 = ORIENTED_EDGE ( 'NONE', *, *, #267, .T. ) ;
#141 = ORIENTED_EDGE ( 'NONE', *, *, #30, .F. ) ;
#142 = VECTOR ( 'NONE', #8, 39.37007874015748143 ) ;
#143 = CARTESIAN_POINT ( 'NONE',  ( 0.0000000000000000000, 0.0000000000000000000, 0.0000000000000000000 ) ) ;
#144 = CARTESIAN_POINT ( 'NONE',  ( 0.0000000000000000000, 0.0000000000000000000, 1.496062999999999921 ) ) ;
#145 = PLANE ( 'NONE',  #83 ) ;
#146 = ADVANCED_FACE ( 'NONE', ( #287 ), #10, .T. ) ;
#147 = CARTESIAN_POINT ( 'NONE',  ( 0.0000000000000000000, 0.0000000000000000000, 0.0000000000000000000 ) ) ;
#148 = AXIS2_PLACEMENT_3D ( 'NONE', #94, #289, #259 ) ;
#149 = CARTESIAN_POINT ( 'NONE',  ( -0.05905499999999996169, 0.0000000000000000000, 0.3401835131082782127 ) ) ;
#150 = PRODUCT_DEFINITION_SHAPE ( 'NONE', 'NONE',  #18 ) ;
#151 = DIRECTION ( 'NONE',  ( -1.224646799147353207E-16, -0.0000000000000000000, -1.000000000000000000 ) ) ;
#152 = DIRECTION ( 'NONE',  ( -1.224646799147353207E-16, -0.0000000000000000000, -1.000000000000000000 ) ) ;
#153 = ORIENTED_EDGE ( 'NONE', *, *, #116, .T. ) ;
#154 = ORIENTED_EDGE ( 'NONE', *, *, #30, .T. ) ;
#155 = VERTEX_POINT ( 'NONE', #220 ) ;
#156 = CIRCLE ( 'NONE', #165, 0.01573225199999999865 ) ;
#157 = SURFACE_STYLE_FILL_AREA ( #181 ) ;
#158 =( LENGTH_UNIT ( ) NAMED_UNIT ( * ) SI_UNIT ( $, .METRE. ) );
#159 = LINE ( 'NONE', #261, #142 ) ;
#160 = AXIS2_PLACEMENT_3D ( 'NONE', #39, #295, #131 ) ;
#161 = DIRECTION ( 'NONE',  ( 1.000000000000000000, 0.0000000000000000000, 0.0000000000000000000 ) ) ;
#162 = PRODUCT_DEFINITION_CONTEXT ( 'detailed design', #273, 'design' ) ;
#163 = CARTESIAN_POINT ( 'NONE',  ( 0.0000000000000000000, 0.0000000000000000000, 1.496062999999999921 ) ) ;
#164 = CARTESIAN_POINT ( 'NONE',  ( 0.0000000000000000000, 0.0000000000000000000, 1.496062999999999921 ) ) ;
#165 = AXIS2_PLACEMENT_3D ( 'NONE', #16, #241, #102 ) ;
#166 = DIRECTION ( 'NONE',  ( -1.224646799147353207E-16, -0.0000000000000000000, -1.000000000000000000 ) ) ;
#167 = ADVANCED_FACE ( 'NONE', ( #35 ), #77, .T. ) ;
#168 = CARTESIAN_POINT ( 'NONE',  ( 0.04405499999999973326, 5.395181473643630390E-18, 1.496062999999999921 ) ) ;
#169 = CARTESIAN_POINT ( 'NONE',  ( -0.01573225199999999865, 0.0000000000000000000, 3.853290411035908808E-18 ) ) ;
#170 = VECTOR ( 'NONE', #171, 39.37007874015748143 ) ;
#171 = DIRECTION ( 'NONE',  ( 0.1736481776669313581, 0.0000000000000000000, 0.9848077530122077983 ) ) ;
#172 = AXIS2_PLACEMENT_3D ( 'NONE', #92, #25, #250 ) ;
#173 = DIRECTION ( 'NONE',  ( -0.0000000000000000000, -0.0000000000000000000, -1.000000000000000000 ) ) ;
#174 = ORIENTED_EDGE ( 'NONE', *, *, #228, .T. ) ;
#175 = VERTEX_POINT ( 'NONE', #149 ) ;
#176 = ORIENTED_EDGE ( 'NONE', *, *, #209, .F. ) ;
#177 = EDGE_CURVE ( 'NONE', #282, #48, #130, .T. ) ;
#178 = VERTEX_POINT ( 'NONE', #169 ) ;
#179 = AXIS2_PLACEMENT_3D ( 'NONE', #249, #128, #245 ) ;
#180 = CYLINDRICAL_SURFACE ( 'NONE', #76, 0.05905500000000000332 ) ;
#181 = FILL_AREA_STYLE ('',( #67 ) ) ;
#182 = DIRECTION ( 'NONE',  ( -1.224646799147353207E-16, -0.0000000000000000000, -1.000000000000000000 ) ) ;
#183 = AXIS2_PLACEMENT_3D ( 'NONE', #72, #166, #100 ) ;
#184 = MECHANICAL_DESIGN_GEOMETRIC_PRESENTATION_REPRESENTATION (  '', ( #205 ), #36 ) ;
#185 = CARTESIAN_POINT ( 'NONE',  ( 0.05905500000000000332, 7.232151672364695422E-18, 1.481062999999999574 ) ) ;
#186 = DIMENSIONAL_EXPONENTS ( 1.000000000000000000, 0.0000000000000000000, 0.0000000000000000000, 0.0000000000000000000, 0.0000000000000000000, 0.0000000000000000000, 0.0000000000000000000 ) ;
#187 =( CONVERSION_BASED_UNIT ( 'INCH', #234 ) LENGTH_UNIT ( ) NAMED_UNIT ( #210 ) );
#188 = CLOSED_SHELL ( 'NONE', ( #196, #40, #124, #146, #24, #167, #6, #271, #254, #43 ) ) ;
#189 = DIRECTION ( 'NONE',  ( -0.0000000000000000000, -0.0000000000000000000, -1.000000000000000000 ) ) ;
#190 = LINE ( 'NONE', #291, #237 ) ;
#191 = AXIS2_PLACEMENT_3D ( 'NONE', #164, #173, #269 ) ;
#192 = VERTEX_POINT ( 'NONE', #193 ) ;
#193 = CARTESIAN_POINT ( 'NONE',  ( -0.05905500000000000332, 0.0000000000000000000, 1.481062999999999574 ) ) ;
#194 = ORIENTED_EDGE ( 'NONE', *, *, #227, .T. ) ;
#195 =( LENGTH_UNIT ( ) NAMED_UNIT ( * ) SI_UNIT ( $, .METRE. ) );
#196 = ADVANCED_FACE ( 'NONE', ( #268 ), #42, .T. ) ;
#197 = UNCERTAINTY_MEASURE_WITH_UNIT (LENGTH_MEASURE( 1.000000000000000082E-05 ), #132, 'distance_accuracy_value', 'NONE');
#198 = VECTOR ( 'NONE', #189, 39.37007874015748143 ) ;
#199 = APPLICATION_PROTOCOL_DEFINITION ( 'draft international standard', 'automotive_design', 1998, #297 ) ;
#200 = ORIENTED_EDGE ( 'NONE', *, *, #260, .F. ) ;
#201 = APPLICATION_PROTOCOL_DEFINITION ( 'draft international standard', 'automotive_design', 1998, #273 ) ;
#202 = ORIENTED_EDGE ( 'NONE', *, *, #86, .T. ) ;
#203 = DIRECTION ( 'NONE',  ( 1.000000000000000000, 0.0000000000000000000, 0.0000000000000000000 ) ) ;
#204 = EDGE_LOOP ( 'NONE', ( #176, #47, #140, #21 ) ) ;
#205 = STYLED_ITEM ( 'NONE', ( #136 ), #277 ) ;
#206 = SURFACE_STYLE_USAGE ( .BOTH. , #222 ) ;
#207 = VERTEX_POINT ( 'NONE', #58 ) ;
#208 = DIRECTION ( 'NONE',  ( 1.000000000000000000, 0.0000000000000000000, 0.0000000000000000000 ) ) ;
#209 = EDGE_CURVE ( 'NONE', #155, #139, #294, .T. ) ;
#210 = DIMENSIONAL_EXPONENTS ( 1.000000000000000000, 0.0000000000000000000, 0.0000000000000000000, 0.0000000000000000000, 0.0000000000000000000, 0.0000000000000000000, 0.0000000000000000000 ) ;
#211 = DIRECTION ( 'NONE',  ( -1.000000000000000000, 0.0000000000000000000, 0.0000000000000000000 ) ) ;
#212 = CONICAL_SURFACE ( 'NONE', #172, 0.04405499999999973326, 0.7853981633974491672 ) ;
#213 = DIRECTION ( 'NONE',  ( -1.224646799147353207E-16, -0.0000000000000000000, -1.000000000000000000 ) ) ;
#214 = DIRECTION ( 'NONE',  ( 0.0000000000000000000, 0.0000000000000000000, -1.000000000000000000 ) ) ;
#215 = DIRECTION ( 'NONE',  ( 1.000000000000000000, 0.0000000000000000000, 0.0000000000000000000 ) ) ;
#216 = VECTOR ( 'NONE', #55, 39.37007874015748143 ) ;
#217 = DIRECTION ( 'NONE',  ( -1.000000000000000000, 0.0000000000000000000, 1.224646799147353207E-16 ) ) ;
#218 = CYLINDRICAL_SURFACE ( 'NONE', #121, 0.01573225199999999865 ) ;
#219 = DIRECTION ( 'NONE',  ( 1.000000000000000000, 0.0000000000000000000, 0.0000000000000000000 ) ) ;
#220 = CARTESIAN_POINT ( 'NONE',  ( 0.04405499999999973326, 6.313666573004162521E-18, 1.496062999999999921 ) ) ;
#221 = ORIENTED_EDGE ( 'NONE', *, *, #66, .F. ) ;
#222 = SURFACE_SIDE_STYLE ('',( #157 ) ) ;
#223 = CIRCLE ( 'NONE', #96, 0.05905500000000000332 ) ;
#224 = VERTEX_POINT ( 'NONE', #13 ) ;
#225 = LENGTH_MEASURE_WITH_UNIT ( LENGTH_MEASURE( 0.02539999999999999897 ), #195 );
#226 = VERTEX_POINT ( 'NONE', #15 ) ;
#227 = EDGE_CURVE ( 'NONE', #139, #48, #74, .T. ) ;
#228 = EDGE_CURVE ( 'NONE', #155, #207, #252, .T. ) ;
#229 = SURFACE_SIDE_STYLE ('',( #107 ) ) ;
#230 = ORIENTED_EDGE ( 'NONE', *, *, #227, .F. ) ;
#231 = AXIS2_PLACEMENT_3D ( 'NONE', #59, #19, #219 ) ;
#232 = ORIENTED_EDGE ( 'NONE', *, *, #299, .T. ) ;
#233 = CARTESIAN_POINT ( 'NONE',  ( -0.01573225199999999865, 0.0000000000000000000, 1.926645205517954404E-18 ) ) ;
#234 = LENGTH_MEASURE_WITH_UNIT ( LENGTH_MEASURE( 0.02539999999999999897 ), #158 );
#235 = PRODUCT ( 'Micro_RMEM-008-2X', 'Micro_RMEM-008-2X', '', ( #62 ) ) ;
#236 = DIRECTION ( 'NONE',  ( 1.000000000000000000, 0.0000000000000000000, 0.0000000000000000000 ) ) ;
#237 = VECTOR ( 'NONE', #17, 39.37007874015748143 ) ;
#238 = CARTESIAN_POINT ( 'NONE',  ( 1.157144267578351175E-17, 0.0000000000000000000, 0.09448800000000000254 ) ) ;
#239 = DIMENSIONAL_EXPONENTS ( 1.000000000000000000, 0.0000000000000000000, 0.0000000000000000000, 0.0000000000000000000, 0.0000000000000000000, 0.0000000000000000000, 0.0000000000000000000 ) ;
#240 = DIRECTION ( 'NONE',  ( -0.0000000000000000000, -0.0000000000000000000, -1.000000000000000000 ) ) ;
#241 = DIRECTION ( 'NONE',  ( -1.224646799147353207E-16, -0.0000000000000000000, -1.000000000000000000 ) ) ;
#242 = CONICAL_SURFACE ( 'NONE', #120, 0.01573225199999999865, 0.1745329251994338637 ) ;
#243 = CONICAL_SURFACE ( 'NONE', #258, 0.04405499999999973326, 0.7853981633974491672 ) ;
#244 = DIRECTION ( 'NONE',  ( -1.000000000000000000, 0.0000000000000000000, 1.224646799147353207E-16 ) ) ;
#245 = DIRECTION ( 'NONE',  ( 1.000000000000000000, 0.0000000000000000000, -0.0000000000000000000 ) ) ;
#246 = EDGE_LOOP ( 'NONE', ( #230, #88, #251, #93 ) ) ;
#247 = CARTESIAN_POINT ( 'NONE',  ( 0.01573225200000000906, 0.0000000000000000000, 0.09448800000000000254 ) ) ;
#248 = CONICAL_SURFACE ( 'NONE', #293, 0.01573225199999999865, 0.1745329251994338637 ) ;
#249 = CARTESIAN_POINT ( 'NONE',  ( 0.0000000000000000000, 0.0000000000000000000, 1.496062999999999921 ) ) ;
#250 = DIRECTION ( 'NONE',  ( -1.000000000000000000, 0.0000000000000000000, 0.0000000000000000000 ) ) ;
#251 = ORIENTED_EDGE ( 'NONE', *, *, #106, .T. ) ;
#252 = CIRCLE ( 'NONE', #296, 0.04405499999999973326 ) ;
#253 = SURFACE_STYLE_USAGE ( .BOTH. , #229 ) ;
#254 = ADVANCED_FACE ( 'NONE', ( #79 ), #218, .T. ) ;
#255 = EDGE_LOOP ( 'NONE', ( #276, #174 ) ) ;
#256 = ORIENTED_EDGE ( 'NONE', *, *, #288, .T. ) ;
#257 = ORIENTED_EDGE ( 'NONE', *, *, #123, .T. ) ;
#258 = AXIS2_PLACEMENT_3D ( 'NONE', #144, #214, #119 ) ;
#259 = DIRECTION ( 'NONE',  ( 1.000000000000000000, 0.0000000000000000000, 0.0000000000000000000 ) ) ;
#260 = EDGE_CURVE ( 'NONE', #226, #178, #156, .T. ) ;
#261 = CARTESIAN_POINT ( 'NONE',  ( -0.05905500000000000332, 0.0000000000000000000, 1.496062999999999921 ) ) ;
#262 = FACE_OUTER_BOUND ( 'NONE', #246, .T. ) ;
#263 = DIRECTION ( 'NONE',  ( 1.000000000000000000, 0.0000000000000000000, 0.0000000000000000000 ) ) ;
#264 = AXIS2_PLACEMENT_3D ( 'NONE', #54, #213, #236 ) ;
#265 = CARTESIAN_POINT ( 'NONE',  ( -0.01573225199999998825, 1.926645205517954404E-18, 0.09448800000000000254 ) ) ;
#266 = DIRECTION ( 'NONE',  ( 1.000000000000000000, 0.0000000000000000000, 0.0000000000000000000 ) ) ;
#267 = EDGE_CURVE ( 'NONE', #207, #192, #190, .T. ) ;
#268 = FACE_OUTER_BOUND ( 'NONE', #274, .T. ) ;
#269 = DIRECTION ( 'NONE',  ( -1.000000000000000000, 0.0000000000000000000, 0.0000000000000000000 ) ) ;
#270 =( LENGTH_UNIT ( ) NAMED_UNIT ( * ) SI_UNIT ( $, .METRE. ) );
#271 = ADVANCED_FACE ( 'NONE', ( #104 ), #248, .T. ) ;
#272 = CARTESIAN_POINT ( 'NONE',  ( 0.05905500000000000332, 7.232151672364695422E-18, 1.496062999999999921 ) ) ;
#273 = APPLICATION_CONTEXT ( 'automotive_design' ) ;
#274 = EDGE_LOOP ( 'NONE', ( #154, #45, #23, #63 ) ) ;
#275 =( GEOMETRIC_REPRESENTATION_CONTEXT ( 3 ) GLOBAL_UNCERTAINTY_ASSIGNED_CONTEXT ( ( #133 ) ) GLOBAL_UNIT_ASSIGNED_CONTEXT ( ( #187, #53, #286 ) ) REPRESENTATION_CONTEXT ( 'NONE', 'WORKASPACE' ) );
#276 = ORIENTED_EDGE ( 'NONE', *, *, #103, .T. ) ;
#277 = ADVANCED_BREP_SHAPE_REPRESENTATION ( 'Micro_RMEM-008-2X', ( #11, #290 ), #285 ) ;
#278 = FILL_AREA_STYLE_COLOUR ( '', #46 ) ;
#279 = ORIENTED_EDGE ( 'NONE', *, *, #177, .T. ) ;
#280 = PRODUCT_RELATED_PRODUCT_CATEGORY ( 'part', '', ( #235 ) ) ;
#281 = CARTESIAN_POINT ( 'NONE',  ( 0.0000000000000000000, 0.0000000000000000000, 0.0000000000000000000 ) ) ;
#282 = VERTEX_POINT ( 'NONE', #247 ) ;
#283 = FACE_OUTER_BOUND ( 'NONE', #204, .T. ) ;
#284 = CIRCLE ( 'NONE', #148, 0.05905500000000000332 ) ;
#285 =( GEOMETRIC_REPRESENTATION_CONTEXT ( 3 ) GLOBAL_UNCERTAINTY_ASSIGNED_CONTEXT ( ( #197 ) ) GLOBAL_UNIT_ASSIGNED_CONTEXT ( ( #132, #73, #1 ) ) REPRESENTATION_CONTEXT ( 'NONE', 'WORKASPACE' ) );
#286 =( NAMED_UNIT ( * ) SI_UNIT ( $, .STERADIAN. ) SOLID_ANGLE_UNIT ( ) );
#287 = FACE_OUTER_BOUND ( 'NONE', #114, .T. ) ;
#288 = EDGE_CURVE ( 'NONE', #178, #226, #32, .T. ) ;
#289 = DIRECTION ( 'NONE',  ( 0.0000000000000000000, 0.0000000000000000000, -1.000000000000000000 ) ) ;
#290 = AXIS2_PLACEMENT_3D ( 'NONE', #281, #112, #203 ) ;
#291 = CARTESIAN_POINT ( 'NONE',  ( -0.04405499999999973326, 0.0000000000000000000, 1.496062999999999921 ) ) ;
#292 = DIRECTION ( 'NONE',  ( 1.224646799147353207E-16, 0.0000000000000000000, 1.000000000000000000 ) ) ;
#293 = AXIS2_PLACEMENT_3D ( 'NONE', #38, #292, #215 ) ;
#294 = LINE ( 'NONE', #168, #216 ) ;
#295 = DIRECTION ( 'NONE',  ( -1.224646799147353207E-16, -0.0000000000000000000, -1.000000000000000000 ) ) ;
#296 = AXIS2_PLACEMENT_3D ( 'NONE', #56, #105, #266 ) ;
#297 = APPLICATION_CONTEXT ( 'automotive_design' ) ;
#298 = EDGE_LOOP ( 'NONE', ( #135, #26, #80, #84 ) ) ;
#299 = EDGE_CURVE ( 'NONE', #192, #139, #78, .T. ) ;
ENDSEC;
END-ISO-10303-21;
