ISO-10303-21;
HEADER;
FILE_DESCRIPTION (( 'STEP AP214' ),
    '1' );
FILE_NAME ('Micro_SEM-140-02.STEP',
    '2021-09-02T01:35:41',
    ( '' ),
    ( '' ),
    'SwSTEP 2.0',
    'SolidWorks 2020',
    '' );
FILE_SCHEMA (( 'AUTOMOTIVE_DESIGN' ));
ENDSEC;

DATA;
#1 = ORIENTED_EDGE ( 'NONE', *, *, #123, .F. ) ;
#2 = VERTEX_POINT ( 'NONE', #158 ) ;
#3 = CIRCLE ( 'NONE', #168, 0.07022970000000000601 ) ;
#4 = AXIS2_PLACEMENT_3D ( 'NONE', #216, #267, #192 ) ;
#5 = FACE_OUTER_BOUND ( 'NONE', #298, .T. ) ;
#6 = CARTESIAN_POINT ( 'NONE',  ( 0.07022970000000004764, 0.0000000000000000000, 0.2500000000000000000 ) ) ;
#7 = LINE ( 'NONE', #207, #25 ) ;
#8 = DIRECTION ( 'NONE',  ( -1.000000000000000000, 0.0000000000000000000, 1.224646799147353454E-16 ) ) ;
#9 = AXIS2_PLACEMENT_3D ( 'NONE', #238, #141, #191 ) ;
#10 = LINE ( 'NONE', #33, #37 ) ;
#11 = DIRECTION ( 'NONE',  ( -1.224646799147353454E-16, -0.0000000000000000000, -1.000000000000000000 ) ) ;
#12 = FACE_OUTER_BOUND ( 'NONE', #253, .T. ) ;
#13 =( GEOMETRIC_REPRESENTATION_CONTEXT ( 3 ) GLOBAL_UNCERTAINTY_ASSIGNED_CONTEXT ( ( #87 ) ) GLOBAL_UNIT_ASSIGNED_CONTEXT ( ( #39, #35, #199 ) ) REPRESENTATION_CONTEXT ( 'NONE', 'WORKASPACE' ) );
#14 = ORIENTED_EDGE ( 'NONE', *, *, #143, .T. ) ;
#15 = DIRECTION ( 'NONE',  ( 0.0000000000000000000, 0.0000000000000000000, 1.000000000000000000 ) ) ;
#16 = VECTOR ( 'NONE', #241, 39.37007874015748143 ) ;
#17 = EDGE_CURVE ( 'NONE', #173, #272, #260, .T. ) ;
#18 =( NAMED_UNIT ( * ) SI_UNIT ( $, .STERADIAN. ) SOLID_ANGLE_UNIT ( ) );
#19 = ORIENTED_EDGE ( 'NONE', *, *, #20, .F. ) ;
#20 = EDGE_CURVE ( 'NONE', #200, #103, #287, .T. ) ;
#21 = AXIS2_PLACEMENT_3D ( 'NONE', #118, #193, #76 ) ;
#22 = DIRECTION ( 'NONE',  ( 0.7071067811865531239, 8.659560562355003116E-17, -0.7071067811865419106 ) ) ;
#23 = CARTESIAN_POINT ( 'NONE',  ( -0.09375000000000001388, 0.0000000000000000000, 1.485000000000000986 ) ) ;
#24 = DIRECTION ( 'NONE',  ( -1.000000000000000000, 0.0000000000000000000, 1.224646799147353454E-16 ) ) ;
#25 = VECTOR ( 'NONE', #22, 39.37007874015748143 ) ;
#26 = CARTESIAN_POINT ( 'NONE',  ( 0.09375000000000001388, 1.148106374200643401E-17, 1.500000000000000222 ) ) ;
#27 = FACE_OUTER_BOUND ( 'NONE', #88, .T. ) ;
#28 = CARTESIAN_POINT ( 'NONE',  ( 0.0000000000000000000, 0.0000000000000000000, 1.500000000000000222 ) ) ;
#29 = ADVANCED_FACE ( 'NONE', ( #5 ), #72, .T. ) ;
#30 = LINE ( 'NONE', #293, #85 ) ;
#31 = FACE_OUTER_BOUND ( 'NONE', #242, .T. ) ;
#32 = APPLICATION_CONTEXT ( 'automotive_design' ) ;
#33 = CARTESIAN_POINT ( 'NONE',  ( -0.07022969999999997825, 8.600657731007888113E-18, 0.2500000000000000000 ) ) ;
#34 = CARTESIAN_POINT ( 'NONE',  ( 0.09375000000000004163, 1.148106374200644017E-17, 0.3833902497819536292 ) ) ;
#35 =( NAMED_UNIT ( * ) PLANE_ANGLE_UNIT ( ) SI_UNIT ( $, .RADIAN. ) );
#36 = EDGE_CURVE ( 'NONE', #2, #272, #136, .T. ) ;
#37 = VECTOR ( 'NONE', #122, 39.37007874015748143 ) ;
#38 = EDGE_LOOP ( 'NONE', ( #160, #181, #148, #186 ) ) ;
#39 =( CONVERSION_BASED_UNIT ( 'INCH', #154 ) LENGTH_UNIT ( ) NAMED_UNIT ( #257 ) );
#40 = ORIENTED_EDGE ( 'NONE', *, *, #17, .T. ) ;
#41 = PRODUCT ( 'Micro_SEM-140-02', 'Micro_SEM-140-02', '', ( #111 ) ) ;
#42 = CARTESIAN_POINT ( 'NONE',  ( 1.053276796084075227E-33, 0.0000000000000000000, 8.600657731007891194E-18 ) ) ;
#43 = APPLICATION_PROTOCOL_DEFINITION ( 'draft international standard', 'automotive_design', 1998, #182 ) ;
#44 = DIRECTION ( 'NONE',  ( -1.224646799147353454E-16, -0.0000000000000000000, -1.000000000000000000 ) ) ;
#45 = CYLINDRICAL_SURFACE ( 'NONE', #52, 0.09375000000000001388 ) ;
#46 = DIRECTION ( 'NONE',  ( 0.0000000000000000000, 0.0000000000000000000, -1.000000000000000000 ) ) ;
#47 = CYLINDRICAL_SURFACE ( 'NONE', #73, 0.07022970000000001989 ) ;
#48 = CARTESIAN_POINT ( 'NONE',  ( -0.07875000000000061118, 0.0000000000000000000, 1.500000000000000222 ) ) ;
#49 = DIRECTION ( 'NONE',  ( 1.224646799147353454E-16, 0.0000000000000000000, 1.000000000000000000 ) ) ;
#50 = PLANE ( 'NONE',  #9 ) ;
#51 = LINE ( 'NONE', #71, #16 ) ;
#52 = AXIS2_PLACEMENT_3D ( 'NONE', #209, #161, #282 ) ;
#53 =( GEOMETRIC_REPRESENTATION_CONTEXT ( 3 ) GLOBAL_UNCERTAINTY_ASSIGNED_CONTEXT ( ( #201 ) ) GLOBAL_UNIT_ASSIGNED_CONTEXT ( ( #227, #222, #232 ) ) REPRESENTATION_CONTEXT ( 'NONE', 'WORKASPACE' ) );
#54 = PLANE ( 'NONE',  #169 ) ;
#55 = DIRECTION ( 'NONE',  ( 0.0000000000000000000, 0.0000000000000000000, 1.000000000000000000 ) ) ;
#56 =( GEOMETRIC_REPRESENTATION_CONTEXT ( 3 ) GLOBAL_UNCERTAINTY_ASSIGNED_CONTEXT ( ( #129 ) ) GLOBAL_UNIT_ASSIGNED_CONTEXT ( ( #245, #223, #18 ) ) REPRESENTATION_CONTEXT ( 'NONE', 'WORKASPACE' ) );
#57 = ORIENTED_EDGE ( 'NONE', *, *, #176, .T. ) ;
#58 = ORIENTED_EDGE ( 'NONE', *, *, #274, .T. ) ;
#59 = VECTOR ( 'NONE', #243, 39.37007874015748143 ) ;
#60 = SHAPE_DEFINITION_REPRESENTATION ( #128, #101 ) ;
#61 = DIRECTION ( 'NONE',  ( 0.0000000000000000000, 0.0000000000000000000, 1.000000000000000000 ) ) ;
#62 = EDGE_CURVE ( 'NONE', #86, #2, #153, .T. ) ;
#63 = DIRECTION ( 'NONE',  ( 0.0000000000000000000, 0.0000000000000000000, 1.000000000000000000 ) ) ;
#64 = CARTESIAN_POINT ( 'NONE',  ( 0.0000000000000000000, 0.0000000000000000000, 1.500000000000000222 ) ) ;
#65 = FACE_OUTER_BOUND ( 'NONE', #38, .T. ) ;
#66 = AXIS2_PLACEMENT_3D ( 'NONE', #64, #46, #231 ) ;
#67 = CIRCLE ( 'NONE', #4, 0.09375000000000001388 ) ;
#68 = ADVANCED_FACE ( 'NONE', ( #65 ), #45, .T. ) ;
#69 = ORIENTED_EDGE ( 'NONE', *, *, #134, .T. ) ;
#70 = CARTESIAN_POINT ( 'NONE',  ( 0.0000000000000000000, 0.0000000000000000000, 1.485000000000000986 ) ) ;
#71 = CARTESIAN_POINT ( 'NONE',  ( 0.07022970000000001989, 8.600657731007889654E-18, -8.600657731007891194E-18 ) ) ;
#72 = CONICAL_SURFACE ( 'NONE', #66, 0.07875000000000061118, 0.7853981633974562726 ) ;
#73 = AXIS2_PLACEMENT_3D ( 'NONE', #290, #94, #8 ) ;
#74 = FACE_OUTER_BOUND ( 'NONE', #289, .T. ) ;
#75 = ORIENTED_EDGE ( 'NONE', *, *, #117, .F. ) ;
#76 = DIRECTION ( 'NONE',  ( 1.000000000000000000, 0.0000000000000000000, 0.0000000000000000000 ) ) ;
#77 = CARTESIAN_POINT ( 'NONE',  ( 4.695176422197739051E-17, 0.0000000000000000000, 0.3833902497819536292 ) ) ;
#78 = PRODUCT_RELATED_PRODUCT_CATEGORY ( 'part', '', ( #41 ) ) ;
#79 = CARTESIAN_POINT ( 'NONE',  ( 0.0000000000000000000, 0.0000000000000000000, 0.0000000000000000000 ) ) ;
#80 = ORIENTED_EDGE ( 'NONE', *, *, #62, .T. ) ;
#81 = ORIENTED_EDGE ( 'NONE', *, *, #279, .F. ) ;
#82 = EDGE_CURVE ( 'NONE', #244, #173, #295, .T. ) ;
#83 = DIRECTION ( 'NONE',  ( 0.0000000000000000000, 0.0000000000000000000, -1.000000000000000000 ) ) ;
#84 = CIRCLE ( 'NONE', #125, 0.07875000000000061118 ) ;
#85 = VECTOR ( 'NONE', #262, 39.37007874015748143 ) ;
#86 = VERTEX_POINT ( 'NONE', #23 ) ;
#87 = UNCERTAINTY_MEASURE_WITH_UNIT (LENGTH_MEASURE( 1.000000000000000082E-05 ), #39, 'distance_accuracy_value', 'NONE');
#88 = EDGE_LOOP ( 'NONE', ( #1, #131, #218, #194 ) ) ;
#89 = ADVANCED_FACE ( 'NONE', ( #188 ), #228, .T. ) ;
#90 = EDGE_LOOP ( 'NONE', ( #291, #14, #137, #221 ) ) ;
#91 = CARTESIAN_POINT ( 'NONE',  ( 1.053276796084075227E-33, 0.0000000000000000000, 8.600657731007891194E-18 ) ) ;
#92 = CARTESIAN_POINT ( 'NONE',  ( -0.09374999999999995837, 0.0000000000000000000, 0.3833902497819536292 ) ) ;
#93 = CARTESIAN_POINT ( 'NONE',  ( 0.07022970000000004764, 0.0000000000000000000, 0.2500000000000000000 ) ) ;
#94 = DIRECTION ( 'NONE',  ( -1.224646799147353454E-16, -0.0000000000000000000, -1.000000000000000000 ) ) ;
#95 = EDGE_LOOP ( 'NONE', ( #57, #162 ) ) ;
#96 = LINE ( 'NONE', #48, #121 ) ;
#97 = FILL_AREA_STYLE ('',( #152 ) ) ;
#98 =( LENGTH_UNIT ( ) NAMED_UNIT ( * ) SI_UNIT ( $, .METRE. ) );
#99 = AXIS2_PLACEMENT_3D ( 'NONE', #180, #63, #185 ) ;
#100 = ORIENTED_EDGE ( 'NONE', *, *, #271, .T. ) ;
#101 = ADVANCED_BREP_SHAPE_REPRESENTATION ( 'Micro_SEM-140-02', ( #294, #99 ), #13 ) ;
#102 = PRESENTATION_STYLE_ASSIGNMENT (( #130 ) ) ;
#103 = VERTEX_POINT ( 'NONE', #277 ) ;
#104 = CONICAL_SURFACE ( 'NONE', #263, 0.07875000000000061118, 0.7853981633974562726 ) ;
#105 = MECHANICAL_DESIGN_GEOMETRIC_PRESENTATION_REPRESENTATION (  '', ( #133 ), #56 ) ;
#106 = CARTESIAN_POINT ( 'NONE',  ( 0.0000000000000000000, 0.0000000000000000000, 1.500000000000000222 ) ) ;
#107 = ADVANCED_FACE ( 'NONE', ( #27 ), #104, .T. ) ;
#108 = CARTESIAN_POINT ( 'NONE',  ( 0.0000000000000000000, 0.0000000000000000000, 1.500000000000000222 ) ) ;
#109 = EDGE_LOOP ( 'NONE', ( #157, #299 ) ) ;
#110 = AXIS2_PLACEMENT_3D ( 'NONE', #91, #172, #283 ) ;
#111 = PRODUCT_CONTEXT ( 'NONE', #32, 'mechanical' ) ;
#112 = CARTESIAN_POINT ( 'NONE',  ( 0.0000000000000000000, 0.0000000000000000000, 1.485000000000000986 ) ) ;
#113 = DIRECTION ( 'NONE',  ( -1.000000000000000000, 0.0000000000000000000, 0.0000000000000000000 ) ) ;
#114 = CARTESIAN_POINT ( 'NONE',  ( -0.07022970000000001989, 0.0000000000000000000, 8.600657731007891194E-18 ) ) ;
#115 = CIRCLE ( 'NONE', #179, 0.09375000000000001388 ) ;
#116 = DIRECTION ( 'NONE',  ( 1.000000000000000000, 0.0000000000000000000, 0.0000000000000000000 ) ) ;
#117 = EDGE_CURVE ( 'NONE', #234, #2, #7, .T. ) ;
#118 = CARTESIAN_POINT ( 'NONE',  ( 3.061616997868383634E-17, 0.0000000000000000000, 0.2500000000000000000 ) ) ;
#119 = CARTESIAN_POINT ( 'NONE',  ( -0.07022969999999997825, 1.004086073650716337E-17, 0.2500000000000000000 ) ) ;
#120 = ORIENTED_EDGE ( 'NONE', *, *, #202, .F. ) ;
#121 = VECTOR ( 'NONE', #196, 39.37007874015748143 ) ;
#122 = DIRECTION ( 'NONE',  ( -0.1736481776669312194, 2.126576849575783625E-17, 0.9848077530122077983 ) ) ;
#123 = EDGE_CURVE ( 'NONE', #234, #273, #84, .T. ) ;
#124 = PRESENTATION_STYLE_ASSIGNMENT (( #197 ) ) ;
#125 = AXIS2_PLACEMENT_3D ( 'NONE', #106, #61, #206 ) ;
#126 = FILL_AREA_STYLE_COLOUR ( '', #248 ) ;
#127 = CIRCLE ( 'NONE', #204, 0.07875000000000061118 ) ;
#128 = PRODUCT_DEFINITION_SHAPE ( 'NONE', 'NONE',  #208 ) ;
#129 = UNCERTAINTY_MEASURE_WITH_UNIT (LENGTH_MEASURE( 1.000000000000000082E-05 ), #245, 'distance_accuracy_value', 'NONE');
#130 = SURFACE_STYLE_USAGE ( .BOTH. , #178 ) ;
#131 = ORIENTED_EDGE ( 'NONE', *, *, #117, .T. ) ;
#132 = AXIS2_PLACEMENT_3D ( 'NONE', #42, #44, #24 ) ;
#133 = STYLED_ITEM ( 'NONE', ( #124 ), #294 ) ;
#134 = EDGE_CURVE ( 'NONE', #173, #244, #3, .T. ) ;
#135 = DIRECTION ( 'NONE',  ( 1.000000000000000000, 0.0000000000000000000, 0.0000000000000000000 ) ) ;
#136 = LINE ( 'NONE', #26, #281 ) ;
#137 = ORIENTED_EDGE ( 'NONE', *, *, #176, .F. ) ;
#138 = COLOUR_RGB ( '',0.7921568627450980005, 0.8196078431372548767, 0.9333333333333333481 ) ;
#139 = CARTESIAN_POINT ( 'NONE',  ( 0.0000000000000000000, 0.0000000000000000000, 1.500000000000000222 ) ) ;
#140 = CARTESIAN_POINT ( 'NONE',  ( 3.061616997868383634E-17, 0.0000000000000000000, 0.2500000000000000000 ) ) ;
#141 = DIRECTION ( 'NONE',  ( 0.0000000000000000000, 0.0000000000000000000, 1.000000000000000000 ) ) ;
#142 = VECTOR ( 'NONE', #278, 39.37007874015748143 ) ;
#143 = EDGE_CURVE ( 'NONE', #173, #200, #51, .T. ) ;
#144 = DIRECTION ( 'NONE',  ( 1.000000000000000000, 0.0000000000000000000, 0.0000000000000000000 ) ) ;
#145 = DIRECTION ( 'NONE',  ( 1.000000000000000000, 0.0000000000000000000, 0.0000000000000000000 ) ) ;
#146 = ORIENTED_EDGE ( 'NONE', *, *, #202, .T. ) ;
#147 = DIRECTION ( 'NONE',  ( -1.000000000000000000, 0.0000000000000000000, 1.224646799147353454E-16 ) ) ;
#148 = ORIENTED_EDGE ( 'NONE', *, *, #226, .T. ) ;
#149 = AXIS2_PLACEMENT_3D ( 'NONE', #139, #258, #236 ) ;
#150 = CONICAL_SURFACE ( 'NONE', #163, 0.07022970000000000601, 0.1745329251994339470 ) ;
#151 = SURFACE_SIDE_STYLE ('',( #247 ) ) ;
#152 = FILL_AREA_STYLE_COLOUR ( '', #138 ) ;
#153 = CIRCLE ( 'NONE', #214, 0.09375000000000001388 ) ;
#154 = LENGTH_MEASURE_WITH_UNIT ( LENGTH_MEASURE( 0.02539999999999999897 ), #177 );
#155 =( LENGTH_UNIT ( ) NAMED_UNIT ( * ) SI_UNIT ( $, .METRE. ) );
#156 = ORIENTED_EDGE ( 'NONE', *, *, #143, .F. ) ;
#157 = ORIENTED_EDGE ( 'NONE', *, *, #268, .T. ) ;
#158 = CARTESIAN_POINT ( 'NONE',  ( 0.09375000000000001388, 1.148106374200643401E-17, 1.485000000000000986 ) ) ;
#159 = AXIS2_PLACEMENT_3D ( 'NONE', #174, #261, #147 ) ;
#160 = ORIENTED_EDGE ( 'NONE', *, *, #36, .F. ) ;
#161 = DIRECTION ( 'NONE',  ( -0.0000000000000000000, -0.0000000000000000000, -1.000000000000000000 ) ) ;
#162 = ORIENTED_EDGE ( 'NONE', *, *, #20, .T. ) ;
#163 = AXIS2_PLACEMENT_3D ( 'NONE', #140, #49, #170 ) ;
#164 = DIRECTION ( 'NONE',  ( -1.224646799147353454E-16, -0.0000000000000000000, -1.000000000000000000 ) ) ;
#165 = FACE_OUTER_BOUND ( 'NONE', #90, .T. ) ;
#166 = ADVANCED_FACE ( 'NONE', ( #217 ), #50, .T. ) ;
#167 = CARTESIAN_POINT ( 'NONE',  ( 0.07022970000000001989, 8.600657731007889654E-18, 0.0000000000000000000 ) ) ;
#168 = AXIS2_PLACEMENT_3D ( 'NONE', #284, #11, #195 ) ;
#169 = AXIS2_PLACEMENT_3D ( 'NONE', #79, #55, #203 ) ;
#170 = DIRECTION ( 'NONE',  ( 1.000000000000000000, 0.0000000000000000000, 0.0000000000000000000 ) ) ;
#171 = ORIENTED_EDGE ( 'NONE', *, *, #82, .F. ) ;
#172 = DIRECTION ( 'NONE',  ( -1.224646799147353454E-16, -0.0000000000000000000, -1.000000000000000000 ) ) ;
#173 = VERTEX_POINT ( 'NONE', #93 ) ;
#174 = CARTESIAN_POINT ( 'NONE',  ( 0.0000000000000000000, 0.0000000000000000000, 0.0000000000000000000 ) ) ;
#175 = APPLICATION_PROTOCOL_DEFINITION ( 'draft international standard', 'automotive_design', 1998, #32 ) ;
#176 = EDGE_CURVE ( 'NONE', #103, #200, #239, .T. ) ;
#177 =( LENGTH_UNIT ( ) NAMED_UNIT ( * ) SI_UNIT ( $, .METRE. ) );
#178 = SURFACE_SIDE_STYLE ('',( #297 ) ) ;
#179 = AXIS2_PLACEMENT_3D ( 'NONE', #77, #215, #145 ) ;
#180 = CARTESIAN_POINT ( 'NONE',  ( 0.0000000000000000000, 0.0000000000000000000, 0.0000000000000000000 ) ) ;
#181 = ORIENTED_EDGE ( 'NONE', *, *, #254, .T. ) ;
#182 = APPLICATION_CONTEXT ( 'automotive_design' ) ;
#183 = CARTESIAN_POINT ( 'NONE',  ( 3.061616997868383634E-17, 0.0000000000000000000, 0.2500000000000000000 ) ) ;
#184 = ORIENTED_EDGE ( 'NONE', *, *, #279, .T. ) ;
#185 = DIRECTION ( 'NONE',  ( 1.000000000000000000, 0.0000000000000000000, 0.0000000000000000000 ) ) ;
#186 = ORIENTED_EDGE ( 'NONE', *, *, #190, .F. ) ;
#187 = DIMENSIONAL_EXPONENTS ( 1.000000000000000000, 0.0000000000000000000, 0.0000000000000000000, 0.0000000000000000000, 0.0000000000000000000, 0.0000000000000000000, 0.0000000000000000000 ) ;
#188 = FACE_OUTER_BOUND ( 'NONE', #255, .T. ) ;
#189 = DIRECTION ( 'NONE',  ( 0.0000000000000000000, 0.0000000000000000000, -1.000000000000000000 ) ) ;
#190 = EDGE_CURVE ( 'NONE', #272, #211, #67, .T. ) ;
#191 = DIRECTION ( 'NONE',  ( 1.000000000000000000, 0.0000000000000000000, -0.0000000000000000000 ) ) ;
#192 = DIRECTION ( 'NONE',  ( 1.000000000000000000, 0.0000000000000000000, 0.0000000000000000000 ) ) ;
#193 = DIRECTION ( 'NONE',  ( 1.224646799147353454E-16, 0.0000000000000000000, 1.000000000000000000 ) ) ;
#194 = ORIENTED_EDGE ( 'NONE', *, *, #274, .F. ) ;
#195 = DIRECTION ( 'NONE',  ( -1.000000000000000000, 0.0000000000000000000, 0.0000000000000000000 ) ) ;
#196 = DIRECTION ( 'NONE',  ( -0.7071067811865531239, 0.0000000000000000000, -0.7071067811865419106 ) ) ;
#197 = SURFACE_STYLE_USAGE ( .BOTH. , #151 ) ;
#198 = PRODUCT_DEFINITION_FORMATION_WITH_SPECIFIED_SOURCE ( 'ANY', '', #41, .NOT_KNOWN. ) ;
#199 =( NAMED_UNIT ( * ) SI_UNIT ( $, .STERADIAN. ) SOLID_ANGLE_UNIT ( ) );
#200 = VERTEX_POINT ( 'NONE', #167 ) ;
#201 = UNCERTAINTY_MEASURE_WITH_UNIT (LENGTH_MEASURE( 1.000000000000000082E-05 ), #227, 'distance_accuracy_value', 'NONE');
#202 = EDGE_CURVE ( 'NONE', #244, #211, #10, .T. ) ;
#203 = DIRECTION ( 'NONE',  ( 1.000000000000000000, 0.0000000000000000000, -0.0000000000000000000 ) ) ;
#204 = AXIS2_PLACEMENT_3D ( 'NONE', #28, #15, #144 ) ;
#205 = ORIENTED_EDGE ( 'NONE', *, *, #190, .T. ) ;
#206 = DIRECTION ( 'NONE',  ( 1.000000000000000000, 0.0000000000000000000, 0.0000000000000000000 ) ) ;
#207 = CARTESIAN_POINT ( 'NONE',  ( 0.07875000000000061118, 9.644093543285480678E-18, 1.500000000000000222 ) ) ;
#208 = PRODUCT_DEFINITION ( 'UNKNOWN', '', #198, #251 ) ;
#209 = CARTESIAN_POINT ( 'NONE',  ( 0.0000000000000000000, 0.0000000000000000000, 1.500000000000000222 ) ) ;
#210 = PRESENTATION_LAYER_ASSIGNMENT (  '', '', ( #133 ) ) ;
#211 = VERTEX_POINT ( 'NONE', #92 ) ;
#212 = ORIENTED_EDGE ( 'NONE', *, *, #226, .F. ) ;
#213 = CYLINDRICAL_SURFACE ( 'NONE', #159, 0.07022970000000001989 ) ;
#214 = AXIS2_PLACEMENT_3D ( 'NONE', #112, #189, #135 ) ;
#215 = DIRECTION ( 'NONE',  ( -1.224646799147353454E-16, -0.0000000000000000000, -1.000000000000000000 ) ) ;
#216 = CARTESIAN_POINT ( 'NONE',  ( 4.695176422197739051E-17, 0.0000000000000000000, 0.3833902497819536292 ) ) ;
#217 = FACE_OUTER_BOUND ( 'NONE', #109, .T. ) ;
#218 = ORIENTED_EDGE ( 'NONE', *, *, #62, .F. ) ;
#219 = STYLED_ITEM ( 'NONE', ( #102 ), #101 ) ;
#220 = CARTESIAN_POINT ( 'NONE',  ( 0.07875000000000061118, 1.056257864264595965E-17, 1.500000000000000222 ) ) ;
#221 = ORIENTED_EDGE ( 'NONE', *, *, #271, .F. ) ;
#222 =( NAMED_UNIT ( * ) PLANE_ANGLE_UNIT ( ) SI_UNIT ( $, .RADIAN. ) );
#223 =( NAMED_UNIT ( * ) PLANE_ANGLE_UNIT ( ) SI_UNIT ( $, .RADIAN. ) );
#224 = CONICAL_SURFACE ( 'NONE', #21, 0.07022970000000000601, 0.1745329251994339470 ) ;
#225 = FILL_AREA_STYLE ('',( #126 ) ) ;
#226 = EDGE_CURVE ( 'NONE', #86, #211, #30, .T. ) ;
#227 =( CONVERSION_BASED_UNIT ( 'INCH', #269 ) LENGTH_UNIT ( ) NAMED_UNIT ( #187 ) );
#228 = CYLINDRICAL_SURFACE ( 'NONE', #149, 0.09375000000000001388 ) ;
#229 = DIRECTION ( 'NONE',  ( -1.000000000000000000, 0.0000000000000000000, 0.0000000000000000000 ) ) ;
#230 = ADVANCED_FACE ( 'NONE', ( #31 ), #47, .T. ) ;
#231 = DIRECTION ( 'NONE',  ( -1.000000000000000000, 0.0000000000000000000, 0.0000000000000000000 ) ) ;
#232 =( NAMED_UNIT ( * ) SI_UNIT ( $, .STERADIAN. ) SOLID_ANGLE_UNIT ( ) );
#233 = DIMENSIONAL_EXPONENTS ( 1.000000000000000000, 0.0000000000000000000, 0.0000000000000000000, 0.0000000000000000000, 0.0000000000000000000, 0.0000000000000000000, 0.0000000000000000000 ) ;
#234 = VERTEX_POINT ( 'NONE', #220 ) ;
#235 = MECHANICAL_DESIGN_GEOMETRIC_PRESENTATION_REPRESENTATION (  '', ( #219 ), #53 ) ;
#236 = DIRECTION ( 'NONE',  ( -1.000000000000000000, 0.0000000000000000000, 0.0000000000000000000 ) ) ;
#237 = DIRECTION ( 'NONE',  ( 0.0000000000000000000, 0.0000000000000000000, -1.000000000000000000 ) ) ;
#238 = CARTESIAN_POINT ( 'NONE',  ( 0.0000000000000000000, 0.0000000000000000000, 1.500000000000000222 ) ) ;
#239 = CIRCLE ( 'NONE', #110, 0.07022970000000001989 ) ;
#240 = LINE ( 'NONE', #114, #59 ) ;
#241 = DIRECTION ( 'NONE',  ( -1.224646799147353454E-16, -0.0000000000000000000, -1.000000000000000000 ) ) ;
#242 = EDGE_LOOP ( 'NONE', ( #156, #69, #100, #19 ) ) ;
#243 = DIRECTION ( 'NONE',  ( -1.224646799147353454E-16, -0.0000000000000000000, -1.000000000000000000 ) ) ;
#244 = VERTEX_POINT ( 'NONE', #119 ) ;
#245 =( CONVERSION_BASED_UNIT ( 'INCH', #296 ) LENGTH_UNIT ( ) NAMED_UNIT ( #233 ) );
#246 = ADVANCED_FACE ( 'NONE', ( #12 ), #224, .T. ) ;
#247 = SURFACE_STYLE_FILL_AREA ( #97 ) ;
#248 = COLOUR_RGB ( '',0.7921568627450980005, 0.8196078431372548767, 0.9333333333333333481 ) ;
#249 = ORIENTED_EDGE ( 'NONE', *, *, #36, .T. ) ;
#250 = ORIENTED_EDGE ( 'NONE', *, *, #17, .F. ) ;
#251 = PRODUCT_DEFINITION_CONTEXT ( 'detailed design', #182, 'design' ) ;
#252 = AXIS2_PLACEMENT_3D ( 'NONE', #183, #164, #229 ) ;
#253 = EDGE_LOOP ( 'NONE', ( #120, #270, #40, #205 ) ) ;
#254 = EDGE_CURVE ( 'NONE', #2, #86, #264, .T. ) ;
#255 = EDGE_LOOP ( 'NONE', ( #80, #249, #81, #212 ) ) ;
#256 = ORIENTED_EDGE ( 'NONE', *, *, #254, .F. ) ;
#257 = DIMENSIONAL_EXPONENTS ( 1.000000000000000000, 0.0000000000000000000, 0.0000000000000000000, 0.0000000000000000000, 0.0000000000000000000, 0.0000000000000000000, 0.0000000000000000000 ) ;
#258 = DIRECTION ( 'NONE',  ( -0.0000000000000000000, -0.0000000000000000000, -1.000000000000000000 ) ) ;
#259 = AXIS2_PLACEMENT_3D ( 'NONE', #70, #237, #116 ) ;
#260 = LINE ( 'NONE', #6, #142 ) ;
#261 = DIRECTION ( 'NONE',  ( -1.224646799147353454E-16, -0.0000000000000000000, -1.000000000000000000 ) ) ;
#262 = DIRECTION ( 'NONE',  ( -0.0000000000000000000, -0.0000000000000000000, -1.000000000000000000 ) ) ;
#263 = AXIS2_PLACEMENT_3D ( 'NONE', #108, #83, #113 ) ;
#264 = CIRCLE ( 'NONE', #259, 0.09375000000000001388 ) ;
#265 = ADVANCED_FACE ( 'NONE', ( #165 ), #213, .T. ) ;
#266 = FACE_OUTER_BOUND ( 'NONE', #95, .T. ) ;
#267 = DIRECTION ( 'NONE',  ( -1.224646799147353454E-16, -0.0000000000000000000, -1.000000000000000000 ) ) ;
#268 = EDGE_CURVE ( 'NONE', #273, #234, #127, .T. ) ;
#269 = LENGTH_MEASURE_WITH_UNIT ( LENGTH_MEASURE( 0.02539999999999999897 ), #155 );
#270 = ORIENTED_EDGE ( 'NONE', *, *, #134, .F. ) ;
#271 = EDGE_CURVE ( 'NONE', #244, #103, #240, .T. ) ;
#272 = VERTEX_POINT ( 'NONE', #34 ) ;
#273 = VERTEX_POINT ( 'NONE', #286 ) ;
#274 = EDGE_CURVE ( 'NONE', #273, #86, #96, .T. ) ;
#275 = ORIENTED_EDGE ( 'NONE', *, *, #268, .F. ) ;
#276 = CLOSED_SHELL ( 'NONE', ( #265, #285, #107, #89, #68, #166, #29, #246, #230, #292 ) ) ;
#277 = CARTESIAN_POINT ( 'NONE',  ( -0.07022970000000001989, 0.0000000000000000000, 1.720131546201578239E-17 ) ) ;
#278 = DIRECTION ( 'NONE',  ( 0.1736481776669314414, 0.0000000000000000000, 0.9848077530122077983 ) ) ;
#279 = EDGE_CURVE ( 'NONE', #211, #272, #115, .T. ) ;
#280 = DIRECTION ( 'NONE',  ( -0.0000000000000000000, -0.0000000000000000000, -1.000000000000000000 ) ) ;
#281 = VECTOR ( 'NONE', #280, 39.37007874015748143 ) ;
#282 = DIRECTION ( 'NONE',  ( -1.000000000000000000, 0.0000000000000000000, 0.0000000000000000000 ) ) ;
#283 = DIRECTION ( 'NONE',  ( -1.000000000000000000, 0.0000000000000000000, 1.224646799147353454E-16 ) ) ;
#284 = CARTESIAN_POINT ( 'NONE',  ( 3.061616997868383634E-17, 0.0000000000000000000, 0.2500000000000000000 ) ) ;
#285 = ADVANCED_FACE ( 'NONE', ( #74 ), #150, .T. ) ;
#286 = CARTESIAN_POINT ( 'NONE',  ( -0.07875000000000061118, 0.0000000000000000000, 1.500000000000000222 ) ) ;
#287 = CIRCLE ( 'NONE', #132, 0.07022970000000001989 ) ;
#288 = PRESENTATION_LAYER_ASSIGNMENT (  '', '', ( #219 ) ) ;
#289 = EDGE_LOOP ( 'NONE', ( #171, #146, #184, #250 ) ) ;
#290 = CARTESIAN_POINT ( 'NONE',  ( 0.0000000000000000000, 0.0000000000000000000, 0.0000000000000000000 ) ) ;
#291 = ORIENTED_EDGE ( 'NONE', *, *, #82, .T. ) ;
#292 = ADVANCED_FACE ( 'NONE', ( #266 ), #54, .F. ) ;
#293 = CARTESIAN_POINT ( 'NONE',  ( -0.09375000000000001388, 0.0000000000000000000, 1.500000000000000222 ) ) ;
#294 = MANIFOLD_SOLID_BREP ( 'Cut-Revolve1', #276 ) ;
#295 = CIRCLE ( 'NONE', #252, 0.07022970000000000601 ) ;
#296 = LENGTH_MEASURE_WITH_UNIT ( LENGTH_MEASURE( 0.02539999999999999897 ), #98 );
#297 = SURFACE_STYLE_FILL_AREA ( #225 ) ;
#298 = EDGE_LOOP ( 'NONE', ( #75, #275, #58, #256 ) ) ;
#299 = ORIENTED_EDGE ( 'NONE', *, *, #123, .T. ) ;
ENDSEC;
END-ISO-10303-21;
