ISO-10303-21;
HEADER;
FILE_DESCRIPTION (( 'STEP AP214' ),
    '1' );
FILE_NAME ('83372.STEP',
    '2023-06-30T23:10:12',
    ( '' ),
    ( '' ),
    'SwSTEP 2.0',
    'SolidWorks 2023',
    '' );
FILE_SCHEMA (( 'AUTOMOTIVE_DESIGN' ));
ENDSEC;

DATA;
#1 = LINE ( 'NONE', #318, #53 ) ;
#2 = VERTEX_POINT ( 'NONE', #312 ) ;
#3 = EDGE_CURVE ( 'NONE', #233, #308, #227, .T. ) ;
#4 =( NAMED_UNIT ( * ) SI_UNIT ( $, .STERADIAN. ) SOLID_ANGLE_UNIT ( ) );
#5 = CIRCLE ( 'NONE', #305, 0.3749999999999999445 ) ;
#6 = CIRCLE ( 'NONE', #144, 0.3750000000000000555 ) ;
#7 = APPLICATION_PROTOCOL_DEFINITION ( 'draft international standard', 'automotive_design', 1998, #188 ) ;
#8 = DIMENSIONAL_EXPONENTS ( 1.000000000000000000, 0.000000000000000000, 0.000000000000000000, 0.000000000000000000, 0.000000000000000000, 0.000000000000000000, 0.000000000000000000 ) ;
#9 = DIRECTION ( 'NONE',  ( 1.000000000000000000, 1.223582072328815731E-16, 0.000000000000000000 ) ) ;
#10 = ADVANCED_FACE ( 'NONE', ( #241 ), #159, .T. ) ;
#11 = DIRECTION ( 'NONE',  ( -0.000000000000000000, -1.000000000000000000, -0.000000000000000000 ) ) ;
#12 =( LENGTH_UNIT ( ) NAMED_UNIT ( * ) SI_UNIT ( $, .METRE. ) );
#13 = COLOUR_RGB ( '',0.7921568627450980005, 0.8196078431372548767, 0.9333333333333333481 ) ;
#14 = DIRECTION ( 'NONE',  ( -1.000000000000000000, 0.000000000000000000, 0.000000000000000000 ) ) ;
#15 =( GEOMETRIC_REPRESENTATION_CONTEXT ( 3 ) GLOBAL_UNCERTAINTY_ASSIGNED_CONTEXT ( ( #49 ) ) GLOBAL_UNIT_ASSIGNED_CONTEXT ( ( #18, #271, #368 ) ) REPRESENTATION_CONTEXT ( 'NONE', 'WORKASPACE' ) );
#16 = EDGE_CURVE ( 'NONE', #146, #86, #88, .T. ) ;
#17 = STYLED_ITEM ( 'NONE', ( #28 ), #82 ) ;
#18 =( CONVERSION_BASED_UNIT ( 'INCH', #177 ) LENGTH_UNIT ( ) NAMED_UNIT ( #202 ) );
#19 =( GEOMETRIC_REPRESENTATION_CONTEXT ( 3 ) GLOBAL_UNCERTAINTY_ASSIGNED_CONTEXT ( ( #349 ) ) GLOBAL_UNIT_ASSIGNED_CONTEXT ( ( #303, #361, #94 ) ) REPRESENTATION_CONTEXT ( 'NONE', 'WORKASPACE' ) );
#20 = PRESENTATION_STYLE_ASSIGNMENT (( #181 ) ) ;
#21 = ORIENTED_EDGE ( 'NONE', *, *, #288, .T. ) ;
#22 = AXIS2_PLACEMENT_3D ( 'NONE', #273, #104, #173 ) ;
#23 = ORIENTED_EDGE ( 'NONE', *, *, #214, .F. ) ;
#24 = DIRECTION ( 'NONE',  ( -0.000000000000000000, -1.000000000000000000, -0.000000000000000000 ) ) ;
#25 = CIRCLE ( 'NONE', #105, 0.3749999999999997780 ) ;
#26 = PRODUCT_DEFINITION ( 'UNKNOWN', '', #315, #269 ) ;
#27 = CYLINDRICAL_SURFACE ( 'NONE', #117, 0.3749999999999998335 ) ;
#28 = PRESENTATION_STYLE_ASSIGNMENT (( #235 ) ) ;
#29 = DIRECTION ( 'NONE',  ( 0.000000000000000000, 0.000000000000000000, -1.000000000000000000 ) ) ;
#30 = DIRECTION ( 'NONE',  ( -1.223582072328815731E-16, 1.000000000000000000, -0.000000000000000000 ) ) ;
#31 = AXIS2_PLACEMENT_3D ( 'NONE', #99, #297, #324 ) ;
#32 = EDGE_CURVE ( 'NONE', #79, #146, #5, .T. ) ;
#33 = AXIS2_PLACEMENT_3D ( 'NONE', #35, #246, #171 ) ;
#34 = LENGTH_MEASURE_WITH_UNIT ( LENGTH_MEASURE( 0.02539999999999999897 ), #119 );
#35 = CARTESIAN_POINT ( 'NONE',  ( -4.592425496802575451E-17, 0.3750000000000000555, 0.000000000000000000 ) ) ;
#36 =( LENGTH_UNIT ( ) NAMED_UNIT ( * ) SI_UNIT ( $, .METRE. ) );
#37 = DIMENSIONAL_EXPONENTS ( 1.000000000000000000, 0.000000000000000000, 0.000000000000000000, 0.000000000000000000, 0.000000000000000000, 0.000000000000000000, 0.000000000000000000 ) ;
#38 = CARTESIAN_POINT ( 'NONE',  ( -0.3750000000000000555, 0.3750000000000001110, 4.592425496802574219E-17 ) ) ;
#39 = DIRECTION ( 'NONE',  ( 0.000000000000000000, 0.000000000000000000, -1.000000000000000000 ) ) ;
#40 = CARTESIAN_POINT ( 'NONE',  ( 0.000000000000000000, 0.000000000000000000, -0.3749999999999998335 ) ) ;
#41 = STYLED_ITEM ( 'NONE', ( #259 ), #198 ) ;
#42 =( NAMED_UNIT ( * ) PLANE_ANGLE_UNIT ( ) SI_UNIT ( $, .RADIAN. ) );
#43 = DIRECTION ( 'NONE',  ( -0.000000000000000000, -1.000000000000000000, -0.000000000000000000 ) ) ;
#44 = DIRECTION ( 'NONE',  ( -0.000000000000000000, -1.000000000000000000, -0.000000000000000000 ) ) ;
#45 =( GEOMETRIC_REPRESENTATION_CONTEXT ( 3 ) GLOBAL_UNCERTAINTY_ASSIGNED_CONTEXT ( ( #184 ) ) GLOBAL_UNIT_ASSIGNED_CONTEXT ( ( #348, #311, #129 ) ) REPRESENTATION_CONTEXT ( 'NONE', 'WORKASPACE' ) );
#46 = DIRECTION ( 'NONE',  ( 0.000000000000000000, 0.000000000000000000, -1.000000000000000000 ) ) ;
#47 = PRESENTATION_LAYER_ASSIGNMENT (  '', '', ( #41 ) ) ;
#48 = ORIENTED_EDGE ( 'NONE', *, *, #369, .F. ) ;
#49 = UNCERTAINTY_MEASURE_WITH_UNIT (LENGTH_MEASURE( 1.000000000000000082E-05 ), #18, 'distance_accuracy_value', 'NONE');
#50 = ORIENTED_EDGE ( 'NONE', *, *, #214, .T. ) ;
#51 = EDGE_CURVE ( 'NONE', #308, #233, #25, .T. ) ;
#52 = ORIENTED_EDGE ( 'NONE', *, *, #343, .F. ) ;
#53 = VECTOR ( 'NONE', #24, 39.37007874015748143 ) ;
#54 = ADVANCED_FACE ( 'NONE', ( #370 ), #232, .T. ) ;
#55 = ORIENTED_EDGE ( 'NONE', *, *, #335, .F. ) ;
#56 = STYLED_ITEM ( 'NONE', ( #323 ), #85 ) ;
#57 = CIRCLE ( 'NONE', #81, 0.3750000000000000555 ) ;
#58 = UNCERTAINTY_MEASURE_WITH_UNIT (LENGTH_MEASURE( 1.000000000000000082E-05 ), #220, 'distance_accuracy_value', 'NONE');
#59 = PRESENTATION_STYLE_ASSIGNMENT (( #266 ) ) ;
#60 = DIRECTION ( 'NONE',  ( -1.000000000000000000, 0.000000000000000000, 0.000000000000000000 ) ) ;
#61 = AXIS2_PLACEMENT_3D ( 'NONE', #268, #359, #168 ) ;
#62 = DIRECTION ( 'NONE',  ( 0.000000000000000000, 0.000000000000000000, 1.000000000000000000 ) ) ;
#63 = CARTESIAN_POINT ( 'NONE',  ( 0.000000000000000000, 2.250000000000000000, -0.3749999999999997780 ) ) ;
#64 = FILL_AREA_STYLE_COLOUR ( '', #353 ) ;
#65 = DIRECTION ( 'NONE',  ( 1.000000000000000000, 0.000000000000000000, 0.000000000000000000 ) ) ;
#66 = FACE_OUTER_BOUND ( 'NONE', #78, .T. ) ;
#67 = EDGE_LOOP ( 'NONE', ( #204, #226 ) ) ;
#68 = CARTESIAN_POINT ( 'NONE',  ( -4.592425496802575451E-17, 0.3750000000000000555, 0.000000000000000000 ) ) ;
#69 = DIRECTION ( 'NONE',  ( -1.223582072328815731E-16, 1.000000000000000000, -0.000000000000000000 ) ) ;
#70 =( NAMED_UNIT ( * ) SI_UNIT ( $, .STERADIAN. ) SOLID_ANGLE_UNIT ( ) );
#71 = AXIS2_PLACEMENT_3D ( 'NONE', #152, #334, #46 ) ;
#72 = SURFACE_SIDE_STYLE ('',( #130 ) ) ;
#73 =( CONVERSION_BASED_UNIT ( 'INCH', #362 ) LENGTH_UNIT ( ) NAMED_UNIT ( #285 ) );
#74 = SURFACE_SIDE_STYLE ('',( #77 ) ) ;
#75 = PRESENTATION_LAYER_ASSIGNMENT (  '', '', ( #17 ) ) ;
#76 = PRESENTATION_LAYER_ASSIGNMENT (  '', '', ( #154 ) ) ;
#77 = SURFACE_STYLE_FILL_AREA ( #340 ) ;
#78 = EDGE_LOOP ( 'NONE', ( #122, #118, #126, #151 ) ) ;
#79 = VERTEX_POINT ( 'NONE', #243 ) ;
#80 =( GEOMETRIC_REPRESENTATION_CONTEXT ( 3 ) GLOBAL_UNCERTAINTY_ASSIGNED_CONTEXT ( ( #89 ) ) GLOBAL_UNIT_ASSIGNED_CONTEXT ( ( #225, #279, #4 ) ) REPRESENTATION_CONTEXT ( 'NONE', 'WORKASPACE' ) );
#81 = AXIS2_PLACEMENT_3D ( 'NONE', #294, #304, #342 ) ;
#82 = MANIFOLD_SOLID_BREP ( 'Revolve - Tool Body (Straight Shanked)', #222 ) ;
#83 = FACE_OUTER_BOUND ( 'NONE', #67, .T. ) ;
#84 = ORIENTED_EDGE ( 'NONE', *, *, #138, .F. ) ;
#85 = MANIFOLD_SOLID_BREP ( 'Revolve - Cutting Edge', #106 ) ;
#86 = VERTEX_POINT ( 'NONE', #38 ) ;
#87 = DIRECTION ( 'NONE',  ( 0.000000000000000000, 0.000000000000000000, -1.000000000000000000 ) ) ;
#88 = CIRCLE ( 'NONE', #127, 0.3749999999999999445 ) ;
#89 = UNCERTAINTY_MEASURE_WITH_UNIT (LENGTH_MEASURE( 1.000000000000000082E-05 ), #225, 'distance_accuracy_value', 'NONE');
#90 = ORIENTED_EDGE ( 'NONE', *, *, #132, .F. ) ;
#91 =( NAMED_UNIT ( * ) PLANE_ANGLE_UNIT ( ) SI_UNIT ( $, .RADIAN. ) );
#92 = CYLINDRICAL_SURFACE ( 'NONE', #161, 0.3749999999999998335 ) ;
#93 = SURFACE_STYLE_FILL_AREA ( #356 ) ;
#94 =( NAMED_UNIT ( * ) SI_UNIT ( $, .STERADIAN. ) SOLID_ANGLE_UNIT ( ) );
#95 =( NAMED_UNIT ( * ) SI_UNIT ( $, .STERADIAN. ) SOLID_ANGLE_UNIT ( ) );
#96 = SURFACE_STYLE_USAGE ( .BOTH. , #72 ) ;
#97 = STYLED_ITEM ( 'NONE', ( #363 ), #121 ) ;
#98 =( NAMED_UNIT ( * ) SI_UNIT ( $, .STERADIAN. ) SOLID_ANGLE_UNIT ( ) );
#99 = CARTESIAN_POINT ( 'NONE',  ( 0.000000000000000000, 2.250000000000000000, 0.000000000000000000 ) ) ;
#100 = EDGE_CURVE ( 'NONE', #296, #280, #313, .T. ) ;
#101 = FACE_OUTER_BOUND ( 'NONE', #211, .T. ) ;
#102 = DIRECTION ( 'NONE',  ( 0.000000000000000000, 0.000000000000000000, -1.000000000000000000 ) ) ;
#103 = DIRECTION ( 'NONE',  ( 1.000000000000000000, 0.000000000000000000, 0.000000000000000000 ) ) ;
#104 = DIRECTION ( 'NONE',  ( -0.000000000000000000, -1.000000000000000000, -0.000000000000000000 ) ) ;
#105 = AXIS2_PLACEMENT_3D ( 'NONE', #142, #169, #102 ) ;
#106 = CLOSED_SHELL ( 'NONE', ( #314, #54, #10, #198, #121 ) ) ;
#107 = PRESENTATION_STYLE_ASSIGNMENT (( #167 ) ) ;
#108 = ADVANCED_BREP_SHAPE_REPRESENTATION ( '83372', ( #85, #82, #156 ), #367 ) ;
#109 = LENGTH_MEASURE_WITH_UNIT ( LENGTH_MEASURE( 0.02539999999999999897 ), #111 );
#110 = LENGTH_MEASURE_WITH_UNIT ( LENGTH_MEASURE( 0.02539999999999999897 ), #255 );
#111 =( LENGTH_UNIT ( ) NAMED_UNIT ( * ) SI_UNIT ( $, .METRE. ) );
#112 = AXIS2_PLACEMENT_3D ( 'NONE', #270, #194, #14 ) ;
#113 = EDGE_CURVE ( 'NONE', #185, #296, #137, .T. ) ;
#114 = ORIENTED_EDGE ( 'NONE', *, *, #51, .F. ) ;
#115 = SURFACE_SIDE_STYLE ('',( #282 ) ) ;
#116 = MECHANICAL_DESIGN_GEOMETRIC_PRESENTATION_REPRESENTATION (  '', ( #179 ), #80 ) ;
#117 = AXIS2_PLACEMENT_3D ( 'NONE', #290, #11, #87 ) ;
#118 = ORIENTED_EDGE ( 'NONE', *, *, #335, .T. ) ;
#119 =( LENGTH_UNIT ( ) NAMED_UNIT ( * ) SI_UNIT ( $, .METRE. ) );
#120 = LENGTH_MEASURE_WITH_UNIT ( LENGTH_MEASURE( 0.02539999999999999897 ), #345 );
#121 = ADVANCED_FACE ( 'NONE', ( #101 ), #330, .T. ) ;
#122 = ORIENTED_EDGE ( 'NONE', *, *, #16, .T. ) ;
#123 = DIRECTION ( 'NONE',  ( -1.223582072328815731E-16, 1.000000000000000000, -0.000000000000000000 ) ) ;
#124 = FILL_AREA_STYLE ('',( #316 ) ) ;
#125 = ADVANCED_FACE ( 'NONE', ( #329 ), #166, .T. ) ;
#126 = ORIENTED_EDGE ( 'NONE', *, *, #288, .F. ) ;
#127 = AXIS2_PLACEMENT_3D ( 'NONE', #190, #44, #39 ) ;
#128 = CIRCLE ( 'NONE', #193, 0.3749999999999996114 ) ;
#129 =( NAMED_UNIT ( * ) SI_UNIT ( $, .STERADIAN. ) SOLID_ANGLE_UNIT ( ) );
#130 = SURFACE_STYLE_FILL_AREA ( #247 ) ;
#131 =( NAMED_UNIT ( * ) PLANE_ANGLE_UNIT ( ) SI_UNIT ( $, .RADIAN. ) );
#132 = EDGE_CURVE ( 'NONE', #244, #280, #299, .T. ) ;
#133 = ORIENTED_EDGE ( 'NONE', *, *, #51, .T. ) ;
#134 = VECTOR ( 'NONE', #135, 39.37007874015748143 ) ;
#135 = DIRECTION ( 'NONE',  ( -1.223582072328815731E-16, 1.000000000000000000, -0.000000000000000000 ) ) ;
#136 = SPHERICAL_SURFACE ( 'NONE', #228, 0.3750000000000000555 ) ;
#137 = LINE ( 'NONE', #250, #283 ) ;
#138 = EDGE_CURVE ( 'NONE', #308, #2, #249, .T. ) ;
#139 = DIRECTION ( 'NONE',  ( -1.000000000000000000, -1.223582072328815731E-16, 0.000000000000000000 ) ) ;
#140 = SURFACE_SIDE_STYLE ('',( #275 ) ) ;
#141 = CARTESIAN_POINT ( 'NONE',  ( -2.296212748401287726E-17, 0.000000000000000000, 0.000000000000000000 ) ) ;
#142 = CARTESIAN_POINT ( 'NONE',  ( 0.000000000000000000, 2.250000000000000000, 0.000000000000000000 ) ) ;
#143 = EDGE_LOOP ( 'NONE', ( #199, #23 ) ) ;
#144 = AXIS2_PLACEMENT_3D ( 'NONE', #206, #30, #205 ) ;
#145 = EDGE_CURVE ( 'NONE', #86, #2, #272, .T. ) ;
#146 = VERTEX_POINT ( 'NONE', #276 ) ;
#147 = PRESENTATION_LAYER_ASSIGNMENT (  '', '', ( #179 ) ) ;
#148 = COLOUR_RGB ( '',1.000000000000000000, 0.000000000000000000, 0.000000000000000000 ) ;
#149 = ORIENTED_EDGE ( 'NONE', *, *, #352, .F. ) ;
#150 = FILL_AREA_STYLE_COLOUR ( '', #298 ) ;
#151 = ORIENTED_EDGE ( 'NONE', *, *, #32, .T. ) ;
#152 = CARTESIAN_POINT ( 'NONE',  ( 0.000000000000000000, 0.3750000000000001110, 0.000000000000000000 ) ) ;
#153 = VERTEX_POINT ( 'NONE', #141 ) ;
#154 = STYLED_ITEM ( 'NONE', ( #107 ), #314 ) ;
#155 = ORIENTED_EDGE ( 'NONE', *, *, #138, .T. ) ;
#156 = AXIS2_PLACEMENT_3D ( 'NONE', #242, #212, #103 ) ;
#157 =( CONVERSION_BASED_UNIT ( 'INCH', #34 ) LENGTH_UNIT ( ) NAMED_UNIT ( #8 ) );
#158 = CARTESIAN_POINT ( 'NONE',  ( 1.527880500183213141E-16, 2.250000000000000444, 0.000000000000000000 ) ) ;
#159 = PLANE ( 'NONE',  #31 ) ;
#160 =( CONVERSION_BASED_UNIT ( 'INCH', #163 ) LENGTH_UNIT ( ) NAMED_UNIT ( #237 ) );
#161 = AXIS2_PLACEMENT_3D ( 'NONE', #365, #176, #215 ) ;
#162 = PRESENTATION_LAYER_ASSIGNMENT (  '', '', ( #97 ) ) ;
#163 = LENGTH_MEASURE_WITH_UNIT ( LENGTH_MEASURE( 0.02539999999999999897 ), #36 );
#164 = ADVANCED_FACE ( 'NONE', ( #252 ), #92, .T. ) ;
#165 = FILL_AREA_STYLE ('',( #195 ) ) ;
#166 = CYLINDRICAL_SURFACE ( 'NONE', #112, 0.3749999999999998335 ) ;
#167 = SURFACE_STYLE_USAGE ( .BOTH. , #366 ) ;
#168 = DIRECTION ( 'NONE',  ( -1.000000000000000000, 0.000000000000000000, 0.000000000000000000 ) ) ;
#169 = DIRECTION ( 'NONE',  ( -0.000000000000000000, -1.000000000000000000, -0.000000000000000000 ) ) ;
#170 = DIRECTION ( 'NONE',  ( -0.000000000000000000, -1.000000000000000000, -0.000000000000000000 ) ) ;
#171 = DIRECTION ( 'NONE',  ( -1.000000000000000000, 0.000000000000000000, 0.000000000000000000 ) ) ;
#172 = FILL_AREA_STYLE ('',( #191 ) ) ;
#173 = DIRECTION ( 'NONE',  ( 0.000000000000000000, 0.000000000000000000, -1.000000000000000000 ) ) ;
#174 = DIRECTION ( 'NONE',  ( 0.000000000000000000, 0.000000000000000000, -1.000000000000000000 ) ) ;
#175 = PRODUCT_DEFINITION_SHAPE ( 'NONE', 'NONE',  #26 ) ;
#176 = DIRECTION ( 'NONE',  ( -1.223582072328815731E-16, 1.000000000000000000, -0.000000000000000000 ) ) ;
#177 = LENGTH_MEASURE_WITH_UNIT ( LENGTH_MEASURE( 0.02539999999999999897 ), #12 );
#178 = ORIENTED_EDGE ( 'NONE', *, *, #3, .T. ) ;
#179 = STYLED_ITEM ( 'NONE', ( #20 ), #54 ) ;
#180 = CIRCLE ( 'NONE', #33, 0.3750000000000000555 ) ;
#181 = SURFACE_STYLE_USAGE ( .BOTH. , #74 ) ;
#182 = ORIENTED_EDGE ( 'NONE', *, *, #369, .T. ) ;
#183 = AXIS2_PLACEMENT_3D ( 'NONE', #216, #62, #65 ) ;
#184 = UNCERTAINTY_MEASURE_WITH_UNIT (LENGTH_MEASURE( 1.000000000000000082E-05 ), #348, 'distance_accuracy_value', 'NONE');
#185 = VERTEX_POINT ( 'NONE', #230 ) ;
#186 = DIRECTION ( 'NONE',  ( -1.223582072328815731E-16, 1.000000000000000000, -0.000000000000000000 ) ) ;
#187 = ORIENTED_EDGE ( 'NONE', *, *, #267, .T. ) ;
#188 = APPLICATION_CONTEXT ( 'automotive_design' ) ;
#189 = AXIS2_PLACEMENT_3D ( 'NONE', #209, #264, #354 ) ;
#190 = CARTESIAN_POINT ( 'NONE',  ( 0.000000000000000000, 0.3750000000000001110, 0.000000000000000000 ) ) ;
#191 = FILL_AREA_STYLE_COLOUR ( '', #148 ) ;
#192 = MECHANICAL_DESIGN_GEOMETRIC_PRESENTATION_REPRESENTATION (  '', ( #17 ), #45 ) ;
#193 = AXIS2_PLACEMENT_3D ( 'NONE', #158, #123, #263 ) ;
#194 = DIRECTION ( 'NONE',  ( -1.223582072328815731E-16, 1.000000000000000000, -0.000000000000000000 ) ) ;
#195 = FILL_AREA_STYLE_COLOUR ( '', #248 ) ;
#196 = EDGE_LOOP ( 'NONE', ( #114, #341 ) ) ;
#197 =( GEOMETRIC_REPRESENTATION_CONTEXT ( 3 ) GLOBAL_UNCERTAINTY_ASSIGNED_CONTEXT ( ( #239 ) ) GLOBAL_UNIT_ASSIGNED_CONTEXT ( ( #160, #131, #70 ) ) REPRESENTATION_CONTEXT ( 'NONE', 'WORKASPACE' ) );
#198 = ADVANCED_FACE ( 'NONE', ( #371 ), #27, .T. ) ;
#199 = ORIENTED_EDGE ( 'NONE', *, *, #267, .F. ) ;
#200 = DIRECTION ( 'NONE',  ( 1.000000000000000000, 0.000000000000000000, 0.000000000000000000 ) ) ;
#201 = MECHANICAL_DESIGN_GEOMETRIC_PRESENTATION_REPRESENTATION (  '', ( #56 ), #260 ) ;
#202 = DIMENSIONAL_EXPONENTS ( 1.000000000000000000, 0.000000000000000000, 0.000000000000000000, 0.000000000000000000, 0.000000000000000000, 0.000000000000000000, 0.000000000000000000 ) ;
#203 = PLANE ( 'NONE',  #223 ) ;
#204 = ORIENTED_EDGE ( 'NONE', *, *, #352, .T. ) ;
#205 = DIRECTION ( 'NONE',  ( -1.000000000000000000, 0.000000000000000000, 0.000000000000000000 ) ) ;
#206 = CARTESIAN_POINT ( 'NONE',  ( -1.836970198721029688E-16, 5.000000000000000000, 0.000000000000000000 ) ) ;
#207 = CARTESIAN_POINT ( 'NONE',  ( 4.592425496802571754E-17, 2.250000000000000000, 0.3749999999999997780 ) ) ;
#208 = MECHANICAL_DESIGN_GEOMETRIC_PRESENTATION_REPRESENTATION (  '', ( #97 ), #19 ) ;
#209 = CARTESIAN_POINT ( 'NONE',  ( 0.000000000000000000, 0.000000000000000000, 0.000000000000000000 ) ) ;
#210 = CARTESIAN_POINT ( 'NONE',  ( 1.527880500183213141E-16, 2.250000000000000444, 0.000000000000000000 ) ) ;
#211 = EDGE_LOOP ( 'NONE', ( #55, #337, #306, #21 ) ) ;
#212 = DIRECTION ( 'NONE',  ( 0.000000000000000000, 0.000000000000000000, 1.000000000000000000 ) ) ;
#213 = SURFACE_SIDE_STYLE ('',( #93 ) ) ;
#214 = EDGE_CURVE ( 'NONE', #185, #244, #128, .T. ) ;
#215 = DIRECTION ( 'NONE',  ( -1.000000000000000000, 0.000000000000000000, 0.000000000000000000 ) ) ;
#216 = CARTESIAN_POINT ( 'NONE',  ( -4.592425496802575451E-17, 0.3750000000000000555, 0.000000000000000000 ) ) ;
#217 = AXIS2_PLACEMENT_3D ( 'NONE', #328, #274, #139 ) ;
#218 = FACE_OUTER_BOUND ( 'NONE', #143, .T. ) ;
#219 = PRODUCT_CONTEXT ( 'NONE', #188, 'mechanical' ) ;
#220 =( CONVERSION_BASED_UNIT ( 'INCH', #221 ) LENGTH_UNIT ( ) NAMED_UNIT ( #265 ) );
#221 = LENGTH_MEASURE_WITH_UNIT ( LENGTH_MEASURE( 0.02539999999999999897 ), #292 );
#222 = CLOSED_SHELL ( 'NONE', ( #164, #302, #125, #364 ) ) ;
#223 = AXIS2_PLACEMENT_3D ( 'NONE', #307, #310, #9 ) ;
#224 = PRODUCT ( '83372', '83372', '', ( #219 ) ) ;
#225 =( CONVERSION_BASED_UNIT ( 'INCH', #110 ) LENGTH_UNIT ( ) NAMED_UNIT ( #355 ) );
#226 = ORIENTED_EDGE ( 'NONE', *, *, #100, .T. ) ;
#227 = CIRCLE ( 'NONE', #336, 0.3749999999999997780 ) ;
#228 = AXIS2_PLACEMENT_3D ( 'NONE', #68, #339, #200 ) ;
#229 = UNCERTAINTY_MEASURE_WITH_UNIT (LENGTH_MEASURE( 1.000000000000000082E-05 ), #73, 'distance_accuracy_value', 'NONE');
#230 = CARTESIAN_POINT ( 'NONE',  ( 0.3749999999999997780, 2.250000000000000444, 4.592425496802572986E-17 ) ) ;
#231 = PRODUCT_RELATED_PRODUCT_CATEGORY ( 'part', '', ( #224 ) ) ;
#232 = CYLINDRICAL_SURFACE ( 'NONE', #189, 0.3749999999999998335 ) ;
#233 = VERTEX_POINT ( 'NONE', #207 ) ;
#234 =( NAMED_UNIT ( * ) SI_UNIT ( $, .STERADIAN. ) SOLID_ANGLE_UNIT ( ) );
#235 = SURFACE_STYLE_USAGE ( .BOTH. , #213 ) ;
#236 = ORIENTED_EDGE ( 'NONE', *, *, #113, .T. ) ;
#237 = DIMENSIONAL_EXPONENTS ( 1.000000000000000000, 0.000000000000000000, 0.000000000000000000, 0.000000000000000000, 0.000000000000000000, 0.000000000000000000, 0.000000000000000000 ) ;
#238 = CARTESIAN_POINT ( 'NONE',  ( -0.3749999999999995004, 2.250000000000000444, 0.000000000000000000 ) ) ;
#239 = UNCERTAINTY_MEASURE_WITH_UNIT (LENGTH_MEASURE( 1.000000000000000082E-05 ), #160, 'distance_accuracy_value', 'NONE');
#240 = CIRCLE ( 'NONE', #71, 0.3749999999999999445 ) ;
#241 = FACE_OUTER_BOUND ( 'NONE', #196, .T. ) ;
#242 = CARTESIAN_POINT ( 'NONE',  ( 0.000000000000000000, 0.000000000000000000, 0.000000000000000000 ) ) ;
#243 = CARTESIAN_POINT ( 'NONE',  ( 0.3749999999999999445, 0.3750000000000001110, 0.000000000000000000 ) ) ;
#244 = VERTEX_POINT ( 'NONE', #238 ) ;
#245 = APPLICATION_PROTOCOL_DEFINITION ( 'draft international standard', 'automotive_design', 1998, #347 ) ;
#246 = DIRECTION ( 'NONE',  ( 0.000000000000000000, 0.000000000000000000, -1.000000000000000000 ) ) ;
#247 = FILL_AREA_STYLE ('',( #295 ) ) ;
#248 = COLOUR_RGB ( '',1.000000000000000000, 0.000000000000000000, 0.000000000000000000 ) ;
#249 = LINE ( 'NONE', #40, #254 ) ;
#250 = CARTESIAN_POINT ( 'NONE',  ( 0.3749999999999996114, 5.000000000000000000, 4.592425496802572370E-17 ) ) ;
#251 = SURFACE_STYLE_USAGE ( .BOTH. , #140 ) ;
#252 = FACE_OUTER_BOUND ( 'NONE', #317, .T. ) ;
#253 = ORIENTED_EDGE ( 'NONE', *, *, #132, .T. ) ;
#254 = VECTOR ( 'NONE', #170, 39.37007874015748143 ) ;
#255 =( LENGTH_UNIT ( ) NAMED_UNIT ( * ) SI_UNIT ( $, .METRE. ) );
#256 = COLOUR_RGB ( '',1.000000000000000000, 0.000000000000000000, 0.000000000000000000 ) ;
#257 =( GEOMETRIC_REPRESENTATION_CONTEXT ( 3 ) GLOBAL_UNCERTAINTY_ASSIGNED_CONTEXT ( ( #229 ) ) GLOBAL_UNIT_ASSIGNED_CONTEXT ( ( #73, #332, #95 ) ) REPRESENTATION_CONTEXT ( 'NONE', 'WORKASPACE' ) );
#258 = UNCERTAINTY_MEASURE_WITH_UNIT (LENGTH_MEASURE( 1.000000000000000082E-05 ), #157, 'distance_accuracy_value', 'NONE');
#259 = PRESENTATION_STYLE_ASSIGNMENT (( #309 ) ) ;
#260 =( GEOMETRIC_REPRESENTATION_CONTEXT ( 3 ) GLOBAL_UNCERTAINTY_ASSIGNED_CONTEXT ( ( #58 ) ) GLOBAL_UNIT_ASSIGNED_CONTEXT ( ( #220, #42, #98 ) ) REPRESENTATION_CONTEXT ( 'NONE', 'WORKASPACE' ) );
#261 = ORIENTED_EDGE ( 'NONE', *, *, #113, .F. ) ;
#262 = DIMENSIONAL_EXPONENTS ( 1.000000000000000000, 0.000000000000000000, 0.000000000000000000, 0.000000000000000000, 0.000000000000000000, 0.000000000000000000, 0.000000000000000000 ) ;
#263 = DIRECTION ( 'NONE',  ( -1.000000000000000000, 0.000000000000000000, 0.000000000000000000 ) ) ;
#264 = DIRECTION ( 'NONE',  ( -0.000000000000000000, -1.000000000000000000, -0.000000000000000000 ) ) ;
#265 = DIMENSIONAL_EXPONENTS ( 1.000000000000000000, 0.000000000000000000, 0.000000000000000000, 0.000000000000000000, 0.000000000000000000, 0.000000000000000000, 0.000000000000000000 ) ;
#266 = SURFACE_STYLE_USAGE ( .BOTH. , #320 ) ;
#267 = EDGE_CURVE ( 'NONE', #244, #185, #301, .T. ) ;
#268 = CARTESIAN_POINT ( 'NONE',  ( -1.836970198721029688E-16, 5.000000000000000000, 0.000000000000000000 ) ) ;
#269 = PRODUCT_DEFINITION_CONTEXT ( 'detailed design', #347, 'design' ) ;
#270 = CARTESIAN_POINT ( 'NONE',  ( -1.836970198721029688E-16, 5.000000000000000000, 0.000000000000000000 ) ) ;
#271 =( NAMED_UNIT ( * ) PLANE_ANGLE_UNIT ( ) SI_UNIT ( $, .RADIAN. ) );
#272 = CIRCLE ( 'NONE', #22, 0.3749999999999999445 ) ;
#273 = CARTESIAN_POINT ( 'NONE',  ( 0.000000000000000000, 0.3750000000000001110, 0.000000000000000000 ) ) ;
#274 = DIRECTION ( 'NONE',  ( -1.223582072328815731E-16, 1.000000000000000000, 0.000000000000000000 ) ) ;
#275 = SURFACE_STYLE_FILL_AREA ( #172 ) ;
#276 = CARTESIAN_POINT ( 'NONE',  ( 4.592425496802574219E-17, 0.3750000000000001110, 0.3749999999999999445 ) ) ;
#277 = PLANE ( 'NONE',  #217 ) ;
#278 = EDGE_LOOP ( 'NONE', ( #133, #182, #300, #52, #84 ) ) ;
#279 =( NAMED_UNIT ( * ) PLANE_ANGLE_UNIT ( ) SI_UNIT ( $, .RADIAN. ) );
#280 = VERTEX_POINT ( 'NONE', #319 ) ;
#281 = MECHANICAL_DESIGN_GEOMETRIC_PRESENTATION_REPRESENTATION (  '', ( #344 ), #197 ) ;
#282 = SURFACE_STYLE_FILL_AREA ( #293 ) ;
#283 = VECTOR ( 'NONE', #69, 39.37007874015748143 ) ;
#284 = DIRECTION ( 'NONE',  ( -0.000000000000000000, -1.000000000000000000, -0.000000000000000000 ) ) ;
#285 = DIMENSIONAL_EXPONENTS ( 1.000000000000000000, 0.000000000000000000, 0.000000000000000000, 0.000000000000000000, 0.000000000000000000, 0.000000000000000000, 0.000000000000000000 ) ;
#286 = ORIENTED_EDGE ( 'NONE', *, *, #16, .F. ) ;
#287 = FILL_AREA_STYLE_COLOUR ( '', #351 ) ;
#288 = EDGE_CURVE ( 'NONE', #79, #153, #180, .T. ) ;
#289 = MECHANICAL_DESIGN_GEOMETRIC_PRESENTATION_REPRESENTATION (  '', ( #41 ), #257 ) ;
#290 = CARTESIAN_POINT ( 'NONE',  ( 0.000000000000000000, 0.000000000000000000, 0.000000000000000000 ) ) ;
#291 = CARTESIAN_POINT ( 'NONE',  ( 0.000000000000000000, 2.250000000000000000, 0.000000000000000000 ) ) ;
#292 =( LENGTH_UNIT ( ) NAMED_UNIT ( * ) SI_UNIT ( $, .METRE. ) );
#293 = FILL_AREA_STYLE ('',( #64 ) ) ;
#294 = CARTESIAN_POINT ( 'NONE',  ( -4.592425496802575451E-17, 0.3750000000000000555, 0.000000000000000000 ) ) ;
#295 = FILL_AREA_STYLE_COLOUR ( '', #13 ) ;
#296 = VERTEX_POINT ( 'NONE', #322 ) ;
#297 = DIRECTION ( 'NONE',  ( 0.000000000000000000, 1.000000000000000000, 0.000000000000000000 ) ) ;
#298 = COLOUR_RGB ( '',1.000000000000000000, 0.000000000000000000, 0.000000000000000000 ) ;
#299 = LINE ( 'NONE', #327, #134 ) ;
#300 = ORIENTED_EDGE ( 'NONE', *, *, #32, .F. ) ;
#301 = CIRCLE ( 'NONE', #321, 0.3749999999999996114 ) ;
#302 = ADVANCED_FACE ( 'NONE', ( #218 ), #277, .F. ) ;
#303 =( CONVERSION_BASED_UNIT ( 'INCH', #109 ) LENGTH_UNIT ( ) NAMED_UNIT ( #37 ) );
#304 = DIRECTION ( 'NONE',  ( 1.224646799147353207E-16, -0.000000000000000000, 1.000000000000000000 ) ) ;
#305 = AXIS2_PLACEMENT_3D ( 'NONE', #360, #43, #174 ) ;
#306 = ORIENTED_EDGE ( 'NONE', *, *, #343, .T. ) ;
#307 = CARTESIAN_POINT ( 'NONE',  ( 0.3749999999999998335, 5.000000000000000000, 0.000000000000000000 ) ) ;
#308 = VERTEX_POINT ( 'NONE', #63 ) ;
#309 = SURFACE_STYLE_USAGE ( .BOTH. , #115 ) ;
#310 = DIRECTION ( 'NONE',  ( 1.223582072328815731E-16, -1.000000000000000000, 0.000000000000000000 ) ) ;
#311 =( NAMED_UNIT ( * ) PLANE_ANGLE_UNIT ( ) SI_UNIT ( $, .RADIAN. ) );
#312 = CARTESIAN_POINT ( 'NONE',  ( 0.000000000000000000, 0.3750000000000001110, -0.3749999999999999445 ) ) ;
#313 = CIRCLE ( 'NONE', #61, 0.3750000000000000555 ) ;
#314 = ADVANCED_FACE ( 'NONE', ( #66 ), #136, .T. ) ;
#315 = PRODUCT_DEFINITION_FORMATION_WITH_SPECIFIED_SOURCE ( 'ANY', '', #224, .NOT_KNOWN. ) ;
#316 = FILL_AREA_STYLE_COLOUR ( '', #256 ) ;
#317 = EDGE_LOOP ( 'NONE', ( #187, #236, #149, #90 ) ) ;
#318 = CARTESIAN_POINT ( 'NONE',  ( 4.592425496802572370E-17, 0.000000000000000000, 0.3749999999999998335 ) ) ;
#319 = CARTESIAN_POINT ( 'NONE',  ( -0.3750000000000002220, 5.000000000000000000, 0.000000000000000000 ) ) ;
#320 = SURFACE_SIDE_STYLE ('',( #350 ) ) ;
#321 = AXIS2_PLACEMENT_3D ( 'NONE', #210, #186, #60 ) ;
#322 = CARTESIAN_POINT ( 'NONE',  ( 0.3749999999999998335, 5.000000000000000000, 4.592425496802574219E-17 ) ) ;
#323 = PRESENTATION_STYLE_ASSIGNMENT (( #96 ) ) ;
#324 = DIRECTION ( 'NONE',  ( 0.000000000000000000, -0.000000000000000000, 1.000000000000000000 ) ) ;
#325 = EDGE_LOOP ( 'NONE', ( #48, #178, #155, #346, #286 ) ) ;
#326 = SHAPE_DEFINITION_REPRESENTATION ( #175, #108 ) ;
#327 = CARTESIAN_POINT ( 'NONE',  ( -0.3750000000000000555, 5.000000000000000000, 0.000000000000000000 ) ) ;
#328 = CARTESIAN_POINT ( 'NONE',  ( 1.527880500183213141E-16, 2.250000000000000000, 0.000000000000000000 ) ) ;
#329 = FACE_OUTER_BOUND ( 'NONE', #357, .T. ) ;
#330 = SPHERICAL_SURFACE ( 'NONE', #183, 0.3750000000000000555 ) ;
#331 = PRESENTATION_LAYER_ASSIGNMENT (  '', '', ( #344 ) ) ;
#332 =( NAMED_UNIT ( * ) PLANE_ANGLE_UNIT ( ) SI_UNIT ( $, .RADIAN. ) );
#333 = ORIENTED_EDGE ( 'NONE', *, *, #100, .F. ) ;
#334 = DIRECTION ( 'NONE',  ( -0.000000000000000000, -1.000000000000000000, -0.000000000000000000 ) ) ;
#335 = EDGE_CURVE ( 'NONE', #86, #153, #57, .T. ) ;
#336 = AXIS2_PLACEMENT_3D ( 'NONE', #291, #284, #29 ) ;
#337 = ORIENTED_EDGE ( 'NONE', *, *, #145, .T. ) ;
#338 = MECHANICAL_DESIGN_GEOMETRIC_PRESENTATION_REPRESENTATION (  '', ( #154 ), #15 ) ;
#339 = DIRECTION ( 'NONE',  ( 0.000000000000000000, 0.000000000000000000, 1.000000000000000000 ) ) ;
#340 = FILL_AREA_STYLE ('',( #150 ) ) ;
#341 = ORIENTED_EDGE ( 'NONE', *, *, #3, .F. ) ;
#342 = DIRECTION ( 'NONE',  ( 1.000000000000000000, 0.000000000000000000, -1.224646799147353207E-16 ) ) ;
#343 = EDGE_CURVE ( 'NONE', #2, #79, #240, .T. ) ;
#344 = STYLED_ITEM ( 'NONE', ( #59 ), #10 ) ;
#345 =( LENGTH_UNIT ( ) NAMED_UNIT ( * ) SI_UNIT ( $, .METRE. ) );
#346 = ORIENTED_EDGE ( 'NONE', *, *, #145, .F. ) ;
#347 = APPLICATION_CONTEXT ( 'automotive_design' ) ;
#348 =( CONVERSION_BASED_UNIT ( 'INCH', #120 ) LENGTH_UNIT ( ) NAMED_UNIT ( #262 ) );
#349 = UNCERTAINTY_MEASURE_WITH_UNIT (LENGTH_MEASURE( 1.000000000000000082E-05 ), #303, 'distance_accuracy_value', 'NONE');
#350 = SURFACE_STYLE_FILL_AREA ( #124 ) ;
#351 = COLOUR_RGB ( '',0.7921568627450980005, 0.8196078431372548767, 0.9333333333333333481 ) ;
#352 = EDGE_CURVE ( 'NONE', #280, #296, #6, .T. ) ;
#353 = COLOUR_RGB ( '',1.000000000000000000, 0.000000000000000000, 0.000000000000000000 ) ;
#354 = DIRECTION ( 'NONE',  ( 0.000000000000000000, 0.000000000000000000, -1.000000000000000000 ) ) ;
#355 = DIMENSIONAL_EXPONENTS ( 1.000000000000000000, 0.000000000000000000, 0.000000000000000000, 0.000000000000000000, 0.000000000000000000, 0.000000000000000000, 0.000000000000000000 ) ;
#356 = FILL_AREA_STYLE ('',( #287 ) ) ;
#357 = EDGE_LOOP ( 'NONE', ( #261, #50, #253, #333 ) ) ;
#358 = SURFACE_STYLE_FILL_AREA ( #165 ) ;
#359 = DIRECTION ( 'NONE',  ( -1.223582072328815731E-16, 1.000000000000000000, -0.000000000000000000 ) ) ;
#360 = CARTESIAN_POINT ( 'NONE',  ( 0.000000000000000000, 0.3750000000000001110, 0.000000000000000000 ) ) ;
#361 =( NAMED_UNIT ( * ) PLANE_ANGLE_UNIT ( ) SI_UNIT ( $, .RADIAN. ) );
#362 = LENGTH_MEASURE_WITH_UNIT ( LENGTH_MEASURE( 0.02539999999999999897 ), #373 );
#363 = PRESENTATION_STYLE_ASSIGNMENT (( #251 ) ) ;
#364 = ADVANCED_FACE ( 'NONE', ( #83 ), #203, .F. ) ;
#365 = CARTESIAN_POINT ( 'NONE',  ( -1.836970198721029688E-16, 5.000000000000000000, 0.000000000000000000 ) ) ;
#366 = SURFACE_SIDE_STYLE ('',( #358 ) ) ;
#367 =( GEOMETRIC_REPRESENTATION_CONTEXT ( 3 ) GLOBAL_UNCERTAINTY_ASSIGNED_CONTEXT ( ( #258 ) ) GLOBAL_UNIT_ASSIGNED_CONTEXT ( ( #157, #91, #234 ) ) REPRESENTATION_CONTEXT ( 'NONE', 'WORKASPACE' ) );
#368 =( NAMED_UNIT ( * ) SI_UNIT ( $, .STERADIAN. ) SOLID_ANGLE_UNIT ( ) );
#369 = EDGE_CURVE ( 'NONE', #233, #146, #1, .T. ) ;
#370 = FACE_OUTER_BOUND ( 'NONE', #278, .T. ) ;
#371 = FACE_OUTER_BOUND ( 'NONE', #325, .T. ) ;
#372 = PRESENTATION_LAYER_ASSIGNMENT (  '', '', ( #56 ) ) ;
#373 =( LENGTH_UNIT ( ) NAMED_UNIT ( * ) SI_UNIT ( $, .METRE. ) );
ENDSEC;
END-ISO-10303-21;
