ISO-10303-21;
HEADER;
FILE_DESCRIPTION (( 'STEP AP214' ),
    '1' );
FILE_NAME ('59779.STEP',
    '2023-07-24T15:57:35',
    ( '' ),
    ( '' ),
    'SwSTEP 2.0',
    'SolidWorks 2023',
    '' );
FILE_SCHEMA (( 'AUTOMOTIVE_DESIGN' ));
ENDSEC;

DATA;
#1 = CARTESIAN_POINT ( 'NONE',  ( 9.797174393178825657E-16, 40.00000000000000000, 8.000000000000000000 ) ) ;
#2 = ORIENTED_EDGE ( 'NONE', *, *, #232, .T. ) ;
#3 = PRESENTATION_STYLE_ASSIGNMENT (( #168 ) ) ;
#4 = ORIENTED_EDGE ( 'NONE', *, *, #232, .F. ) ;
#5 = EDGE_LOOP ( 'NONE', ( #2, #246 ) ) ;
#6 = EDGE_CURVE ( 'NONE', #95, #25, #182, .T. ) ;
#7 = PRESENTATION_LAYER_ASSIGNMENT (  '', '', ( #279 ) ) ;
#8 = CARTESIAN_POINT ( 'NONE',  ( 0.000000000000000000, 40.00000000000000000, 0.000000000000000000 ) ) ;
#9 = CARTESIAN_POINT ( 'NONE',  ( 8.000000000000000000, 89.00000000000000000, 9.797174393178825657E-16 ) ) ;
#10 = PRESENTATION_LAYER_ASSIGNMENT (  '', '', ( #260 ) ) ;
#11 = EDGE_CURVE ( 'NONE', #201, #178, #177, .T. ) ;
#12 = SURFACE_STYLE_USAGE ( .BOTH. , #128 ) ;
#13 = COLOUR_RGB ( '',1.000000000000000000, 0.000000000000000000, 0.000000000000000000 ) ;
#14 =( NAMED_UNIT ( * ) PLANE_ANGLE_UNIT ( ) SI_UNIT ( $, .RADIAN. ) );
#15 = EDGE_CURVE ( 'NONE', #25, #95, #219, .T. ) ;
#16 = FILL_AREA_STYLE_COLOUR ( '', #97 ) ;
#17 = DIRECTION ( 'NONE',  ( -1.000000000000000000, 0.000000000000000000, 0.000000000000000000 ) ) ;
#18 = UNCERTAINTY_MEASURE_WITH_UNIT (LENGTH_MEASURE( 1.000000000000000082E-05 ), #240, 'distance_accuracy_value', 'NONE');
#19 =( LENGTH_UNIT ( ) NAMED_UNIT ( * ) SI_UNIT ( .MILLI., .METRE. ) );
#20 = EDGE_CURVE ( 'NONE', #178, #105, #282, .T. ) ;
#21 = CARTESIAN_POINT ( 'NONE',  ( 0.000000000000000000, 0.000000000000000000, 0.000000000000000000 ) ) ;
#22 = AXIS2_PLACEMENT_3D ( 'NONE', #133, #270, #92 ) ;
#23 =( GEOMETRIC_REPRESENTATION_CONTEXT ( 3 ) GLOBAL_UNCERTAINTY_ASSIGNED_CONTEXT ( ( #80 ) ) GLOBAL_UNIT_ASSIGNED_CONTEXT ( ( #148, #192, #263 ) ) REPRESENTATION_CONTEXT ( 'NONE', 'WORKASPACE' ) );
#24 = LINE ( 'NONE', #126, #229 ) ;
#25 = VERTEX_POINT ( 'NONE', #146 ) ;
#26 = DIRECTION ( 'NONE',  ( -0.000000000000000000, -1.000000000000000000, -0.000000000000000000 ) ) ;
#27 = ORIENTED_EDGE ( 'NONE', *, *, #166, .T. ) ;
#28 = DIRECTION ( 'NONE',  ( -3.498990854706722745E-17, 1.000000000000000000, -0.000000000000000000 ) ) ;
#29 = AXIS2_PLACEMENT_3D ( 'NONE', #223, #238, #40 ) ;
#30 = DIRECTION ( 'NONE',  ( -1.000000000000000000, 0.000000000000000000, 0.000000000000000000 ) ) ;
#31 = PLANE ( 'NONE',  #203 ) ;
#32 = CLOSED_SHELL ( 'NONE', ( #276, #53, #100, #117 ) ) ;
#33 = MECHANICAL_DESIGN_GEOMETRIC_PRESENTATION_REPRESENTATION (  '', ( #260 ), #268 ) ;
#34 = FILL_AREA_STYLE ('',( #210 ) ) ;
#35 = FILL_AREA_STYLE_COLOUR ( '', #252 ) ;
#36 = CARTESIAN_POINT ( 'NONE',  ( 8.000000000000000000, 40.00000000000000000, 9.797174393178825657E-16 ) ) ;
#37 = ADVANCED_FACE ( 'NONE', ( #207 ), #191, .T. ) ;
#38 =( NAMED_UNIT ( * ) PLANE_ANGLE_UNIT ( ) SI_UNIT ( $, .RADIAN. ) );
#39 = MANIFOLD_SOLID_BREP ( 'Revolve - Cutting Edge', #163 ) ;
#40 = DIRECTION ( 'NONE',  ( 0.000000000000000000, 0.000000000000000000, -1.000000000000000000 ) ) ;
#41 =( NAMED_UNIT ( * ) PLANE_ANGLE_UNIT ( ) SI_UNIT ( $, .RADIAN. ) );
#42 = AXIS2_PLACEMENT_3D ( 'NONE', #251, #51, #129 ) ;
#43 = COLOUR_RGB ( '',0.7921568627450980005, 0.8196078431372548767, 0.9333333333333333481 ) ;
#44 = VERTEX_POINT ( 'NONE', #136 ) ;
#45 = CYLINDRICAL_SURFACE ( 'NONE', #83, 8.000000000000000000 ) ;
#46 = ORIENTED_EDGE ( 'NONE', *, *, #20, .F. ) ;
#47 = SURFACE_STYLE_USAGE ( .BOTH. , #245 ) ;
#48 = EDGE_LOOP ( 'NONE', ( #86, #269, #284, #64 ) ) ;
#49 = CIRCLE ( 'NONE', #22, 8.000000000000000000 ) ;
#50 =( NAMED_UNIT ( * ) SI_UNIT ( $, .STERADIAN. ) SOLID_ANGLE_UNIT ( ) );
#51 = DIRECTION ( 'NONE',  ( -3.498990854706722745E-17, 1.000000000000000000, -0.000000000000000000 ) ) ;
#52 = VECTOR ( 'NONE', #174, 1000.000000000000000 ) ;
#53 = ADVANCED_FACE ( 'NONE', ( #176 ), #211, .F. ) ;
#54 = APPLICATION_CONTEXT ( 'automotive_design' ) ;
#55 = AXIS2_PLACEMENT_3D ( 'NONE', #8, #157, #120 ) ;
#56 = VECTOR ( 'NONE', #264, 1000.000000000000000 ) ;
#57 = PRESENTATION_STYLE_ASSIGNMENT (( #181 ) ) ;
#58 = FILL_AREA_STYLE_COLOUR ( '', #13 ) ;
#59 = CARTESIAN_POINT ( 'NONE',  ( 0.000000000000000000, 0.000000000000000000, 0.000000000000000000 ) ) ;
#60 = EDGE_CURVE ( 'NONE', #44, #105, #49, .T. ) ;
#61 = CARTESIAN_POINT ( 'NONE',  ( 0.000000000000000000, 0.000000000000000000, 0.000000000000000000 ) ) ;
#62 =( LENGTH_UNIT ( ) NAMED_UNIT ( * ) SI_UNIT ( .MILLI., .METRE. ) );
#63 = PRESENTATION_LAYER_ASSIGNMENT (  '', '', ( #65 ) ) ;
#64 = ORIENTED_EDGE ( 'NONE', *, *, #6, .F. ) ;
#65 = STYLED_ITEM ( 'NONE', ( #57 ), #37 ) ;
#66 = CYLINDRICAL_SURFACE ( 'NONE', #142, 8.000000000000000000 ) ;
#67 = PRODUCT_RELATED_PRODUCT_CATEGORY ( 'part', '', ( #271 ) ) ;
#68 = CARTESIAN_POINT ( 'NONE',  ( 0.000000000000000000, 40.00000000000000000, 0.000000000000000000 ) ) ;
#69 = ORIENTED_EDGE ( 'NONE', *, *, #15, .F. ) ;
#70 = PRODUCT_DEFINITION_FORMATION_WITH_SPECIFIED_SOURCE ( 'ANY', '', #271, .NOT_KNOWN. ) ;
#71 = CARTESIAN_POINT ( 'NONE',  ( -1.714505518806293849E-15, 89.00000000000000000, 0.000000000000000000 ) ) ;
#72 = FACE_OUTER_BOUND ( 'NONE', #48, .T. ) ;
#73 = CYLINDRICAL_SURFACE ( 'NONE', #220, 8.000000000000000000 ) ;
#74 = AXIS2_PLACEMENT_3D ( 'NONE', #59, #108, #145 ) ;
#75 = MECHANICAL_DESIGN_GEOMETRIC_PRESENTATION_REPRESENTATION (  '', ( #98 ), #106 ) ;
#76 = UNCERTAINTY_MEASURE_WITH_UNIT (LENGTH_MEASURE( 1.000000000000000082E-05 ), #214, 'distance_accuracy_value', 'NONE');
#77 = DIRECTION ( 'NONE',  ( 3.498990854706722745E-17, -1.000000000000000000, 0.000000000000000000 ) ) ;
#78 = DIRECTION ( 'NONE',  ( -0.000000000000000000, -1.000000000000000000, -0.000000000000000000 ) ) ;
#79 = ORIENTED_EDGE ( 'NONE', *, *, #265, .T. ) ;
#80 = UNCERTAINTY_MEASURE_WITH_UNIT (LENGTH_MEASURE( 1.000000000000000082E-05 ), #148, 'distance_accuracy_value', 'NONE');
#81 = COLOUR_RGB ( '',1.000000000000000000, 0.000000000000000000, 0.000000000000000000 ) ;
#82 = SURFACE_STYLE_FILL_AREA ( #34 ) ;
#83 = AXIS2_PLACEMENT_3D ( 'NONE', #221, #109, #242 ) ;
#84 = FILL_AREA_STYLE_COLOUR ( '', #247 ) ;
#85 = CARTESIAN_POINT ( 'NONE',  ( -8.000000000000001776, 89.00000000000000000, 0.000000000000000000 ) ) ;
#86 = ORIENTED_EDGE ( 'NONE', *, *, #224, .F. ) ;
#87 = DIRECTION ( 'NONE',  ( 0.000000000000000000, -0.000000000000000000, 1.000000000000000000 ) ) ;
#88 = LINE ( 'NONE', #85, #52 ) ;
#89 = ORIENTED_EDGE ( 'NONE', *, *, #20, .T. ) ;
#90 =( NAMED_UNIT ( * ) SI_UNIT ( $, .STERADIAN. ) SOLID_ANGLE_UNIT ( ) );
#91 = ORIENTED_EDGE ( 'NONE', *, *, #166, .F. ) ;
#92 = DIRECTION ( 'NONE',  ( 0.000000000000000000, 0.000000000000000000, -1.000000000000000000 ) ) ;
#93 = VECTOR ( 'NONE', #78, 1000.000000000000000 ) ;
#94 = PRESENTATION_LAYER_ASSIGNMENT (  '', '', ( #236 ) ) ;
#95 = VERTEX_POINT ( 'NONE', #9 ) ;
#96 =( GEOMETRIC_REPRESENTATION_CONTEXT ( 3 ) GLOBAL_UNCERTAINTY_ASSIGNED_CONTEXT ( ( #18 ) ) GLOBAL_UNIT_ASSIGNED_CONTEXT ( ( #240, #41, #50 ) ) REPRESENTATION_CONTEXT ( 'NONE', 'WORKASPACE' ) );
#97 = COLOUR_RGB ( '',0.7921568627450980005, 0.8196078431372548767, 0.9333333333333333481 ) ;
#98 = STYLED_ITEM ( 'NONE', ( #194 ), #140 ) ;
#99 = PLANE ( 'NONE',  #147 ) ;
#100 = ADVANCED_FACE ( 'NONE', ( #72 ), #73, .T. ) ;
#101 = SURFACE_STYLE_FILL_AREA ( #123 ) ;
#102 = CARTESIAN_POINT ( 'NONE',  ( 8.000000000000000000, 89.00000000000000000, 0.000000000000000000 ) ) ;
#103 = CARTESIAN_POINT ( 'NONE',  ( 0.000000000000000000, 0.000000000000000000, -8.000000000000000000 ) ) ;
#104 = DIRECTION ( 'NONE',  ( 0.000000000000000000, 0.000000000000000000, 1.000000000000000000 ) ) ;
#105 = VERTEX_POINT ( 'NONE', #273 ) ;
#106 =( GEOMETRIC_REPRESENTATION_CONTEXT ( 3 ) GLOBAL_UNCERTAINTY_ASSIGNED_CONTEXT ( ( #111 ) ) GLOBAL_UNIT_ASSIGNED_CONTEXT ( ( #62, #112, #90 ) ) REPRESENTATION_CONTEXT ( 'NONE', 'WORKASPACE' ) );
#107 = SURFACE_STYLE_FILL_AREA ( #216 ) ;
#108 = DIRECTION ( 'NONE',  ( -0.000000000000000000, -1.000000000000000000, -0.000000000000000000 ) ) ;
#109 = DIRECTION ( 'NONE',  ( -3.498990854706722745E-17, 1.000000000000000000, -0.000000000000000000 ) ) ;
#110 = ORIENTED_EDGE ( 'NONE', *, *, #265, .F. ) ;
#111 = UNCERTAINTY_MEASURE_WITH_UNIT (LENGTH_MEASURE( 1.000000000000000082E-05 ), #62, 'distance_accuracy_value', 'NONE');
#112 =( NAMED_UNIT ( * ) PLANE_ANGLE_UNIT ( ) SI_UNIT ( $, .RADIAN. ) );
#113 = ORIENTED_EDGE ( 'NONE', *, *, #11, .T. ) ;
#114 =( GEOMETRIC_REPRESENTATION_CONTEXT ( 3 ) GLOBAL_UNCERTAINTY_ASSIGNED_CONTEXT ( ( #275 ) ) GLOBAL_UNIT_ASSIGNED_CONTEXT ( ( #19, #234, #258 ) ) REPRESENTATION_CONTEXT ( 'NONE', 'WORKASPACE' ) );
#115 = DIRECTION ( 'NONE',  ( 0.000000000000000000, 1.000000000000000000, 0.000000000000000000 ) ) ;
#116 = EDGE_LOOP ( 'NONE', ( #139, #79, #4, #46 ) ) ;
#117 = ADVANCED_FACE ( 'NONE', ( #161 ), #31, .F. ) ;
#118 = ORIENTED_EDGE ( 'NONE', *, *, #213, .F. ) ;
#119 = PRODUCT_DEFINITION_SHAPE ( 'NONE', 'NONE',  #272 ) ;
#120 = DIRECTION ( 'NONE',  ( 0.000000000000000000, 0.000000000000000000, -1.000000000000000000 ) ) ;
#121 = STYLED_ITEM ( 'NONE', ( #278 ), #39 ) ;
#122 = PRESENTATION_LAYER_ASSIGNMENT (  '', '', ( #121 ) ) ;
#123 = FILL_AREA_STYLE ('',( #16 ) ) ;
#124 = ADVANCED_FACE ( 'NONE', ( #235 ), #150, .T. ) ;
#125 = DIRECTION ( 'NONE',  ( 1.000000000000000000, 3.498990854706722745E-17, 0.000000000000000000 ) ) ;
#126 = CARTESIAN_POINT ( 'NONE',  ( 9.797174393178825657E-16, 0.000000000000000000, 8.000000000000000000 ) ) ;
#127 = SURFACE_STYLE_FILL_AREA ( #164 ) ;
#128 = SURFACE_SIDE_STYLE ('',( #127 ) ) ;
#129 = DIRECTION ( 'NONE',  ( -1.000000000000000000, 0.000000000000000000, 0.000000000000000000 ) ) ;
#130 =( NAMED_UNIT ( * ) SI_UNIT ( $, .STERADIAN. ) SOLID_ANGLE_UNIT ( ) );
#131 = AXIS2_PLACEMENT_3D ( 'NONE', #243, #198, #193 ) ;
#132 = DIRECTION ( 'NONE',  ( -1.000000000000000000, 0.000000000000000000, 0.000000000000000000 ) ) ;
#133 = CARTESIAN_POINT ( 'NONE',  ( 0.000000000000000000, 0.000000000000000000, 0.000000000000000000 ) ) ;
#134 = CARTESIAN_POINT ( 'NONE',  ( 7.999999999999998224, 89.00000000000000000, 9.797174393178825657E-16 ) ) ;
#135 = ORIENTED_EDGE ( 'NONE', *, *, #149, .F. ) ;
#136 = CARTESIAN_POINT ( 'NONE',  ( 9.797174393178825657E-16, 0.000000000000000000, 8.000000000000000000 ) ) ;
#137 = APPLICATION_CONTEXT ( 'automotive_design' ) ;
#138 = DIRECTION ( 'NONE',  ( -3.498990854706722745E-17, 1.000000000000000000, -0.000000000000000000 ) ) ;
#139 = ORIENTED_EDGE ( 'NONE', *, *, #149, .T. ) ;
#140 = ADVANCED_FACE ( 'NONE', ( #206 ), #99, .T. ) ;
#141 = SURFACE_STYLE_FILL_AREA ( #261 ) ;
#142 = AXIS2_PLACEMENT_3D ( 'NONE', #61, #26, #151 ) ;
#143 = CARTESIAN_POINT ( 'NONE',  ( -1.714505518806293849E-15, 89.00000000000000000, 0.000000000000000000 ) ) ;
#144 = CIRCLE ( 'NONE', #29, 8.000000000000000000 ) ;
#145 = DIRECTION ( 'NONE',  ( 0.000000000000000000, 0.000000000000000000, -1.000000000000000000 ) ) ;
#146 = CARTESIAN_POINT ( 'NONE',  ( -8.000000000000003553, 89.00000000000000000, 0.000000000000000000 ) ) ;
#147 = AXIS2_PLACEMENT_3D ( 'NONE', #68, #115, #87 ) ;
#148 =( LENGTH_UNIT ( ) NAMED_UNIT ( * ) SI_UNIT ( .MILLI., .METRE. ) );
#149 = EDGE_CURVE ( 'NONE', #178, #201, #288, .T. ) ;
#150 = PLANE ( 'NONE',  #274 ) ;
#151 = DIRECTION ( 'NONE',  ( 0.000000000000000000, 0.000000000000000000, -1.000000000000000000 ) ) ;
#152 = VERTEX_POINT ( 'NONE', #200 ) ;
#153 = EDGE_LOOP ( 'NONE', ( #110, #113, #89, #244 ) ) ;
#154 = CARTESIAN_POINT ( 'NONE',  ( 1.925929944387235853E-31, 40.00000000000000000, 0.000000000000000000 ) ) ;
#155 = ORIENTED_EDGE ( 'NONE', *, *, #6, .T. ) ;
#156 = MECHANICAL_DESIGN_GEOMETRIC_PRESENTATION_REPRESENTATION (  '', ( #279 ), #96 ) ;
#157 = DIRECTION ( 'NONE',  ( -0.000000000000000000, -1.000000000000000000, -0.000000000000000000 ) ) ;
#158 = ADVANCED_FACE ( 'NONE', ( #173 ), #66, .T. ) ;
#159 = DIRECTION ( 'NONE',  ( -3.498990854706722745E-17, 1.000000000000000000, -0.000000000000000000 ) ) ;
#160 = MECHANICAL_DESIGN_GEOMETRIC_PRESENTATION_REPRESENTATION (  '', ( #65 ), #208 ) ;
#161 = FACE_OUTER_BOUND ( 'NONE', #227, .T. ) ;
#162 = CIRCLE ( 'NONE', #256, 8.000000000000000000 ) ;
#163 = CLOSED_SHELL ( 'NONE', ( #37, #140, #158, #124 ) ) ;
#164 = FILL_AREA_STYLE ('',( #58 ) ) ;
#165 = SURFACE_STYLE_FILL_AREA ( #253 ) ;
#166 = EDGE_CURVE ( 'NONE', #152, #249, #162, .T. ) ;
#167 = SHAPE_DEFINITION_REPRESENTATION ( #119, #218 ) ;
#168 = SURFACE_STYLE_USAGE ( .BOTH. , #170 ) ;
#169 = DIRECTION ( 'NONE',  ( -1.000000000000000000, -3.498990854706722745E-17, 0.000000000000000000 ) ) ;
#170 = SURFACE_SIDE_STYLE ('',( #141 ) ) ;
#171 = EDGE_LOOP ( 'NONE', ( #135, #262 ) ) ;
#172 = MECHANICAL_DESIGN_GEOMETRIC_PRESENTATION_REPRESENTATION (  '', ( #236 ), #114 ) ;
#173 = FACE_OUTER_BOUND ( 'NONE', #153, .T. ) ;
#174 = DIRECTION ( 'NONE',  ( -3.498990854706722745E-17, 1.000000000000000000, -0.000000000000000000 ) ) ;
#175 = ORIENTED_EDGE ( 'NONE', *, *, #224, .T. ) ;
#176 = FACE_OUTER_BOUND ( 'NONE', #228, .T. ) ;
#177 = CIRCLE ( 'NONE', #55, 8.000000000000000000 ) ;
#178 = VERTEX_POINT ( 'NONE', #266 ) ;
#179 = MECHANICAL_DESIGN_GEOMETRIC_PRESENTATION_REPRESENTATION (  '', ( #121 ), #197 ) ;
#180 = PRESENTATION_STYLE_ASSIGNMENT (( #239 ) ) ;
#181 = SURFACE_STYLE_USAGE ( .BOTH. , #205 ) ;
#182 = CIRCLE ( 'NONE', #267, 8.000000000000001776 ) ;
#183 = CIRCLE ( 'NONE', #230, 8.000000000000000000 ) ;
#184 = SURFACE_SIDE_STYLE ('',( #82 ) ) ;
#185 = SURFACE_STYLE_USAGE ( .BOTH. , #259 ) ;
#186 = DIRECTION ( 'NONE',  ( 0.000000000000000000, 0.000000000000000000, -1.000000000000000000 ) ) ;
#187 =( LENGTH_UNIT ( ) NAMED_UNIT ( * ) SI_UNIT ( .MILLI., .METRE. ) );
#188 = DIRECTION ( 'NONE',  ( 1.000000000000000000, 0.000000000000000000, 0.000000000000000000 ) ) ;
#189 = PRESENTATION_LAYER_ASSIGNMENT (  '', '', ( #98 ) ) ;
#190 = AXIS2_PLACEMENT_3D ( 'NONE', #21, #104, #188 ) ;
#191 = CYLINDRICAL_SURFACE ( 'NONE', #74, 8.000000000000000000 ) ;
#192 =( NAMED_UNIT ( * ) PLANE_ANGLE_UNIT ( ) SI_UNIT ( $, .RADIAN. ) );
#193 = DIRECTION ( 'NONE',  ( 0.000000000000000000, 0.000000000000000000, -1.000000000000000000 ) ) ;
#194 = PRESENTATION_STYLE_ASSIGNMENT (( #12 ) ) ;
#195 = DIRECTION ( 'NONE',  ( -3.498990854706722745E-17, 1.000000000000000000, 0.000000000000000000 ) ) ;
#196 = DIRECTION ( 'NONE',  ( -3.498990854706722745E-17, 1.000000000000000000, -0.000000000000000000 ) ) ;
#197 =( GEOMETRIC_REPRESENTATION_CONTEXT ( 3 ) GLOBAL_UNCERTAINTY_ASSIGNED_CONTEXT ( ( #76 ) ) GLOBAL_UNIT_ASSIGNED_CONTEXT ( ( #214, #217, #225 ) ) REPRESENTATION_CONTEXT ( 'NONE', 'WORKASPACE' ) );
#198 = DIRECTION ( 'NONE',  ( -0.000000000000000000, -1.000000000000000000, -0.000000000000000000 ) ) ;
#199 = ORIENTED_EDGE ( 'NONE', *, *, #15, .T. ) ;
#200 = CARTESIAN_POINT ( 'NONE',  ( -8.000000000000000000, 40.00000000000000000, 0.000000000000000000 ) ) ;
#201 = VERTEX_POINT ( 'NONE', #1 ) ;
#202 = DIRECTION ( 'NONE',  ( -1.000000000000000000, 0.000000000000000000, 0.000000000000000000 ) ) ;
#203 = AXIS2_PLACEMENT_3D ( 'NONE', #102, #77, #125 ) ;
#204 = UNCERTAINTY_MEASURE_WITH_UNIT (LENGTH_MEASURE( 1.000000000000000082E-05 ), #281, 'distance_accuracy_value', 'NONE');
#205 = SURFACE_SIDE_STYLE ('',( #165 ) ) ;
#206 = FACE_OUTER_BOUND ( 'NONE', #171, .T. ) ;
#207 = FACE_OUTER_BOUND ( 'NONE', #116, .T. ) ;
#208 =( GEOMETRIC_REPRESENTATION_CONTEXT ( 3 ) GLOBAL_UNCERTAINTY_ASSIGNED_CONTEXT ( ( #209 ) ) GLOBAL_UNIT_ASSIGNED_CONTEXT ( ( #187, #14, #277 ) ) REPRESENTATION_CONTEXT ( 'NONE', 'WORKASPACE' ) );
#209 = UNCERTAINTY_MEASURE_WITH_UNIT (LENGTH_MEASURE( 1.000000000000000082E-05 ), #187, 'distance_accuracy_value', 'NONE');
#210 = FILL_AREA_STYLE_COLOUR ( '', #81 ) ;
#211 = PLANE ( 'NONE',  #233 ) ;
#212 = CARTESIAN_POINT ( 'NONE',  ( 0.000000000000000000, 0.000000000000000000, 0.000000000000000000 ) ) ;
#213 = EDGE_CURVE ( 'NONE', #152, #25, #88, .T. ) ;
#214 =( LENGTH_UNIT ( ) NAMED_UNIT ( * ) SI_UNIT ( .MILLI., .METRE. ) );
#215 = PRODUCT_CONTEXT ( 'NONE', #137, 'mechanical' ) ;
#216 = FILL_AREA_STYLE ('',( #222 ) ) ;
#217 =( NAMED_UNIT ( * ) PLANE_ANGLE_UNIT ( ) SI_UNIT ( $, .RADIAN. ) );
#218 = ADVANCED_BREP_SHAPE_REPRESENTATION ( '59779', ( #39, #231, #190 ), #23 ) ;
#219 = CIRCLE ( 'NONE', #42, 8.000000000000001776 ) ;
#220 = AXIS2_PLACEMENT_3D ( 'NONE', #143, #159, #30 ) ;
#221 = CARTESIAN_POINT ( 'NONE',  ( -1.714505518806293849E-15, 89.00000000000000000, 0.000000000000000000 ) ) ;
#222 = FILL_AREA_STYLE_COLOUR ( '', #43 ) ;
#223 = CARTESIAN_POINT ( 'NONE',  ( 0.000000000000000000, 0.000000000000000000, 0.000000000000000000 ) ) ;
#224 = EDGE_CURVE ( 'NONE', #249, #95, #248, .T. ) ;
#225 =( NAMED_UNIT ( * ) SI_UNIT ( $, .STERADIAN. ) SOLID_ANGLE_UNIT ( ) );
#226 = PRESENTATION_STYLE_ASSIGNMENT (( #47 ) ) ;
#227 = EDGE_LOOP ( 'NONE', ( #199, #155 ) ) ;
#228 = EDGE_LOOP ( 'NONE', ( #91, #285 ) ) ;
#229 = VECTOR ( 'NONE', #287, 1000.000000000000000 ) ;
#230 = AXIS2_PLACEMENT_3D ( 'NONE', #286, #196, #17 ) ;
#231 = MANIFOLD_SOLID_BREP ( 'Revolve - Tool Body (Straight Shanked)', #32 ) ;
#232 = EDGE_CURVE ( 'NONE', #105, #44, #144, .T. ) ;
#233 = AXIS2_PLACEMENT_3D ( 'NONE', #250, #195, #169 ) ;
#234 =( NAMED_UNIT ( * ) PLANE_ANGLE_UNIT ( ) SI_UNIT ( $, .RADIAN. ) );
#235 = FACE_OUTER_BOUND ( 'NONE', #5, .T. ) ;
#236 = STYLED_ITEM ( 'NONE', ( #180 ), #124 ) ;
#237 = APPLICATION_PROTOCOL_DEFINITION ( 'draft international standard', 'automotive_design', 1998, #137 ) ;
#238 = DIRECTION ( 'NONE',  ( -0.000000000000000000, -1.000000000000000000, -0.000000000000000000 ) ) ;
#239 = SURFACE_STYLE_USAGE ( .BOTH. , #184 ) ;
#240 =( LENGTH_UNIT ( ) NAMED_UNIT ( * ) SI_UNIT ( .MILLI., .METRE. ) );
#241 = EDGE_LOOP ( 'NONE', ( #27, #175, #69, #118 ) ) ;
#242 = DIRECTION ( 'NONE',  ( -1.000000000000000000, 0.000000000000000000, 0.000000000000000000 ) ) ;
#243 = CARTESIAN_POINT ( 'NONE',  ( 0.000000000000000000, 40.00000000000000000, 0.000000000000000000 ) ) ;
#244 = ORIENTED_EDGE ( 'NONE', *, *, #60, .F. ) ;
#245 = SURFACE_SIDE_STYLE ('',( #107 ) ) ;
#246 = ORIENTED_EDGE ( 'NONE', *, *, #60, .T. ) ;
#247 = COLOUR_RGB ( '',1.000000000000000000, 0.000000000000000000, 0.000000000000000000 ) ;
#248 = LINE ( 'NONE', #134, #56 ) ;
#249 = VERTEX_POINT ( 'NONE', #36 ) ;
#250 = CARTESIAN_POINT ( 'NONE',  ( 4.897174800528513241E-33, 40.00000000000000000, 0.000000000000000000 ) ) ;
#251 = CARTESIAN_POINT ( 'NONE',  ( -1.714505518806293849E-15, 89.00000000000000000, 0.000000000000000000 ) ) ;
#252 = COLOUR_RGB ( '',1.000000000000000000, 0.000000000000000000, 0.000000000000000000 ) ;
#253 = FILL_AREA_STYLE ('',( #35 ) ) ;
#254 = DIRECTION ( 'NONE',  ( 0.000000000000000000, -1.000000000000000000, -0.000000000000000000 ) ) ;
#255 = EDGE_CURVE ( 'NONE', #249, #152, #183, .T. ) ;
#256 = AXIS2_PLACEMENT_3D ( 'NONE', #154, #138, #132 ) ;
#257 = PRODUCT_DEFINITION_CONTEXT ( 'detailed design', #54, 'design' ) ;
#258 =( NAMED_UNIT ( * ) SI_UNIT ( $, .STERADIAN. ) SOLID_ANGLE_UNIT ( ) );
#259 = SURFACE_SIDE_STYLE ('',( #101 ) ) ;
#260 = STYLED_ITEM ( 'NONE', ( #226 ), #231 ) ;
#261 = FILL_AREA_STYLE ('',( #84 ) ) ;
#262 = ORIENTED_EDGE ( 'NONE', *, *, #11, .F. ) ;
#263 =( NAMED_UNIT ( * ) SI_UNIT ( $, .STERADIAN. ) SOLID_ANGLE_UNIT ( ) );
#264 = DIRECTION ( 'NONE',  ( -3.498990854706722745E-17, 1.000000000000000000, -0.000000000000000000 ) ) ;
#265 = EDGE_CURVE ( 'NONE', #201, #44, #24, .T. ) ;
#266 = CARTESIAN_POINT ( 'NONE',  ( 0.000000000000000000, 40.00000000000000000, -8.000000000000000000 ) ) ;
#267 = AXIS2_PLACEMENT_3D ( 'NONE', #71, #28, #202 ) ;
#268 =( GEOMETRIC_REPRESENTATION_CONTEXT ( 3 ) GLOBAL_UNCERTAINTY_ASSIGNED_CONTEXT ( ( #204 ) ) GLOBAL_UNIT_ASSIGNED_CONTEXT ( ( #281, #38, #130 ) ) REPRESENTATION_CONTEXT ( 'NONE', 'WORKASPACE' ) );
#269 = ORIENTED_EDGE ( 'NONE', *, *, #255, .T. ) ;
#270 = DIRECTION ( 'NONE',  ( -0.000000000000000000, -1.000000000000000000, -0.000000000000000000 ) ) ;
#271 = PRODUCT ( '59779', '59779', '', ( #215 ) ) ;
#272 = PRODUCT_DEFINITION ( 'UNKNOWN', '', #70, #257 ) ;
#273 = CARTESIAN_POINT ( 'NONE',  ( 0.000000000000000000, 0.000000000000000000, -8.000000000000000000 ) ) ;
#274 = AXIS2_PLACEMENT_3D ( 'NONE', #212, #254, #186 ) ;
#275 = UNCERTAINTY_MEASURE_WITH_UNIT (LENGTH_MEASURE( 1.000000000000000082E-05 ), #19, 'distance_accuracy_value', 'NONE');
#276 = ADVANCED_FACE ( 'NONE', ( #283 ), #45, .T. ) ;
#277 =( NAMED_UNIT ( * ) SI_UNIT ( $, .STERADIAN. ) SOLID_ANGLE_UNIT ( ) );
#278 = PRESENTATION_STYLE_ASSIGNMENT (( #185 ) ) ;
#279 = STYLED_ITEM ( 'NONE', ( #3 ), #158 ) ;
#280 = APPLICATION_PROTOCOL_DEFINITION ( 'draft international standard', 'automotive_design', 1998, #54 ) ;
#281 =( LENGTH_UNIT ( ) NAMED_UNIT ( * ) SI_UNIT ( .MILLI., .METRE. ) );
#282 = LINE ( 'NONE', #103, #93 ) ;
#283 = FACE_OUTER_BOUND ( 'NONE', #241, .T. ) ;
#284 = ORIENTED_EDGE ( 'NONE', *, *, #213, .T. ) ;
#285 = ORIENTED_EDGE ( 'NONE', *, *, #255, .F. ) ;
#286 = CARTESIAN_POINT ( 'NONE',  ( 1.925929944387235853E-31, 40.00000000000000000, 0.000000000000000000 ) ) ;
#287 = DIRECTION ( 'NONE',  ( -0.000000000000000000, -1.000000000000000000, -0.000000000000000000 ) ) ;
#288 = CIRCLE ( 'NONE', #131, 8.000000000000000000 ) ;
ENDSEC;
END-ISO-10303-21;
