ISO-10303-21;
HEADER;
FILE_DESCRIPTION (( 'STEP AP214' ),
    '1' );
FILE_NAME ('Micro_BEMM-100-3.STEP',
    '2021-09-03T13:32:30',
    ( '' ),
    ( '' ),
    'SwSTEP 2.0',
    'SolidWorks 2020',
    '' );
FILE_SCHEMA (( 'AUTOMOTIVE_DESIGN' ));
ENDSEC;

DATA;
#1 = ORIENTED_EDGE ( 'NONE', *, *, #281, .F. ) ;
#2 = LINE ( 'NONE', #189, #180 ) ;
#3 = ORIENTED_EDGE ( 'NONE', *, *, #49, .T. ) ;
#4 = STYLED_ITEM ( 'NONE', ( #75 ), #312 ) ;
#5 = ADVANCED_FACE ( 'NONE', ( #214 ), #96, .T. ) ;
#6 = CARTESIAN_POINT ( 'NONE',  ( 0.0000000000000000000, 0.0000000000000000000, 0.0000000000000000000 ) ) ;
#7 = CARTESIAN_POINT ( 'NONE',  ( 3.612468936012307139E-17, 0.0000000000000000000, 0.0000000000000000000 ) ) ;
#8 = EDGE_LOOP ( 'NONE', ( #119, #292, #1 ) ) ;
#9 = CARTESIAN_POINT ( 'NONE',  ( 0.1966536495000001661, 0.0000000000000000000, 0.9842519999999999047 ) ) ;
#10 = ORIENTED_EDGE ( 'NONE', *, *, #252, .F. ) ;
#11 = CARTESIAN_POINT ( 'NONE',  ( 0.1818505000000002481, 2.227026327483460228E-17, 2.834646000000000665 ) ) ;
#12 = ORIENTED_EDGE ( 'NONE', *, *, #181, .T. ) ;
#13 = SURFACE_SIDE_STYLE ('',( #247 ) ) ;
#14 = DIRECTION ( 'NONE',  ( 0.0000000000000000000, 1.000000000000000000, 0.0000000000000000000 ) ) ;
#15 = PRODUCT_CONTEXT ( 'NONE', #255, 'mechanical' ) ;
#16 = DIRECTION ( 'NONE',  ( 1.000000000000000000, 0.0000000000000000000, 0.0000000000000000000 ) ) ;
#17 = LENGTH_MEASURE_WITH_UNIT ( LENGTH_MEASURE( 0.02539999999999999897 ), #20 );
#18 = CIRCLE ( 'NONE', #179, 0.1966536495000000273 ) ;
#19 = FACE_OUTER_BOUND ( 'NONE', #241, .T. ) ;
#20 =( LENGTH_UNIT ( ) NAMED_UNIT ( * ) SI_UNIT ( $, .METRE. ) );
#21 = CARTESIAN_POINT ( 'NONE',  ( -0.1966536494999999996, 0.0000000000000000000, 0.1966536495000000273 ) ) ;
#22 = LENGTH_MEASURE_WITH_UNIT ( LENGTH_MEASURE( 0.02539999999999999897 ), #130 );
#23 = ORIENTED_EDGE ( 'NONE', *, *, #296, .T. ) ;
#24 =( GEOMETRIC_REPRESENTATION_CONTEXT ( 3 ) GLOBAL_UNCERTAINTY_ASSIGNED_CONTEXT ( ( #104 ) ) GLOBAL_UNIT_ASSIGNED_CONTEXT ( ( #139, #160, #220 ) ) REPRESENTATION_CONTEXT ( 'NONE', 'WORKASPACE' ) );
#25 = EDGE_LOOP ( 'NONE', ( #115, #185, #213, #166 ) ) ;
#26 = PRODUCT_DEFINITION ( 'UNKNOWN', '', #246, #305 ) ;
#27 = AXIS2_PLACEMENT_3D ( 'NONE', #6, #311, #194 ) ;
#28 = AXIS2_PLACEMENT_3D ( 'NONE', #162, #208, #242 ) ;
#29 = LINE ( 'NONE', #136, #51 ) ;
#30 = SURFACE_STYLE_FILL_AREA ( #262 ) ;
#31 = ORIENTED_EDGE ( 'NONE', *, *, #235, .F. ) ;
#32 = CARTESIAN_POINT ( 'NONE',  ( -0.1966536495000000273, 0.0000000000000000000, 2.408312624008205478E-17 ) ) ;
#33 = CARTESIAN_POINT ( 'NONE',  ( -0.1818505000000002481, 0.0000000000000000000, 2.834646000000000665 ) ) ;
#34 = CONICAL_SURFACE ( 'NONE', #182, 0.1818505000000002481, 0.7853981633974312926 ) ;
#35 = DIRECTION ( 'NONE',  ( -1.224646799147353207E-16, -0.0000000000000000000, -1.000000000000000000 ) ) ;
#36 = DIRECTION ( 'NONE',  ( 0.0000000000000000000, 0.0000000000000000000, -1.000000000000000000 ) ) ;
#37 = DIRECTION ( 'NONE',  ( 0.0000000000000000000, 0.0000000000000000000, 1.000000000000000000 ) ) ;
#38 = VERTEX_POINT ( 'NONE', #33 ) ;
#39 = CIRCLE ( 'NONE', #210, 0.1968504999999999838 ) ;
#40 = CARTESIAN_POINT ( 'NONE',  ( 0.1818505000000002481, 2.318874837419510283E-17, 2.834646000000000665 ) ) ;
#41 = MECHANICAL_DESIGN_GEOMETRIC_PRESENTATION_REPRESENTATION (  '', ( #240 ), #315 ) ;
#42 = DIRECTION ( 'NONE',  ( -1.000000000000000000, 0.0000000000000000000, 1.736458998224860523E-16 ) ) ;
#43 = SPHERICAL_SURFACE ( 'NONE', #165, 0.1966536494999999996 ) ;
#44 = SHAPE_DEFINITION_REPRESENTATION ( #184, #312 ) ;
#45 = CARTESIAN_POINT ( 'NONE',  ( 0.1966536495000001661, 0.0000000000000000000, 0.9842519999999999047 ) ) ;
#46 = CIRCLE ( 'NONE', #218, 0.1818505000000002481 ) ;
#47 = CIRCLE ( 'NONE', #280, 0.1968504999999999838 ) ;
#48 = CARTESIAN_POINT ( 'NONE',  ( 0.0000000000000000000, 0.0000000000000000000, 2.819646000000000097 ) ) ;
#49 = EDGE_CURVE ( 'NONE', #258, #295, #143, .T. ) ;
#50 = COLOUR_RGB ( '',0.7921568627450980005, 0.8196078431372548767, 0.9333333333333333481 ) ;
#51 = VECTOR ( 'NONE', #234, 39.37007874015748143 ) ;
#52 = MECHANICAL_DESIGN_GEOMETRIC_PRESENTATION_REPRESENTATION (  '', ( #4 ), #108 ) ;
#53 = CYLINDRICAL_SURFACE ( 'NONE', #193, 0.1966536495000000273 ) ;
#54 =( NAMED_UNIT ( * ) SI_UNIT ( $, .STERADIAN. ) SOLID_ANGLE_UNIT ( ) );
#55 = ADVANCED_FACE ( 'NONE', ( #313 ), #164, .T. ) ;
#56 = CARTESIAN_POINT ( 'NONE',  ( 1.205361061354380629E-16, 0.0000000000000000000, 0.9842519999999999047 ) ) ;
#57 = SURFACE_STYLE_USAGE ( .BOTH. , #288 ) ;
#58 = ORIENTED_EDGE ( 'NONE', *, *, #86, .T. ) ;
#59 = APPLICATION_PROTOCOL_DEFINITION ( 'draft international standard', 'automotive_design', 1998, #255 ) ;
#60 = ORIENTED_EDGE ( 'NONE', *, *, #304, .T. ) ;
#61 = ORIENTED_EDGE ( 'NONE', *, *, #265, .T. ) ;
#62 = DIRECTION ( 'NONE',  ( -1.000000000000000000, 0.0000000000000000000, 1.736458998224860523E-16 ) ) ;
#63 = ADVANCED_FACE ( 'NONE', ( #211 ), #219, .T. ) ;
#64 = ORIENTED_EDGE ( 'NONE', *, *, #274, .F. ) ;
#65 = CARTESIAN_POINT ( 'NONE',  ( 0.0000000000000000000, 0.0000000000000000000, 2.834646000000000665 ) ) ;
#66 = ORIENTED_EDGE ( 'NONE', *, *, #101, .T. ) ;
#67 = FACE_OUTER_BOUND ( 'NONE', #271, .T. ) ;
#68 = DIRECTION ( 'NONE',  ( 0.0000000000000000000, 0.0000000000000000000, -1.000000000000000000 ) ) ;
#69 = VECTOR ( 'NONE', #117, 39.37007874015748854 ) ;
#70 = AXIS2_PLACEMENT_3D ( 'NONE', #228, #322, #100 ) ;
#71 = DIRECTION ( 'NONE',  ( -1.224646799147353207E-16, -0.0000000000000000000, -1.000000000000000000 ) ) ;
#72 = ADVANCED_FACE ( 'NONE', ( #267 ), #285, .T. ) ;
#73 = CARTESIAN_POINT ( 'NONE',  ( 0.1966536495000000828, 2.408312624008205478E-17, 0.1966536494999999718 ) ) ;
#74 = DIRECTION ( 'NONE',  ( -1.224646799147353207E-16, -0.0000000000000000000, -1.000000000000000000 ) ) ;
#75 = PRESENTATION_STYLE_ASSIGNMENT (( #57 ) ) ;
#76 = AXIS2_PLACEMENT_3D ( 'NONE', #251, #250, #203 ) ;
#77 = ADVANCED_FACE ( 'NONE', ( #190 ), #53, .T. ) ;
#78 = AXIS2_PLACEMENT_3D ( 'NONE', #178, #275, #152 ) ;
#79 = CLOSED_SHELL ( 'NONE', ( #134, #77, #5, #72, #325, #153, #260, #127, #225, #63, #55 ) ) ;
#80 = AXIS2_PLACEMENT_3D ( 'NONE', #129, #99, #224 ) ;
#81 = ORIENTED_EDGE ( 'NONE', *, *, #257, .T. ) ;
#82 = ORIENTED_EDGE ( 'NONE', *, *, #304, .F. ) ;
#83 = DIRECTION ( 'NONE',  ( -1.000000000000000000, 0.0000000000000000000, 0.0000000000000000000 ) ) ;
#84 = LINE ( 'NONE', #32, #306 ) ;
#85 = DIRECTION ( 'NONE',  ( 1.000000000000000000, 0.0000000000000000000, 0.0000000000000000000 ) ) ;
#86 = EDGE_CURVE ( 'NONE', #295, #138, #29, .T. ) ;
#87 = EDGE_LOOP ( 'NONE', ( #188, #245, #60, #31 ) ) ;
#88 = CIRCLE ( 'NONE', #76, 0.1968504999999999838 ) ;
#89 = ORIENTED_EDGE ( 'NONE', *, *, #205, .F. ) ;
#90 = CARTESIAN_POINT ( 'NONE',  ( -0.1968504999999999838, 0.0000000000000000000, 2.834646000000000665 ) ) ;
#91 = CARTESIAN_POINT ( 'NONE',  ( 0.0000000000000000000, 0.0000000000000000000, 0.0000000000000000000 ) ) ;
#92 = DIRECTION ( 'NONE',  ( 0.0000000000000000000, 0.0000000000000000000, 1.000000000000000000 ) ) ;
#93 = PRODUCT_RELATED_PRODUCT_CATEGORY ( 'part', '', ( #233 ) ) ;
#94 = FACE_OUTER_BOUND ( 'NONE', #309, .T. ) ;
#95 =( NAMED_UNIT ( * ) SI_UNIT ( $, .STERADIAN. ) SOLID_ANGLE_UNIT ( ) );
#96 = CONICAL_SURFACE ( 'NONE', #307, 0.1966536495000000273, 0.1745329251994339470 ) ;
#97 = AXIS2_PLACEMENT_3D ( 'NONE', #65, #264, #113 ) ;
#98 = FACE_OUTER_BOUND ( 'NONE', #87, .T. ) ;
#99 = DIRECTION ( 'NONE',  ( 0.0000000000000000000, 0.0000000000000000000, 1.000000000000000000 ) ) ;
#100 = DIRECTION ( 'NONE',  ( 1.000000000000000000, 0.0000000000000000000, 0.0000000000000000000 ) ) ;
#101 = EDGE_CURVE ( 'NONE', #244, #295, #47, .T. ) ;
#102 =( CONVERSION_BASED_UNIT ( 'INCH', #22 ) LENGTH_UNIT ( ) NAMED_UNIT ( #198 ) );
#103 = CIRCLE ( 'NONE', #207, 0.1966536494999999996 ) ;
#104 = UNCERTAINTY_MEASURE_WITH_UNIT (LENGTH_MEASURE( 1.000000000000000082E-05 ), #139, 'distance_accuracy_value', 'NONE');
#105 = CARTESIAN_POINT ( 'NONE',  ( 0.0000000000000000000, 0.0000000000000000000, 2.819646000000000097 ) ) ;
#106 = LINE ( 'NONE', #9, #158 ) ;
#107 = ORIENTED_EDGE ( 'NONE', *, *, #230, .F. ) ;
#108 =( GEOMETRIC_REPRESENTATION_CONTEXT ( 3 ) GLOBAL_UNCERTAINTY_ASSIGNED_CONTEXT ( ( #133 ) ) GLOBAL_UNIT_ASSIGNED_CONTEXT ( ( #276, #171, #95 ) ) REPRESENTATION_CONTEXT ( 'NONE', 'WORKASPACE' ) );
#109 = DIRECTION ( 'NONE',  ( 0.0000000000000000000, 1.000000000000000000, 0.0000000000000000000 ) ) ;
#110 = LINE ( 'NONE', #90, #131 ) ;
#111 = ORIENTED_EDGE ( 'NONE', *, *, #195, .T. ) ;
#112 = ORIENTED_EDGE ( 'NONE', *, *, #257, .F. ) ;
#113 = DIRECTION ( 'NONE',  ( 1.000000000000000000, 0.0000000000000000000, -0.0000000000000000000 ) ) ;
#114 = ORIENTED_EDGE ( 'NONE', *, *, #123, .T. ) ;
#115 = ORIENTED_EDGE ( 'NONE', *, *, #183, .T. ) ;
#116 = AXIS2_PLACEMENT_3D ( 'NONE', #291, #109, #85 ) ;
#117 = DIRECTION ( 'NONE',  ( 0.7071067811865354713, 8.659560562354783714E-17, -0.7071067811865594521 ) ) ;
#118 = PRESENTATION_LAYER_ASSIGNMENT (  '', '', ( #240 ) ) ;
#119 = ORIENTED_EDGE ( 'NONE', *, *, #181, .F. ) ;
#120 = DIMENSIONAL_EXPONENTS ( 1.000000000000000000, 0.0000000000000000000, 0.0000000000000000000, 0.0000000000000000000, 0.0000000000000000000, 0.0000000000000000000, 0.0000000000000000000 ) ;
#121 = FILL_AREA_STYLE ('',( #148 ) ) ;
#122 = ORIENTED_EDGE ( 'NONE', *, *, #123, .F. ) ;
#123 = EDGE_CURVE ( 'NONE', #216, #209, #256, .T. ) ;
#124 = CARTESIAN_POINT ( 'NONE',  ( 2.408312624008205170E-17, 0.0000000000000000000, 0.1966536494999999996 ) ) ;
#125 = DIRECTION ( 'NONE',  ( -1.000000000000000000, 0.0000000000000000000, 0.0000000000000000000 ) ) ;
#126 = AXIS2_PLACEMENT_3D ( 'NONE', #128, #223, #200 ) ;
#127 = ADVANCED_FACE ( 'NONE', ( #98 ), #34, .T. ) ;
#128 = CARTESIAN_POINT ( 'NONE',  ( 1.205361061354380629E-16, 0.0000000000000000000, 0.9842519999999999047 ) ) ;
#129 = CARTESIAN_POINT ( 'NONE',  ( 0.0000000000000000000, 0.0000000000000000000, 0.0000000000000000000 ) ) ;
#130 =( LENGTH_UNIT ( ) NAMED_UNIT ( * ) SI_UNIT ( $, .METRE. ) );
#131 = VECTOR ( 'NONE', #186, 39.37007874015748143 ) ;
#132 = ORIENTED_EDGE ( 'NONE', *, *, #320, .F. ) ;
#133 = UNCERTAINTY_MEASURE_WITH_UNIT (LENGTH_MEASURE( 1.000000000000000082E-05 ), #276, 'distance_accuracy_value', 'NONE');
#134 = ADVANCED_FACE ( 'NONE', ( #67 ), #43, .T. ) ;
#135 = APPLICATION_CONTEXT ( 'automotive_design' ) ;
#136 = CARTESIAN_POINT ( 'NONE',  ( 0.1968504999999999838, 2.410723347355560646E-17, 2.834646000000000665 ) ) ;
#137 = LINE ( 'NONE', #212, #175 ) ;
#138 = VERTEX_POINT ( 'NONE', #174 ) ;
#139 =( CONVERSION_BASED_UNIT ( 'INCH', #215 ) LENGTH_UNIT ( ) NAMED_UNIT ( #249 ) );
#140 = AXIS2_PLACEMENT_3D ( 'NONE', #297, #71, #125 ) ;
#141 = FACE_OUTER_BOUND ( 'NONE', #197, .T. ) ;
#142 = VERTEX_POINT ( 'NONE', #73 ) ;
#143 = LINE ( 'NONE', #11, #69 ) ;
#144 = DIRECTION ( 'NONE',  ( 1.000000000000000000, 0.0000000000000000000, 0.0000000000000000000 ) ) ;
#145 = ORIENTED_EDGE ( 'NONE', *, *, #235, .T. ) ;
#146 = EDGE_LOOP ( 'NONE', ( #132, #3, #151, #82 ) ) ;
#147 = VECTOR ( 'NONE', #278, 39.37007874015748143 ) ;
#148 = FILL_AREA_STYLE_COLOUR ( '', #50 ) ;
#149 = EDGE_CURVE ( 'NONE', #142, #163, #18, .T. ) ;
#150 = CARTESIAN_POINT ( 'NONE',  ( 2.408312624008205170E-17, 0.0000000000000000000, 0.1966536494999999996 ) ) ;
#151 = ORIENTED_EDGE ( 'NONE', *, *, #101, .F. ) ;
#152 = DIRECTION ( 'NONE',  ( -1.000000000000000000, 0.0000000000000000000, 0.0000000000000000000 ) ) ;
#153 = ADVANCED_FACE ( 'NONE', ( #94 ), #270, .T. ) ;
#154 = DIRECTION ( 'NONE',  ( 0.0000000000000000000, 0.0000000000000000000, -1.000000000000000000 ) ) ;
#155 = DIRECTION ( 'NONE',  ( 0.0000000000000000000, 0.0000000000000000000, -1.000000000000000000 ) ) ;
#156 = PRESENTATION_STYLE_ASSIGNMENT (( #222 ) ) ;
#157 = EDGE_CURVE ( 'NONE', #38, #258, #46, .T. ) ;
#158 = VECTOR ( 'NONE', #236, 39.37007874015748143 ) ;
#159 = EDGE_LOOP ( 'NONE', ( #290, #221 ) ) ;
#160 =( NAMED_UNIT ( * ) PLANE_ANGLE_UNIT ( ) SI_UNIT ( $, .RADIAN. ) );
#161 = DIRECTION ( 'NONE',  ( 1.000000000000000000, 0.0000000000000000000, 0.0000000000000000000 ) ) ;
#162 = CARTESIAN_POINT ( 'NONE',  ( 0.0000000000000000000, 0.0000000000000000000, 2.834646000000000665 ) ) ;
#163 = VERTEX_POINT ( 'NONE', #21 ) ;
#164 = SPHERICAL_SURFACE ( 'NONE', #116, 0.1966536494999999996 ) ;
#165 = AXIS2_PLACEMENT_3D ( 'NONE', #124, #14, #319 ) ;
#166 = ORIENTED_EDGE ( 'NONE', *, *, #265, .F. ) ;
#167 = CARTESIAN_POINT ( 'NONE',  ( 0.1968504999999999838, 2.410723347355560646E-17, 2.819646000000000097 ) ) ;
#168 = ORIENTED_EDGE ( 'NONE', *, *, #86, .F. ) ;
#169 = CARTESIAN_POINT ( 'NONE',  ( 2.408312624008205170E-17, 0.0000000000000000000, 0.1966536494999999996 ) ) ;
#170 = DIRECTION ( 'NONE',  ( 0.0000000000000000000, 0.0000000000000000000, -1.000000000000000000 ) ) ;
#171 =( NAMED_UNIT ( * ) PLANE_ANGLE_UNIT ( ) SI_UNIT ( $, .RADIAN. ) );
#172 = ORIENTED_EDGE ( 'NONE', *, *, #183, .F. ) ;
#173 = CIRCLE ( 'NONE', #204, 0.1966536495000000273 ) ;
#174 = CARTESIAN_POINT ( 'NONE',  ( 0.1968505000000001226, 2.410723347355561878E-17, 0.9853683946618323475 ) ) ;
#175 = VECTOR ( 'NONE', #191, 39.37007874015748143 ) ;
#176 = DIRECTION ( 'NONE',  ( -1.000000000000000000, 1.224646799147353207E-16, 0.0000000000000000000 ) ) ;
#177 = DIRECTION ( 'NONE',  ( 1.000000000000000000, 0.0000000000000000000, 0.0000000000000000000 ) ) ;
#178 = CARTESIAN_POINT ( 'NONE',  ( 0.0000000000000000000, 0.0000000000000000000, 2.834646000000000665 ) ) ;
#179 = AXIS2_PLACEMENT_3D ( 'NONE', #202, #273, #42 ) ;
#180 = VECTOR ( 'NONE', #268, 39.37007874015748854 ) ;
#181 = EDGE_CURVE ( 'NONE', #317, #163, #232, .T. ) ;
#182 = AXIS2_PLACEMENT_3D ( 'NONE', #294, #154, #321 ) ;
#183 = EDGE_CURVE ( 'NONE', #209, #216, #266, .T. ) ;
#184 = PRODUCT_DEFINITION_SHAPE ( 'NONE', 'NONE',  #26 ) ;
#185 = ORIENTED_EDGE ( 'NONE', *, *, #274, .T. ) ;
#186 = DIRECTION ( 'NONE',  ( -0.0000000000000000000, -0.0000000000000000000, -1.000000000000000000 ) ) ;
#187 = VERTEX_POINT ( 'NONE', #318 ) ;
#188 = ORIENTED_EDGE ( 'NONE', *, *, #49, .F. ) ;
#189 = CARTESIAN_POINT ( 'NONE',  ( -0.1818505000000002481, 0.0000000000000000000, 2.834646000000000665 ) ) ;
#190 = FACE_OUTER_BOUND ( 'NONE', #25, .T. ) ;
#191 = DIRECTION ( 'NONE',  ( -1.224646799147353207E-16, -0.0000000000000000000, -1.000000000000000000 ) ) ;
#192 = EDGE_LOOP ( 'NONE', ( #64, #114, #61, #237 ) ) ;
#193 = AXIS2_PLACEMENT_3D ( 'NONE', #91, #284, #261 ) ;
#194 = DIRECTION ( 'NONE',  ( -1.000000000000000000, 0.0000000000000000000, 1.224646799147353207E-16 ) ) ;
#195 = EDGE_CURVE ( 'NONE', #187, #138, #88, .T. ) ;
#196 = CARTESIAN_POINT ( 'NONE',  ( -0.1966536494999999163, 2.408312624008205478E-17, 0.9842519999999999047 ) ) ;
#197 = EDGE_LOOP ( 'NONE', ( #66, #58, #316, #112 ) ) ;
#198 = DIMENSIONAL_EXPONENTS ( 1.000000000000000000, 0.0000000000000000000, 0.0000000000000000000, 0.0000000000000000000, 0.0000000000000000000, 0.0000000000000000000, 0.0000000000000000000 ) ;
#199 = CARTESIAN_POINT ( 'NONE',  ( 2.408312624008205170E-17, 0.0000000000000000000, 0.1966536494999999996 ) ) ;
#200 = DIRECTION ( 'NONE',  ( -1.000000000000000000, 0.0000000000000000000, 0.0000000000000000000 ) ) ;
#201 = AXIS2_PLACEMENT_3D ( 'NONE', #217, #37, #144 ) ;
#202 = CARTESIAN_POINT ( 'NONE',  ( 2.408312624008205170E-17, 0.0000000000000000000, 0.1966536494999999996 ) ) ;
#203 = DIRECTION ( 'NONE',  ( 1.000000000000000000, 0.0000000000000000000, 0.0000000000000000000 ) ) ;
#204 = AXIS2_PLACEMENT_3D ( 'NONE', #169, #269, #62 ) ;
#205 = EDGE_CURVE ( 'NONE', #138, #187, #259, .T. ) ;
#206 = EDGE_LOOP ( 'NONE', ( #172, #287, #111, #243 ) ) ;
#207 = AXIS2_PLACEMENT_3D ( 'NONE', #199, #323, #170 ) ;
#208 = DIRECTION ( 'NONE',  ( -0.0000000000000000000, -0.0000000000000000000, -1.000000000000000000 ) ) ;
#209 = VERTEX_POINT ( 'NONE', #227 ) ;
#210 = AXIS2_PLACEMENT_3D ( 'NONE', #48, #155, #253 ) ;
#211 = FACE_OUTER_BOUND ( 'NONE', #192, .T. ) ;
#212 = CARTESIAN_POINT ( 'NONE',  ( 0.1966536495000000273, 2.408312624008205478E-17, -2.408312624008205478E-17 ) ) ;
#213 = ORIENTED_EDGE ( 'NONE', *, *, #149, .T. ) ;
#214 = FACE_OUTER_BOUND ( 'NONE', #206, .T. ) ;
#215 = LENGTH_MEASURE_WITH_UNIT ( LENGTH_MEASURE( 0.02539999999999999897 ), #310 );
#216 = VERTEX_POINT ( 'NONE', #45 ) ;
#217 = CARTESIAN_POINT ( 'NONE',  ( 0.0000000000000000000, 0.0000000000000000000, 2.834646000000000665 ) ) ;
#218 = AXIS2_PLACEMENT_3D ( 'NONE', #299, #92, #300 ) ;
#219 = CYLINDRICAL_SURFACE ( 'NONE', #27, 0.1966536495000000273 ) ;
#220 =( NAMED_UNIT ( * ) SI_UNIT ( $, .STERADIAN. ) SOLID_ANGLE_UNIT ( ) );
#221 = ORIENTED_EDGE ( 'NONE', *, *, #320, .T. ) ;
#222 = SURFACE_STYLE_USAGE ( .BOTH. , #13 ) ;
#223 = DIRECTION ( 'NONE',  ( -1.224646799147353207E-16, -0.0000000000000000000, -1.000000000000000000 ) ) ;
#224 = DIRECTION ( 'NONE',  ( 1.000000000000000000, 0.0000000000000000000, 0.0000000000000000000 ) ) ;
#225 = ADVANCED_FACE ( 'NONE', ( #19 ), #272, .T. ) ;
#226 = AXIS2_PLACEMENT_3D ( 'NONE', #150, #248, #176 ) ;
#227 = CARTESIAN_POINT ( 'NONE',  ( -0.1966536494999999163, 2.409517985681882908E-17, 0.9842519999999999047 ) ) ;
#228 = CARTESIAN_POINT ( 'NONE',  ( 1.205361061354380629E-16, 0.0000000000000000000, 0.9842519999999999047 ) ) ;
#229 = CARTESIAN_POINT ( 'NONE',  ( -0.1968504999999999838, 0.0000000000000000000, 2.819646000000000097 ) ) ;
#230 = EDGE_CURVE ( 'NONE', #209, #187, #301, .T. ) ;
#231 = PRESENTATION_LAYER_ASSIGNMENT (  '', '', ( #4 ) ) ;
#232 = CIRCLE ( 'NONE', #226, 0.1966536494999999996 ) ;
#233 = PRODUCT ( 'Micro_BEMM-100-3', 'Micro_BEMM-100-3', '', ( #15 ) ) ;
#234 = DIRECTION ( 'NONE',  ( -0.0000000000000000000, -0.0000000000000000000, -1.000000000000000000 ) ) ;
#235 = EDGE_CURVE ( 'NONE', #295, #244, #39, .T. ) ;
#236 = DIRECTION ( 'NONE',  ( 0.1736481776669314414, 0.0000000000000000000, 0.9848077530122077983 ) ) ;
#237 = ORIENTED_EDGE ( 'NONE', *, *, #281, .T. ) ;
#238 = DIRECTION ( 'NONE',  ( 1.224646799147353207E-16, 0.0000000000000000000, 1.000000000000000000 ) ) ;
#239 = CYLINDRICAL_SURFACE ( 'NONE', #28, 0.1968504999999999838 ) ;
#240 = STYLED_ITEM ( 'NONE', ( #156 ), #254 ) ;
#241 = EDGE_LOOP ( 'NONE', ( #107, #122, #23, #289 ) ) ;
#242 = DIRECTION ( 'NONE',  ( -1.000000000000000000, 0.0000000000000000000, 0.0000000000000000000 ) ) ;
#243 = ORIENTED_EDGE ( 'NONE', *, *, #296, .F. ) ;
#244 = VERTEX_POINT ( 'NONE', #229 ) ;
#245 = ORIENTED_EDGE ( 'NONE', *, *, #157, .F. ) ;
#246 = PRODUCT_DEFINITION_FORMATION_WITH_SPECIFIED_SOURCE ( 'ANY', '', #233, .NOT_KNOWN. ) ;
#247 = SURFACE_STYLE_FILL_AREA ( #121 ) ;
#248 = DIRECTION ( 'NONE',  ( 1.224646799147353207E-16, 1.000000000000000000, -0.0000000000000000000 ) ) ;
#249 = DIMENSIONAL_EXPONENTS ( 1.000000000000000000, 0.0000000000000000000, 0.0000000000000000000, 0.0000000000000000000, 0.0000000000000000000, 0.0000000000000000000, 0.0000000000000000000 ) ;
#250 = DIRECTION ( 'NONE',  ( -1.224646799147353207E-16, -0.0000000000000000000, -1.000000000000000000 ) ) ;
#251 = CARTESIAN_POINT ( 'NONE',  ( 1.206728250503578783E-16, 0.0000000000000000000, 0.9853683946618323475 ) ) ;
#252 = EDGE_CURVE ( 'NONE', #317, #142, #103, .T. ) ;
#253 = DIRECTION ( 'NONE',  ( 1.000000000000000000, 0.0000000000000000000, 0.0000000000000000000 ) ) ;
#254 = MANIFOLD_SOLID_BREP ( 'Fillet1', #79 ) ;
#255 = APPLICATION_CONTEXT ( 'automotive_design' ) ;
#256 = CIRCLE ( 'NONE', #140, 0.1966536495000000273 ) ;
#257 = EDGE_CURVE ( 'NONE', #244, #187, #110, .T. ) ;
#258 = VERTEX_POINT ( 'NONE', #40 ) ;
#259 = CIRCLE ( 'NONE', #303, 0.1968504999999999838 ) ;
#260 = ADVANCED_FACE ( 'NONE', ( #293 ), #308, .T. ) ;
#261 = DIRECTION ( 'NONE',  ( -1.000000000000000000, 0.0000000000000000000, 1.224646799147353207E-16 ) ) ;
#262 = FILL_AREA_STYLE ('',( #286 ) ) ;
#263 = CARTESIAN_POINT ( 'NONE',  ( 0.0000000000000000000, 0.0000000000000000000, 2.834646000000000665 ) ) ;
#264 = DIRECTION ( 'NONE',  ( 0.0000000000000000000, 0.0000000000000000000, 1.000000000000000000 ) ) ;
#265 = EDGE_CURVE ( 'NONE', #209, #163, #84, .T. ) ;
#266 = CIRCLE ( 'NONE', #126, 0.1966536495000000273 ) ;
#267 = FACE_OUTER_BOUND ( 'NONE', #146, .T. ) ;
#268 = DIRECTION ( 'NONE',  ( -0.7071067811865354713, 0.0000000000000000000, -0.7071067811865594521 ) ) ;
#269 = DIRECTION ( 'NONE',  ( 1.224646799147353207E-16, 0.0000000000000000000, 1.000000000000000000 ) ) ;
#270 = CYLINDRICAL_SURFACE ( 'NONE', #78, 0.1968504999999999838 ) ;
#271 = EDGE_LOOP ( 'NONE', ( #10, #12, #282 ) ) ;
#272 = CONICAL_SURFACE ( 'NONE', #70, 0.1966536495000000273, 0.1745329251994339470 ) ;
#273 = DIRECTION ( 'NONE',  ( 1.224646799147353207E-16, 0.0000000000000000000, 1.000000000000000000 ) ) ;
#274 = EDGE_CURVE ( 'NONE', #216, #142, #137, .T. ) ;
#275 = DIRECTION ( 'NONE',  ( -0.0000000000000000000, -0.0000000000000000000, -1.000000000000000000 ) ) ;
#276 =( CONVERSION_BASED_UNIT ( 'INCH', #17 ) LENGTH_UNIT ( ) NAMED_UNIT ( #120 ) );
#277 = CARTESIAN_POINT ( 'NONE',  ( 1.206728250503578783E-16, 0.0000000000000000000, 0.9853683946618323475 ) ) ;
#278 = DIRECTION ( 'NONE',  ( -0.1736481776669312194, 2.126576849575783625E-17, 0.9848077530122077983 ) ) ;
#279 =( NAMED_UNIT ( * ) PLANE_ANGLE_UNIT ( ) SI_UNIT ( $, .RADIAN. ) );
#280 = AXIS2_PLACEMENT_3D ( 'NONE', #105, #68, #16 ) ;
#281 = EDGE_CURVE ( 'NONE', #163, #142, #173, .T. ) ;
#282 = ORIENTED_EDGE ( 'NONE', *, *, #149, .F. ) ;
#283 = COLOUR_RGB ( '',0.7921568627450980005, 0.8196078431372548767, 0.9333333333333333481 ) ;
#284 = DIRECTION ( 'NONE',  ( -1.224646799147353207E-16, -0.0000000000000000000, -1.000000000000000000 ) ) ;
#285 = CONICAL_SURFACE ( 'NONE', #314, 0.1818505000000002481, 0.7853981633974312926 ) ;
#286 = FILL_AREA_STYLE_COLOUR ( '', #283 ) ;
#287 = ORIENTED_EDGE ( 'NONE', *, *, #230, .T. ) ;
#288 = SURFACE_SIDE_STYLE ('',( #30 ) ) ;
#289 = ORIENTED_EDGE ( 'NONE', *, *, #205, .T. ) ;
#290 = ORIENTED_EDGE ( 'NONE', *, *, #157, .T. ) ;
#291 = CARTESIAN_POINT ( 'NONE',  ( 2.408312624008205170E-17, 0.0000000000000000000, 0.1966536494999999996 ) ) ;
#292 = ORIENTED_EDGE ( 'NONE', *, *, #252, .T. ) ;
#293 = FACE_OUTER_BOUND ( 'NONE', #159, .T. ) ;
#294 = CARTESIAN_POINT ( 'NONE',  ( 0.0000000000000000000, 0.0000000000000000000, 2.834646000000000665 ) ) ;
#295 = VERTEX_POINT ( 'NONE', #167 ) ;
#296 = EDGE_CURVE ( 'NONE', #216, #138, #106, .T. ) ;
#297 = CARTESIAN_POINT ( 'NONE',  ( 1.205361061354380629E-16, 0.0000000000000000000, 0.9842519999999999047 ) ) ;
#298 = CIRCLE ( 'NONE', #201, 0.1818505000000002481 ) ;
#299 = CARTESIAN_POINT ( 'NONE',  ( 0.0000000000000000000, 0.0000000000000000000, 2.834646000000000665 ) ) ;
#300 = DIRECTION ( 'NONE',  ( 1.000000000000000000, 0.0000000000000000000, 0.0000000000000000000 ) ) ;
#301 = LINE ( 'NONE', #196, #147 ) ;
#302 = APPLICATION_PROTOCOL_DEFINITION ( 'draft international standard', 'automotive_design', 1998, #135 ) ;
#303 = AXIS2_PLACEMENT_3D ( 'NONE', #277, #74, #177 ) ;
#304 = EDGE_CURVE ( 'NONE', #38, #244, #2, .T. ) ;
#305 = PRODUCT_DEFINITION_CONTEXT ( 'detailed design', #135, 'design' ) ;
#306 = VECTOR ( 'NONE', #35, 39.37007874015748143 ) ;
#307 = AXIS2_PLACEMENT_3D ( 'NONE', #56, #238, #161 ) ;
#308 = PLANE ( 'NONE',  #97 ) ;
#309 = EDGE_LOOP ( 'NONE', ( #168, #145, #81, #89 ) ) ;
#310 =( LENGTH_UNIT ( ) NAMED_UNIT ( * ) SI_UNIT ( $, .METRE. ) );
#311 = DIRECTION ( 'NONE',  ( -1.224646799147353207E-16, -0.0000000000000000000, -1.000000000000000000 ) ) ;
#312 = ADVANCED_BREP_SHAPE_REPRESENTATION ( 'Micro_BEMM-100-3', ( #254, #80 ), #24 ) ;
#313 = FACE_OUTER_BOUND ( 'NONE', #8, .T. ) ;
#314 = AXIS2_PLACEMENT_3D ( 'NONE', #263, #36, #83 ) ;
#315 =( GEOMETRIC_REPRESENTATION_CONTEXT ( 3 ) GLOBAL_UNCERTAINTY_ASSIGNED_CONTEXT ( ( #324 ) ) GLOBAL_UNIT_ASSIGNED_CONTEXT ( ( #102, #279, #54 ) ) REPRESENTATION_CONTEXT ( 'NONE', 'WORKASPACE' ) );
#316 = ORIENTED_EDGE ( 'NONE', *, *, #195, .F. ) ;
#317 = VERTEX_POINT ( 'NONE', #7 ) ;
#318 = CARTESIAN_POINT ( 'NONE',  ( -0.1968504999999998450, 0.0000000000000000000, 0.9853683946618323475 ) ) ;
#319 = DIRECTION ( 'NONE',  ( 1.000000000000000000, 0.0000000000000000000, 0.0000000000000000000 ) ) ;
#320 = EDGE_CURVE ( 'NONE', #258, #38, #298, .T. ) ;
#321 = DIRECTION ( 'NONE',  ( -1.000000000000000000, 0.0000000000000000000, 0.0000000000000000000 ) ) ;
#322 = DIRECTION ( 'NONE',  ( 1.224646799147353207E-16, 0.0000000000000000000, 1.000000000000000000 ) ) ;
#323 = DIRECTION ( 'NONE',  ( 0.0000000000000000000, -1.000000000000000000, 0.0000000000000000000 ) ) ;
#324 = UNCERTAINTY_MEASURE_WITH_UNIT (LENGTH_MEASURE( 1.000000000000000082E-05 ), #102, 'distance_accuracy_value', 'NONE');
#325 = ADVANCED_FACE ( 'NONE', ( #141 ), #239, .T. ) ;
ENDSEC;
END-ISO-10303-21;
