ISO-10303-21;
HEADER;
FILE_DESCRIPTION (( 'STEP AP214' ),
    '1' );
FILE_NAME ('17555.STEP',
    '2023-06-30T21:54:20',
    ( '' ),
    ( '' ),
    'SwSTEP 2.0',
    'SolidWorks 2023',
    '' );
FILE_SCHEMA (( 'AUTOMOTIVE_DESIGN' ));
ENDSEC;

DATA;
#1 = SURFACE_SIDE_STYLE ('',( #67 ) ) ;
#2 = DIRECTION ( 'NONE',  ( 0.000000000000000000, 0.000000000000000000, -1.000000000000000000 ) ) ;
#3 = CARTESIAN_POINT ( 'NONE',  ( 0.000000000000000000, 0.3125000000000000555, 0.000000000000000000 ) ) ;
#4 = CARTESIAN_POINT ( 'NONE',  ( 0.3124999999999999445, 3.000000000000000444, 0.000000000000000000 ) ) ;
#5 = SURFACE_SIDE_STYLE ('',( #42 ) ) ;
#6 =( CONVERSION_BASED_UNIT ( 'INCH', #272 ) LENGTH_UNIT ( ) NAMED_UNIT ( #369 ) );
#7 = LENGTH_MEASURE_WITH_UNIT ( LENGTH_MEASURE( 0.02539999999999999897 ), #65 );
#8 = SURFACE_SIDE_STYLE ('',( #173 ) ) ;
#9 = ORIENTED_EDGE ( 'NONE', *, *, #93, .T. ) ;
#10 = SURFACE_STYLE_USAGE ( .BOTH. , #8 ) ;
#11 = MECHANICAL_DESIGN_GEOMETRIC_PRESENTATION_REPRESENTATION (  '', ( #372 ), #133 ) ;
#12 = ADVANCED_FACE ( 'NONE', ( #343 ), #269, .F. ) ;
#13 = FILL_AREA_STYLE ('',( #309 ) ) ;
#14 = CARTESIAN_POINT ( 'NONE',  ( 0.000000000000000000, 0.3125000000000000555, 0.000000000000000000 ) ) ;
#15 =( NAMED_UNIT ( * ) SI_UNIT ( $, .STERADIAN. ) SOLID_ANGLE_UNIT ( ) );
#16 = DIRECTION ( 'NONE',  ( -1.000000000000000000, 0.000000000000000000, 0.000000000000000000 ) ) ;
#17 = EDGE_CURVE ( 'NONE', #333, #267, #207, .T. ) ;
#18 = AXIS2_PLACEMENT_3D ( 'NONE', #3, #342, #90 ) ;
#19 = ORIENTED_EDGE ( 'NONE', *, *, #301, .T. ) ;
#20 = PRESENTATION_LAYER_ASSIGNMENT (  '', '', ( #291 ) ) ;
#21 = DIMENSIONAL_EXPONENTS ( 1.000000000000000000, 0.000000000000000000, 0.000000000000000000, 0.000000000000000000, 0.000000000000000000, 0.000000000000000000, 0.000000000000000000 ) ;
#22 =( NAMED_UNIT ( * ) SI_UNIT ( $, .STERADIAN. ) SOLID_ANGLE_UNIT ( ) );
#23 = DIMENSIONAL_EXPONENTS ( 1.000000000000000000, 0.000000000000000000, 0.000000000000000000, 0.000000000000000000, 0.000000000000000000, 0.000000000000000000, 0.000000000000000000 ) ;
#24 = FACE_OUTER_BOUND ( 'NONE', #78, .T. ) ;
#25 = DIMENSIONAL_EXPONENTS ( 1.000000000000000000, 0.000000000000000000, 0.000000000000000000, 0.000000000000000000, 0.000000000000000000, 0.000000000000000000, 0.000000000000000000 ) ;
#26 = AXIS2_PLACEMENT_3D ( 'NONE', #114, #94, #139 ) ;
#27 = AXIS2_PLACEMENT_3D ( 'NONE', #147, #229, #266 ) ;
#28 = PLANE ( 'NONE',  #282 ) ;
#29 = ORIENTED_EDGE ( 'NONE', *, *, #17, .T. ) ;
#30 = DIRECTION ( 'NONE',  ( -0.000000000000000000, -1.000000000000000000, -0.000000000000000000 ) ) ;
#31 = EDGE_CURVE ( 'NONE', #230, #267, #60, .T. ) ;
#32 = VERTEX_POINT ( 'NONE', #298 ) ;
#33 = AXIS2_PLACEMENT_3D ( 'NONE', #177, #241, #95 ) ;
#34 = AXIS2_PLACEMENT_3D ( 'NONE', #187, #105, #76 ) ;
#35 = ORIENTED_EDGE ( 'NONE', *, *, #226, .F. ) ;
#36 = UNCERTAINTY_MEASURE_WITH_UNIT (LENGTH_MEASURE( 1.000000000000000082E-05 ), #222, 'distance_accuracy_value', 'NONE');
#37 = ORIENTED_EDGE ( 'NONE', *, *, #84, .F. ) ;
#38 = ADVANCED_FACE ( 'NONE', ( #264 ), #75, .T. ) ;
#39 = PRESENTATION_STYLE_ASSIGNMENT (( #44 ) ) ;
#40 = COLOUR_RGB ( '',1.000000000000000000, 0.000000000000000000, 0.000000000000000000 ) ;
#41 = COLOUR_RGB ( '',1.000000000000000000, 0.000000000000000000, 0.000000000000000000 ) ;
#42 = SURFACE_STYLE_FILL_AREA ( #299 ) ;
#43 = ORIENTED_EDGE ( 'NONE', *, *, #313, .F. ) ;
#44 = SURFACE_STYLE_USAGE ( .BOTH. , #5 ) ;
#45 = APPLICATION_PROTOCOL_DEFINITION ( 'draft international standard', 'automotive_design', 1998, #150 ) ;
#46 = DIRECTION ( 'NONE',  ( -1.000000000000000000, 0.000000000000000000, 0.000000000000000000 ) ) ;
#47 = ORIENTED_EDGE ( 'NONE', *, *, #307, .F. ) ;
#48 = UNCERTAINTY_MEASURE_WITH_UNIT (LENGTH_MEASURE( 1.000000000000000082E-05 ), #155, 'distance_accuracy_value', 'NONE');
#49 = CARTESIAN_POINT ( 'NONE',  ( -3.827021247335478926E-17, 0.3125000000000000000, 0.000000000000000000 ) ) ;
#50 = ORIENTED_EDGE ( 'NONE', *, *, #234, .F. ) ;
#51 = CARTESIAN_POINT ( 'NONE',  ( 0.000000000000000000, 0.3125000000000000555, 0.000000000000000000 ) ) ;
#52 = CIRCLE ( 'NONE', #92, 0.3124999999999999445 ) ;
#53 = PRESENTATION_LAYER_ASSIGNMENT (  '', '', ( #134 ) ) ;
#54 =( CONVERSION_BASED_UNIT ( 'INCH', #311 ) LENGTH_UNIT ( ) NAMED_UNIT ( #366 ) );
#55 = DIMENSIONAL_EXPONENTS ( 1.000000000000000000, 0.000000000000000000, 0.000000000000000000, 0.000000000000000000, 0.000000000000000000, 0.000000000000000000, 0.000000000000000000 ) ;
#56 = EDGE_CURVE ( 'NONE', #252, #317, #220, .T. ) ;
#57 = CIRCLE ( 'NONE', #170, 0.3125000000000000000 ) ;
#58 = ADVANCED_FACE ( 'NONE', ( #344 ), #248, .T. ) ;
#59 = FILL_AREA_STYLE_COLOUR ( '', #40 ) ;
#60 = LINE ( 'NONE', #142, #304 ) ;
#61 = DIRECTION ( 'NONE',  ( 0.000000000000000000, 1.000000000000000000, 0.000000000000000000 ) ) ;
#62 = ORIENTED_EDGE ( 'NONE', *, *, #56, .T. ) ;
#63 = DIRECTION ( 'NONE',  ( 1.224646799147353207E-16, -0.000000000000000000, 1.000000000000000000 ) ) ;
#64 = ORIENTED_EDGE ( 'NONE', *, *, #194, .T. ) ;
#65 =( LENGTH_UNIT ( ) NAMED_UNIT ( * ) SI_UNIT ( $, .METRE. ) );
#66 = UNCERTAINTY_MEASURE_WITH_UNIT (LENGTH_MEASURE( 1.000000000000000082E-05 ), #117, 'distance_accuracy_value', 'NONE');
#67 = SURFACE_STYLE_FILL_AREA ( #91 ) ;
#68 = DIRECTION ( 'NONE',  ( 0.000000000000000000, 0.000000000000000000, -1.000000000000000000 ) ) ;
#69 = ORIENTED_EDGE ( 'NONE', *, *, #307, .T. ) ;
#70 = DIRECTION ( 'NONE',  ( -1.483695731438215170E-16, 1.000000000000000000, 0.000000000000000000 ) ) ;
#71 = AXIS2_PLACEMENT_3D ( 'NONE', #51, #253, #279 ) ;
#72 = VECTOR ( 'NONE', #209, 39.37007874015748143 ) ;
#73 = DIRECTION ( 'NONE',  ( 0.000000000000000000, 0.000000000000000000, 1.000000000000000000 ) ) ;
#74 = CYLINDRICAL_SURFACE ( 'NONE', #33, 0.3125000000000000000 ) ;
#75 = SPHERICAL_SURFACE ( 'NONE', #235, 0.3125000000000000000 ) ;
#76 = DIRECTION ( 'NONE',  ( 0.000000000000000000, 0.000000000000000000, -1.000000000000000000 ) ) ;
#77 = PRESENTATION_LAYER_ASSIGNMENT (  '', '', ( #319 ) ) ;
#78 = EDGE_LOOP ( 'NONE', ( #9, #96, #47, #293 ) ) ;
#79 = DIRECTION ( 'NONE',  ( -0.000000000000000000, -1.000000000000000000, -0.000000000000000000 ) ) ;
#80 = VERTEX_POINT ( 'NONE', #352 ) ;
#81 = CARTESIAN_POINT ( 'NONE',  ( 0.3124999999999998335, 3.000000000000000444, 3.827021247335477078E-17 ) ) ;
#82 = CLOSED_SHELL ( 'NONE', ( #38, #338, #183, #256, #58 ) ) ;
#83 = AXIS2_PLACEMENT_3D ( 'NONE', #351, #63, #322 ) ;
#84 = EDGE_CURVE ( 'NONE', #32, #243, #310, .T. ) ;
#85 = PRESENTATION_STYLE_ASSIGNMENT (( #371 ) ) ;
#86 = STYLED_ITEM ( 'NONE', ( #85 ), #338 ) ;
#87 = ADVANCED_FACE ( 'NONE', ( #221 ), #362, .T. ) ;
#88 = DIRECTION ( 'NONE',  ( 0.000000000000000000, -0.000000000000000000, 1.000000000000000000 ) ) ;
#89 = ORIENTED_EDGE ( 'NONE', *, *, #156, .F. ) ;
#90 = DIRECTION ( 'NONE',  ( 0.000000000000000000, 0.000000000000000000, -1.000000000000000000 ) ) ;
#91 = FILL_AREA_STYLE ('',( #237 ) ) ;
#92 = AXIS2_PLACEMENT_3D ( 'NONE', #324, #270, #68 ) ;
#93 = EDGE_CURVE ( 'NONE', #230, #80, #261, .T. ) ;
#94 = DIRECTION ( 'NONE',  ( -1.483695731438215170E-16, 1.000000000000000000, -0.000000000000000000 ) ) ;
#95 = DIRECTION ( 'NONE',  ( 0.000000000000000000, 0.000000000000000000, -1.000000000000000000 ) ) ;
#96 = ORIENTED_EDGE ( 'NONE', *, *, #113, .T. ) ;
#97 = DIRECTION ( 'NONE',  ( -1.000000000000000000, -1.483695731438215170E-16, 0.000000000000000000 ) ) ;
#98 =( CONVERSION_BASED_UNIT ( 'INCH', #7 ) LENGTH_UNIT ( ) NAMED_UNIT ( #25 ) );
#99 = AXIS2_PLACEMENT_3D ( 'NONE', #101, #110, #16 ) ;
#100 =( GEOMETRIC_REPRESENTATION_CONTEXT ( 3 ) GLOBAL_UNCERTAINTY_ASSIGNED_CONTEXT ( ( #296 ) ) GLOBAL_UNIT_ASSIGNED_CONTEXT ( ( #98, #205, #146 ) ) REPRESENTATION_CONTEXT ( 'NONE', 'WORKASPACE' ) );
#101 = CARTESIAN_POINT ( 'NONE',  ( -6.123233995736772199E-17, 3.000000000000000444, 0.000000000000000000 ) ) ;
#102 = ADVANCED_FACE ( 'NONE', ( #24 ), #276, .T. ) ;
#103 = DIRECTION ( 'NONE',  ( 0.000000000000000000, 0.000000000000000000, 1.000000000000000000 ) ) ;
#104 = SURFACE_STYLE_FILL_AREA ( #13 ) ;
#105 = DIRECTION ( 'NONE',  ( -0.000000000000000000, -1.000000000000000000, -0.000000000000000000 ) ) ;
#106 = LINE ( 'NONE', #336, #72 ) ;
#107 = DIRECTION ( 'NONE',  ( 0.000000000000000000, 0.000000000000000000, -1.000000000000000000 ) ) ;
#108 = ORIENTED_EDGE ( 'NONE', *, *, #156, .T. ) ;
#109 = LENGTH_MEASURE_WITH_UNIT ( LENGTH_MEASURE( 0.02539999999999999897 ), #129 );
#110 = DIRECTION ( 'NONE',  ( -1.483695731438215170E-16, 1.000000000000000000, -0.000000000000000000 ) ) ;
#111 =( NAMED_UNIT ( * ) SI_UNIT ( $, .STERADIAN. ) SOLID_ANGLE_UNIT ( ) );
#112 = CARTESIAN_POINT ( 'NONE',  ( 0.3125000000000000000, 0.3125000000000000555, 0.000000000000000000 ) ) ;
#113 = EDGE_CURVE ( 'NONE', #80, #333, #337, .T. ) ;
#114 = CARTESIAN_POINT ( 'NONE',  ( -6.123233995736770966E-17, 3.000000000000000444, 0.000000000000000000 ) ) ;
#115 = STYLED_ITEM ( 'NONE', ( #39 ), #256 ) ;
#116 = CARTESIAN_POINT ( 'NONE',  ( -0.3125000000000000000, 0.3125000000000000555, 3.827021247335477694E-17 ) ) ;
#117 =( CONVERSION_BASED_UNIT ( 'INCH', #179 ) LENGTH_UNIT ( ) NAMED_UNIT ( #23 ) );
#118 = AXIS2_PLACEMENT_3D ( 'NONE', #284, #126, #46 ) ;
#119 = STYLED_ITEM ( 'NONE', ( #367 ), #167 ) ;
#120 = ORIENTED_EDGE ( 'NONE', *, *, #217, .T. ) ;
#121 = CARTESIAN_POINT ( 'NONE',  ( 0.3124999999999999445, 3.000000000000000444, 3.827021247335477694E-17 ) ) ;
#122 = DIRECTION ( 'NONE',  ( -1.483695731438215170E-16, 1.000000000000000000, -0.000000000000000000 ) ) ;
#123 = APPLICATION_PROTOCOL_DEFINITION ( 'draft international standard', 'automotive_design', 1998, #295 ) ;
#124 = CARTESIAN_POINT ( 'NONE',  ( -3.827021247335478926E-17, 0.3125000000000000000, 0.000000000000000000 ) ) ;
#125 =( NAMED_UNIT ( * ) PLANE_ANGLE_UNIT ( ) SI_UNIT ( $, .RADIAN. ) );
#126 = DIRECTION ( 'NONE',  ( -1.483695731438215170E-16, 1.000000000000000000, -0.000000000000000000 ) ) ;
#127 = MECHANICAL_DESIGN_GEOMETRIC_PRESENTATION_REPRESENTATION (  '', ( #86 ), #326 ) ;
#128 = EDGE_LOOP ( 'NONE', ( #35, #120, #19, #233, #363 ) ) ;
#129 =( LENGTH_UNIT ( ) NAMED_UNIT ( * ) SI_UNIT ( $, .METRE. ) );
#130 = DIRECTION ( 'NONE',  ( 0.000000000000000000, 0.000000000000000000, 1.000000000000000000 ) ) ;
#131 = CARTESIAN_POINT ( 'NONE',  ( -6.123233995736772199E-17, 3.000000000000000444, 0.000000000000000000 ) ) ;
#132 = CARTESIAN_POINT ( 'NONE',  ( 0.000000000000000000, 0.7500000000000001110, 0.000000000000000000 ) ) ;
#133 =( GEOMETRIC_REPRESENTATION_CONTEXT ( 3 ) GLOBAL_UNCERTAINTY_ASSIGNED_CONTEXT ( ( #348 ) ) GLOBAL_UNIT_ASSIGNED_CONTEXT ( ( #6, #195, #353 ) ) REPRESENTATION_CONTEXT ( 'NONE', 'WORKASPACE' ) );
#134 = STYLED_ITEM ( 'NONE', ( #227 ), #183 ) ;
#135 = DIMENSIONAL_EXPONENTS ( 1.000000000000000000, 0.000000000000000000, 0.000000000000000000, 0.000000000000000000, 0.000000000000000000, 0.000000000000000000, 0.000000000000000000 ) ;
#136 =( LENGTH_UNIT ( ) NAMED_UNIT ( * ) SI_UNIT ( $, .METRE. ) );
#137 = PRODUCT_RELATED_PRODUCT_CATEGORY ( 'part', '', ( #219 ) ) ;
#138 =( NAMED_UNIT ( * ) SI_UNIT ( $, .STERADIAN. ) SOLID_ANGLE_UNIT ( ) );
#139 = DIRECTION ( 'NONE',  ( -1.000000000000000000, 0.000000000000000000, 0.000000000000000000 ) ) ;
#140 = AXIS2_PLACEMENT_3D ( 'NONE', #154, #70, #97 ) ;
#141 = AXIS2_PLACEMENT_3D ( 'NONE', #357, #103, #283 ) ;
#142 = CARTESIAN_POINT ( 'NONE',  ( -0.3124999999999999445, 3.000000000000000444, 0.000000000000000000 ) ) ;
#143 = DIRECTION ( 'NONE',  ( 0.000000000000000000, 0.000000000000000000, -1.000000000000000000 ) ) ;
#144 = EDGE_CURVE ( 'NONE', #243, #252, #166, .T. ) ;
#145 = DIRECTION ( 'NONE',  ( 1.483695731438215170E-16, -1.000000000000000000, 0.000000000000000000 ) ) ;
#146 =( NAMED_UNIT ( * ) SI_UNIT ( $, .STERADIAN. ) SOLID_ANGLE_UNIT ( ) );
#147 = CARTESIAN_POINT ( 'NONE',  ( 2.725991996162307345E-16, 0.7499999999999998890, 0.000000000000000000 ) ) ;
#148 = EDGE_LOOP ( 'NONE', ( #89, #346 ) ) ;
#149 = FACE_OUTER_BOUND ( 'NONE', #204, .T. ) ;
#150 = APPLICATION_CONTEXT ( 'automotive_design' ) ;
#151 =( LENGTH_UNIT ( ) NAMED_UNIT ( * ) SI_UNIT ( $, .METRE. ) );
#152 = AXIS2_PLACEMENT_3D ( 'NONE', #14, #188, #308 ) ;
#153 = CARTESIAN_POINT ( 'NONE',  ( 3.827021247335478926E-17, 0.3125000000000000555, 0.3125000000000000000 ) ) ;
#154 = CARTESIAN_POINT ( 'NONE',  ( 2.725991996162306852E-16, 0.7500000000000001110, 0.000000000000000000 ) ) ;
#155 =( CONVERSION_BASED_UNIT ( 'INCH', #232 ) LENGTH_UNIT ( ) NAMED_UNIT ( #55 ) );
#156 = EDGE_CURVE ( 'NONE', #350, #325, #262, .T. ) ;
#157 =( NAMED_UNIT ( * ) PLANE_ANGLE_UNIT ( ) SI_UNIT ( $, .RADIAN. ) );
#158 = EDGE_LOOP ( 'NONE', ( #246, #330, #180, #178 ) ) ;
#159 = DIRECTION ( 'NONE',  ( -1.000000000000000000, 0.000000000000000000, 0.000000000000000000 ) ) ;
#160 = MECHANICAL_DESIGN_GEOMETRIC_PRESENTATION_REPRESENTATION (  '', ( #119 ), #373 ) ;
#161 =( LENGTH_UNIT ( ) NAMED_UNIT ( * ) SI_UNIT ( $, .METRE. ) );
#162 =( CONVERSION_BASED_UNIT ( 'INCH', #109 ) LENGTH_UNIT ( ) NAMED_UNIT ( #21 ) );
#163 = PRODUCT_DEFINITION_SHAPE ( 'NONE', 'NONE',  #200 ) ;
#164 = FILL_AREA_STYLE ('',( #258 ) ) ;
#165 = CYLINDRICAL_SURFACE ( 'NONE', #34, 0.3125000000000000000 ) ;
#166 = CIRCLE ( 'NONE', #152, 0.3125000000000000000 ) ;
#167 = MANIFOLD_SOLID_BREP ( 'Revolve - Tool Body (Straight Shanked)', #213 ) ;
#168 = ORIENTED_EDGE ( 'NONE', *, *, #190, .T. ) ;
#169 =( NAMED_UNIT ( * ) PLANE_ANGLE_UNIT ( ) SI_UNIT ( $, .RADIAN. ) );
#170 = AXIS2_PLACEMENT_3D ( 'NONE', #289, #30, #143 ) ;
#171 = PRESENTATION_STYLE_ASSIGNMENT (( #203 ) ) ;
#172 =( NAMED_UNIT ( * ) PLANE_ANGLE_UNIT ( ) SI_UNIT ( $, .RADIAN. ) );
#173 = SURFACE_STYLE_FILL_AREA ( #347 ) ;
#174 = UNCERTAINTY_MEASURE_WITH_UNIT (LENGTH_MEASURE( 1.000000000000000082E-05 ), #312, 'distance_accuracy_value', 'NONE');
#175 = ORIENTED_EDGE ( 'NONE', *, *, #84, .T. ) ;
#176 = PRESENTATION_STYLE_ASSIGNMENT (( #259 ) ) ;
#177 = CARTESIAN_POINT ( 'NONE',  ( 0.000000000000000000, 0.000000000000000000, 0.000000000000000000 ) ) ;
#178 = ORIENTED_EDGE ( 'NONE', *, *, #17, .F. ) ;
#179 = LENGTH_MEASURE_WITH_UNIT ( LENGTH_MEASURE( 0.02539999999999999897 ), #274 );
#180 = ORIENTED_EDGE ( 'NONE', *, *, #31, .T. ) ;
#181 = DIRECTION ( 'NONE',  ( -1.483695731438215170E-16, 1.000000000000000000, -0.000000000000000000 ) ) ;
#182 = CARTESIAN_POINT ( 'NONE',  ( -1.913510623667739463E-17, 0.000000000000000000, 0.000000000000000000 ) ) ;
#183 = ADVANCED_FACE ( 'NONE', ( #185 ), #28, .T. ) ;
#184 = CIRCLE ( 'NONE', #27, 0.3124999999999996669 ) ;
#185 = FACE_OUTER_BOUND ( 'NONE', #148, .T. ) ;
#186 = ORIENTED_EDGE ( 'NONE', *, *, #93, .F. ) ;
#187 = CARTESIAN_POINT ( 'NONE',  ( 0.000000000000000000, 0.000000000000000000, 0.000000000000000000 ) ) ;
#188 = DIRECTION ( 'NONE',  ( -0.000000000000000000, -1.000000000000000000, -0.000000000000000000 ) ) ;
#189 = COLOUR_RGB ( '',1.000000000000000000, 0.000000000000000000, 0.000000000000000000 ) ;
#190 = EDGE_CURVE ( 'NONE', #317, #32, #57, .T. ) ;
#191 =( GEOMETRIC_REPRESENTATION_CONTEXT ( 3 ) GLOBAL_UNCERTAINTY_ASSIGNED_CONTEXT ( ( #199 ) ) GLOBAL_UNIT_ASSIGNED_CONTEXT ( ( #54, #157, #22 ) ) REPRESENTATION_CONTEXT ( 'NONE', 'WORKASPACE' ) );
#192 = PRESENTATION_LAYER_ASSIGNMENT (  '', '', ( #115 ) ) ;
#193 = EDGE_LOOP ( 'NONE', ( #108, #359, #321, #37, #327 ) ) ;
#194 = EDGE_CURVE ( 'NONE', #243, #216, #257, .T. ) ;
#195 =( NAMED_UNIT ( * ) PLANE_ANGLE_UNIT ( ) SI_UNIT ( $, .RADIAN. ) );
#196 = LENGTH_MEASURE_WITH_UNIT ( LENGTH_MEASURE( 0.02539999999999999897 ), #136 );
#197 =( GEOMETRIC_REPRESENTATION_CONTEXT ( 3 ) GLOBAL_UNCERTAINTY_ASSIGNED_CONTEXT ( ( #36 ) ) GLOBAL_UNIT_ASSIGNED_CONTEXT ( ( #222, #340, #138 ) ) REPRESENTATION_CONTEXT ( 'NONE', 'WORKASPACE' ) );
#198 =( NAMED_UNIT ( * ) PLANE_ANGLE_UNIT ( ) SI_UNIT ( $, .RADIAN. ) );
#199 = UNCERTAINTY_MEASURE_WITH_UNIT (LENGTH_MEASURE( 1.000000000000000082E-05 ), #54, 'distance_accuracy_value', 'NONE');
#200 = PRODUCT_DEFINITION ( 'UNKNOWN', '', #292, #228 ) ;
#201 = ORIENTED_EDGE ( 'NONE', *, *, #234, .T. ) ;
#202 = CARTESIAN_POINT ( 'NONE',  ( 3.827021247335478926E-17, 0.000000000000000000, 0.3125000000000000000 ) ) ;
#203 = SURFACE_STYLE_USAGE ( .BOTH. , #239 ) ;
#204 = EDGE_LOOP ( 'NONE', ( #186, #43 ) ) ;
#205 =( NAMED_UNIT ( * ) PLANE_ANGLE_UNIT ( ) SI_UNIT ( $, .RADIAN. ) );
#206 = PRESENTATION_LAYER_ASSIGNMENT (  '', '', ( #372 ) ) ;
#207 = CIRCLE ( 'NONE', #26, 0.3125000000000000000 ) ;
#208 = AXIS2_PLACEMENT_3D ( 'NONE', #255, #2, #231 ) ;
#209 = DIRECTION ( 'NONE',  ( -0.000000000000000000, -1.000000000000000000, -0.000000000000000000 ) ) ;
#210 = FACE_OUTER_BOUND ( 'NONE', #193, .T. ) ;
#211 =( LENGTH_UNIT ( ) NAMED_UNIT ( * ) SI_UNIT ( $, .METRE. ) );
#212 = SHAPE_DEFINITION_REPRESENTATION ( #163, #242 ) ;
#213 = CLOSED_SHELL ( 'NONE', ( #102, #277, #87, #12 ) ) ;
#214 = COLOUR_RGB ( '',1.000000000000000000, 0.000000000000000000, 0.000000000000000000 ) ;
#215 =( LENGTH_UNIT ( ) NAMED_UNIT ( * ) SI_UNIT ( $, .METRE. ) );
#216 = VERTEX_POINT ( 'NONE', #182 ) ;
#217 = EDGE_CURVE ( 'NONE', #325, #350, #52, .T. ) ;
#218 = ORIENTED_EDGE ( 'NONE', *, *, #144, .T. ) ;
#219 = PRODUCT ( '17555', '17555', '', ( #360 ) ) ;
#220 = CIRCLE ( 'NONE', #18, 0.3125000000000000000 ) ;
#221 = FACE_OUTER_BOUND ( 'NONE', #158, .T. ) ;
#222 =( CONVERSION_BASED_UNIT ( 'INCH', #196 ) LENGTH_UNIT ( ) NAMED_UNIT ( #135 ) );
#223 = AXIS2_PLACEMENT_3D ( 'NONE', #49, #130, #364 ) ;
#224 = AXIS2_PLACEMENT_3D ( 'NONE', #254, #79, #107 ) ;
#225 = SURFACE_SIDE_STYLE ('',( #286 ) ) ;
#226 = EDGE_CURVE ( 'NONE', #325, #252, #328, .T. ) ;
#227 = PRESENTATION_STYLE_ASSIGNMENT (( #288 ) ) ;
#228 = PRODUCT_DEFINITION_CONTEXT ( 'detailed design', #150, 'design' ) ;
#229 = DIRECTION ( 'NONE',  ( -1.483695731438215170E-16, 1.000000000000000000, -0.000000000000000000 ) ) ;
#230 = VERTEX_POINT ( 'NONE', #355 ) ;
#231 = DIRECTION ( 'NONE',  ( -1.000000000000000000, 0.000000000000000000, 0.000000000000000000 ) ) ;
#232 = LENGTH_MEASURE_WITH_UNIT ( LENGTH_MEASURE( 0.02539999999999999897 ), #161 );
#233 = ORIENTED_EDGE ( 'NONE', *, *, #190, .F. ) ;
#234 = EDGE_CURVE ( 'NONE', #317, #216, #314, .T. ) ;
#235 = AXIS2_PLACEMENT_3D ( 'NONE', #124, #73, #339 ) ;
#236 = VECTOR ( 'NONE', #358, 39.37007874015748143 ) ;
#237 = FILL_AREA_STYLE_COLOUR ( '', #290 ) ;
#238 = FILL_AREA_STYLE_COLOUR ( '', #189 ) ;
#239 = SURFACE_SIDE_STYLE ('',( #341 ) ) ;
#240 = DIRECTION ( 'NONE',  ( -1.483695731438215170E-16, 1.000000000000000000, -0.000000000000000000 ) ) ;
#241 = DIRECTION ( 'NONE',  ( -0.000000000000000000, -1.000000000000000000, -0.000000000000000000 ) ) ;
#242 = ADVANCED_BREP_SHAPE_REPRESENTATION ( '17555', ( #297, #167, #141 ), #332 ) ;
#243 = VERTEX_POINT ( 'NONE', #112 ) ;
#244 = AXIS2_PLACEMENT_3D ( 'NONE', #131, #122, #159 ) ;
#245 = CARTESIAN_POINT ( 'NONE',  ( -6.123233995736770966E-17, 3.000000000000000444, 0.000000000000000000 ) ) ;
#246 = ORIENTED_EDGE ( 'NONE', *, *, #113, .F. ) ;
#247 = SURFACE_STYLE_USAGE ( .BOTH. , #251 ) ;
#248 = SPHERICAL_SURFACE ( 'NONE', #223, 0.3125000000000000000 ) ;
#249 = AXIS2_PLACEMENT_3D ( 'NONE', #4, #145, #323 ) ;
#250 = AXIS2_PLACEMENT_3D ( 'NONE', #245, #181, #302 ) ;
#251 = SURFACE_SIDE_STYLE ('',( #104 ) ) ;
#252 = VERTEX_POINT ( 'NONE', #153 ) ;
#253 = DIRECTION ( 'NONE',  ( -0.000000000000000000, -1.000000000000000000, -0.000000000000000000 ) ) ;
#254 = CARTESIAN_POINT ( 'NONE',  ( 0.000000000000000000, 0.7500000000000001110, 0.000000000000000000 ) ) ;
#255 = CARTESIAN_POINT ( 'NONE',  ( -3.827021247335478926E-17, 0.3125000000000000000, 0.000000000000000000 ) ) ;
#256 = ADVANCED_FACE ( 'NONE', ( #268 ), #74, .T. ) ;
#257 = CIRCLE ( 'NONE', #208, 0.3125000000000000000 ) ;
#258 = FILL_AREA_STYLE_COLOUR ( '', #214 ) ;
#259 = SURFACE_STYLE_USAGE ( .BOTH. , #1 ) ;
#260 = FILL_AREA_STYLE ('',( #285 ) ) ;
#261 = CIRCLE ( 'NONE', #118, 0.3124999999999996669 ) ;
#262 = CIRCLE ( 'NONE', #224, 0.3124999999999999445 ) ;
#263 = FILL_AREA_STYLE ('',( #59 ) ) ;
#264 = FACE_OUTER_BOUND ( 'NONE', #335, .T. ) ;
#265 = LENGTH_MEASURE_WITH_UNIT ( LENGTH_MEASURE( 0.02539999999999999897 ), #211 );
#266 = DIRECTION ( 'NONE',  ( -1.000000000000000000, 0.000000000000000000, 0.000000000000000000 ) ) ;
#267 = VERTEX_POINT ( 'NONE', #354 ) ;
#268 = FACE_OUTER_BOUND ( 'NONE', #128, .T. ) ;
#269 = PLANE ( 'NONE',  #249 ) ;
#270 = DIRECTION ( 'NONE',  ( -0.000000000000000000, -1.000000000000000000, -0.000000000000000000 ) ) ;
#271 = VECTOR ( 'NONE', #300, 39.37007874015748143 ) ;
#272 = LENGTH_MEASURE_WITH_UNIT ( LENGTH_MEASURE( 0.02539999999999999897 ), #151 );
#273 = FILL_AREA_STYLE_COLOUR ( '', #306 ) ;
#274 =( LENGTH_UNIT ( ) NAMED_UNIT ( * ) SI_UNIT ( $, .METRE. ) );
#275 = COLOUR_RGB ( '',0.7921568627450980005, 0.8196078431372548767, 0.9333333333333333481 ) ;
#276 = CYLINDRICAL_SURFACE ( 'NONE', #244, 0.3124999999999998890 ) ;
#277 = ADVANCED_FACE ( 'NONE', ( #149 ), #303, .F. ) ;
#278 = UNCERTAINTY_MEASURE_WITH_UNIT (LENGTH_MEASURE( 1.000000000000000082E-05 ), #162, 'distance_accuracy_value', 'NONE');
#279 = DIRECTION ( 'NONE',  ( 0.000000000000000000, 0.000000000000000000, -1.000000000000000000 ) ) ;
#280 = ORIENTED_EDGE ( 'NONE', *, *, #194, .F. ) ;
#281 = MECHANICAL_DESIGN_GEOMETRIC_PRESENTATION_REPRESENTATION (  '', ( #319 ), #191 ) ;
#282 = AXIS2_PLACEMENT_3D ( 'NONE', #132, #61, #88 ) ;
#283 = DIRECTION ( 'NONE',  ( 1.000000000000000000, 0.000000000000000000, 0.000000000000000000 ) ) ;
#284 = CARTESIAN_POINT ( 'NONE',  ( 2.725991996162307345E-16, 0.7499999999999998890, 0.000000000000000000 ) ) ;
#285 = FILL_AREA_STYLE_COLOUR ( '', #41 ) ;
#286 = SURFACE_STYLE_FILL_AREA ( #164 ) ;
#287 = MECHANICAL_DESIGN_GEOMETRIC_PRESENTATION_REPRESENTATION (  '', ( #115 ), #100 ) ;
#288 = SURFACE_STYLE_USAGE ( .BOTH. , #370 ) ;
#289 = CARTESIAN_POINT ( 'NONE',  ( 0.000000000000000000, 0.3125000000000000555, 0.000000000000000000 ) ) ;
#290 = COLOUR_RGB ( '',1.000000000000000000, 0.000000000000000000, 0.000000000000000000 ) ;
#291 = STYLED_ITEM ( 'NONE', ( #318 ), #297 ) ;
#292 = PRODUCT_DEFINITION_FORMATION_WITH_SPECIFIED_SOURCE ( 'ANY', '', #219, .NOT_KNOWN. ) ;
#293 = ORIENTED_EDGE ( 'NONE', *, *, #31, .F. ) ;
#294 = EDGE_LOOP ( 'NONE', ( #50, #168, #175, #64 ) ) ;
#295 = APPLICATION_CONTEXT ( 'automotive_design' ) ;
#296 = UNCERTAINTY_MEASURE_WITH_UNIT (LENGTH_MEASURE( 1.000000000000000082E-05 ), #98, 'distance_accuracy_value', 'NONE');
#297 = MANIFOLD_SOLID_BREP ( 'Revolve - Cutting Edge', #82 ) ;
#298 = CARTESIAN_POINT ( 'NONE',  ( 0.000000000000000000, 0.3125000000000000555, -0.3125000000000000000 ) ) ;
#299 = FILL_AREA_STYLE ('',( #238 ) ) ;
#300 = DIRECTION ( 'NONE',  ( -0.000000000000000000, -1.000000000000000000, -0.000000000000000000 ) ) ;
#301 = EDGE_CURVE ( 'NONE', #350, #32, #106, .T. ) ;
#302 = DIRECTION ( 'NONE',  ( -1.000000000000000000, 0.000000000000000000, 0.000000000000000000 ) ) ;
#303 = PLANE ( 'NONE',  #140 ) ;
#304 = VECTOR ( 'NONE', #240, 39.37007874015748143 ) ;
#305 = CARTESIAN_POINT ( 'NONE',  ( 0.000000000000000000, 0.7500000000000001110, -0.3124999999999999445 ) ) ;
#306 = COLOUR_RGB ( '',0.7921568627450980005, 0.8196078431372548767, 0.9333333333333333481 ) ;
#307 = EDGE_CURVE ( 'NONE', #267, #333, #349, .T. ) ;
#308 = DIRECTION ( 'NONE',  ( 0.000000000000000000, 0.000000000000000000, -1.000000000000000000 ) ) ;
#309 = FILL_AREA_STYLE_COLOUR ( '', #275 ) ;
#310 = CIRCLE ( 'NONE', #71, 0.3125000000000000000 ) ;
#311 = LENGTH_MEASURE_WITH_UNIT ( LENGTH_MEASURE( 0.02539999999999999897 ), #215 );
#312 =( CONVERSION_BASED_UNIT ( 'INCH', #265 ) LENGTH_UNIT ( ) NAMED_UNIT ( #334 ) );
#313 = EDGE_CURVE ( 'NONE', #80, #230, #184, .T. ) ;
#314 = CIRCLE ( 'NONE', #83, 0.3125000000000000000 ) ;
#315 = EDGE_LOOP ( 'NONE', ( #69, #29 ) ) ;
#316 = SURFACE_STYLE_FILL_AREA ( #260 ) ;
#317 = VERTEX_POINT ( 'NONE', #116 ) ;
#318 = PRESENTATION_STYLE_ASSIGNMENT (( #10 ) ) ;
#319 = STYLED_ITEM ( 'NONE', ( #171 ), #58 ) ;
#320 = MECHANICAL_DESIGN_GEOMETRIC_PRESENTATION_REPRESENTATION (  '', ( #134 ), #197 ) ;
#321 = ORIENTED_EDGE ( 'NONE', *, *, #144, .F. ) ;
#322 = DIRECTION ( 'NONE',  ( 1.000000000000000000, 0.000000000000000000, -1.224646799147353207E-16 ) ) ;
#323 = DIRECTION ( 'NONE',  ( 1.000000000000000000, 1.483695731438215170E-16, 0.000000000000000000 ) ) ;
#324 = CARTESIAN_POINT ( 'NONE',  ( 0.000000000000000000, 0.7500000000000001110, 0.000000000000000000 ) ) ;
#325 = VERTEX_POINT ( 'NONE', #329 ) ;
#326 =( GEOMETRIC_REPRESENTATION_CONTEXT ( 3 ) GLOBAL_UNCERTAINTY_ASSIGNED_CONTEXT ( ( #48 ) ) GLOBAL_UNIT_ASSIGNED_CONTEXT ( ( #155, #172, #345 ) ) REPRESENTATION_CONTEXT ( 'NONE', 'WORKASPACE' ) );
#327 = ORIENTED_EDGE ( 'NONE', *, *, #301, .F. ) ;
#328 = LINE ( 'NONE', #202, #271 ) ;
#329 = CARTESIAN_POINT ( 'NONE',  ( 3.827021247335477694E-17, 0.7500000000000001110, 0.3124999999999999445 ) ) ;
#330 = ORIENTED_EDGE ( 'NONE', *, *, #313, .T. ) ;
#331 =( GEOMETRIC_REPRESENTATION_CONTEXT ( 3 ) GLOBAL_UNCERTAINTY_ASSIGNED_CONTEXT ( ( #66 ) ) GLOBAL_UNIT_ASSIGNED_CONTEXT ( ( #117, #198, #15 ) ) REPRESENTATION_CONTEXT ( 'NONE', 'WORKASPACE' ) );
#332 =( GEOMETRIC_REPRESENTATION_CONTEXT ( 3 ) GLOBAL_UNCERTAINTY_ASSIGNED_CONTEXT ( ( #278 ) ) GLOBAL_UNIT_ASSIGNED_CONTEXT ( ( #162, #125, #365 ) ) REPRESENTATION_CONTEXT ( 'NONE', 'WORKASPACE' ) );
#333 = VERTEX_POINT ( 'NONE', #121 ) ;
#334 = DIMENSIONAL_EXPONENTS ( 1.000000000000000000, 0.000000000000000000, 0.000000000000000000, 0.000000000000000000, 0.000000000000000000, 0.000000000000000000, 0.000000000000000000 ) ;
#335 = EDGE_LOOP ( 'NONE', ( #62, #201, #280, #218 ) ) ;
#336 = CARTESIAN_POINT ( 'NONE',  ( 0.000000000000000000, 0.000000000000000000, -0.3125000000000000000 ) ) ;
#337 = LINE ( 'NONE', #81, #236 ) ;
#338 = ADVANCED_FACE ( 'NONE', ( #210 ), #165, .T. ) ;
#339 = DIRECTION ( 'NONE',  ( 1.000000000000000000, 0.000000000000000000, 0.000000000000000000 ) ) ;
#340 =( NAMED_UNIT ( * ) PLANE_ANGLE_UNIT ( ) SI_UNIT ( $, .RADIAN. ) );
#341 = SURFACE_STYLE_FILL_AREA ( #263 ) ;
#342 = DIRECTION ( 'NONE',  ( -0.000000000000000000, -1.000000000000000000, -0.000000000000000000 ) ) ;
#343 = FACE_OUTER_BOUND ( 'NONE', #315, .T. ) ;
#344 = FACE_OUTER_BOUND ( 'NONE', #294, .T. ) ;
#345 =( NAMED_UNIT ( * ) SI_UNIT ( $, .STERADIAN. ) SOLID_ANGLE_UNIT ( ) );
#346 = ORIENTED_EDGE ( 'NONE', *, *, #217, .F. ) ;
#347 = FILL_AREA_STYLE ('',( #273 ) ) ;
#348 = UNCERTAINTY_MEASURE_WITH_UNIT (LENGTH_MEASURE( 1.000000000000000082E-05 ), #6, 'distance_accuracy_value', 'NONE');
#349 = CIRCLE ( 'NONE', #250, 0.3125000000000000000 ) ;
#350 = VERTEX_POINT ( 'NONE', #305 ) ;
#351 = CARTESIAN_POINT ( 'NONE',  ( -3.827021247335478926E-17, 0.3125000000000000000, 0.000000000000000000 ) ) ;
#352 = CARTESIAN_POINT ( 'NONE',  ( 0.3124999999999999445, 0.7499999999999998890, 3.827021247335477694E-17 ) ) ;
#353 =( NAMED_UNIT ( * ) SI_UNIT ( $, .STERADIAN. ) SOLID_ANGLE_UNIT ( ) );
#354 = CARTESIAN_POINT ( 'NONE',  ( -0.3125000000000000555, 3.000000000000000444, 0.000000000000000000 ) ) ;
#355 = CARTESIAN_POINT ( 'NONE',  ( -0.3124999999999993894, 0.7499999999999998890, 0.000000000000000000 ) ) ;
#356 = PRESENTATION_LAYER_ASSIGNMENT (  '', '', ( #86 ) ) ;
#357 = CARTESIAN_POINT ( 'NONE',  ( 0.000000000000000000, 0.000000000000000000, 0.000000000000000000 ) ) ;
#358 = DIRECTION ( 'NONE',  ( -1.483695731438215170E-16, 1.000000000000000000, -0.000000000000000000 ) ) ;
#359 = ORIENTED_EDGE ( 'NONE', *, *, #226, .T. ) ;
#360 = PRODUCT_CONTEXT ( 'NONE', #295, 'mechanical' ) ;
#361 = MECHANICAL_DESIGN_GEOMETRIC_PRESENTATION_REPRESENTATION (  '', ( #291 ), #331 ) ;
#362 = CYLINDRICAL_SURFACE ( 'NONE', #99, 0.3124999999999998890 ) ;
#363 = ORIENTED_EDGE ( 'NONE', *, *, #56, .F. ) ;
#364 = DIRECTION ( 'NONE',  ( 1.000000000000000000, 0.000000000000000000, 0.000000000000000000 ) ) ;
#365 =( NAMED_UNIT ( * ) SI_UNIT ( $, .STERADIAN. ) SOLID_ANGLE_UNIT ( ) );
#366 = DIMENSIONAL_EXPONENTS ( 1.000000000000000000, 0.000000000000000000, 0.000000000000000000, 0.000000000000000000, 0.000000000000000000, 0.000000000000000000, 0.000000000000000000 ) ;
#367 = PRESENTATION_STYLE_ASSIGNMENT (( #247 ) ) ;
#368 = PRESENTATION_LAYER_ASSIGNMENT (  '', '', ( #119 ) ) ;
#369 = DIMENSIONAL_EXPONENTS ( 1.000000000000000000, 0.000000000000000000, 0.000000000000000000, 0.000000000000000000, 0.000000000000000000, 0.000000000000000000, 0.000000000000000000 ) ;
#370 = SURFACE_SIDE_STYLE ('',( #316 ) ) ;
#371 = SURFACE_STYLE_USAGE ( .BOTH. , #225 ) ;
#372 = STYLED_ITEM ( 'NONE', ( #176 ), #38 ) ;
#373 =( GEOMETRIC_REPRESENTATION_CONTEXT ( 3 ) GLOBAL_UNCERTAINTY_ASSIGNED_CONTEXT ( ( #174 ) ) GLOBAL_UNIT_ASSIGNED_CONTEXT ( ( #312, #169, #111 ) ) REPRESENTATION_CONTEXT ( 'NONE', 'WORKASPACE' ) );
ENDSEC;
END-ISO-10303-21;
