ISO-10303-21;
HEADER;
FILE_DESCRIPTION (( 'STEP AP214' ),
    '1' );
FILE_NAME ('Micro_SHLM-100-4.STEP',
    '2021-09-02T08:21:59',
    ( '' ),
    ( '' ),
    'SwSTEP 2.0',
    'SolidWorks 2020',
    '' );
FILE_SCHEMA (( 'AUTOMOTIVE_DESIGN' ));
ENDSEC;

DATA;
#1 = ORIENTED_EDGE ( 'NONE', *, *, #218, .T. ) ;
#2 = ADVANCED_FACE ( 'NONE', ( #256 ), #174, .T. ) ;
#3 = ORIENTED_EDGE ( 'NONE', *, *, #235, .T. ) ;
#4 = DIMENSIONAL_EXPONENTS ( 1.000000000000000000, 0.0000000000000000000, 0.0000000000000000000, 0.0000000000000000000, 0.0000000000000000000, 0.0000000000000000000, 0.0000000000000000000 ) ;
#5 =( NAMED_UNIT ( * ) SI_UNIT ( $, .STERADIAN. ) SOLID_ANGLE_UNIT ( ) );
#6 = DIRECTION ( 'NONE',  ( -1.224646799147353207E-16, -0.0000000000000000000, -1.000000000000000000 ) ) ;
#7 = DIRECTION ( 'NONE',  ( -0.0000000000000000000, -0.0000000000000000000, -1.000000000000000000 ) ) ;
#8 = DIRECTION ( 'NONE',  ( -1.000000000000000000, 0.0000000000000000000, 1.224646799147353207E-16 ) ) ;
#9 = CYLINDRICAL_SURFACE ( 'NONE', #12, 0.1968504999999999838 ) ;
#10 = PRODUCT_RELATED_PRODUCT_CATEGORY ( 'part', '', ( #275 ) ) ;
#11 = ORIENTED_EDGE ( 'NONE', *, *, #19, .T. ) ;
#12 = AXIS2_PLACEMENT_3D ( 'NONE', #284, #84, #257 ) ;
#13 = LINE ( 'NONE', #228, #212 ) ;
#14 = CARTESIAN_POINT ( 'NONE',  ( 0.1818504999999994431, 2.318874837419505661E-17, 3.937007999999999619 ) ) ;
#15 = ORIENTED_EDGE ( 'NONE', *, *, #201, .F. ) ;
#16 = FACE_OUTER_BOUND ( 'NONE', #214, .T. ) ;
#17 = PRESENTATION_STYLE_ASSIGNMENT (( #200 ) ) ;
#18 = SURFACE_SIDE_STYLE ('',( #289 ) ) ;
#19 = EDGE_CURVE ( 'NONE', #111, #192, #132, .T. ) ;
#20 = ORIENTED_EDGE ( 'NONE', *, *, #148, .F. ) ;
#21 = DIRECTION ( 'NONE',  ( 0.0000000000000000000, 0.0000000000000000000, 1.000000000000000000 ) ) ;
#22 = VECTOR ( 'NONE', #225, 39.37007874015748143 ) ;
#23 = EDGE_CURVE ( 'NONE', #192, #111, #233, .T. ) ;
#24 = AXIS2_PLACEMENT_3D ( 'NONE', #229, #173, #86 ) ;
#25 = PRODUCT_CONTEXT ( 'NONE', #220, 'mechanical' ) ;
#26 = ORIENTED_EDGE ( 'NONE', *, *, #95, .T. ) ;
#27 = EDGE_CURVE ( 'NONE', #216, #136, #177, .T. ) ;
#28 = ORIENTED_EDGE ( 'NONE', *, *, #273, .F. ) ;
#29 = FACE_OUTER_BOUND ( 'NONE', #107, .T. ) ;
#30 = AXIS2_PLACEMENT_3D ( 'NONE', #281, #126, #109 ) ;
#31 =( NAMED_UNIT ( * ) PLANE_ANGLE_UNIT ( ) SI_UNIT ( $, .RADIAN. ) );
#32 = EDGE_LOOP ( 'NONE', ( #247, #87, #249, #135 ) ) ;
#33 = FACE_OUTER_BOUND ( 'NONE', #78, .T. ) ;
#34 = DIRECTION ( 'NONE',  ( -1.224646799147353207E-16, -0.0000000000000000000, -1.000000000000000000 ) ) ;
#35 = SURFACE_SIDE_STYLE ('',( #89 ) ) ;
#36 = VERTEX_POINT ( 'NONE', #14 ) ;
#37 = AXIS2_PLACEMENT_3D ( 'NONE', #81, #101, #285 ) ;
#38 = CARTESIAN_POINT ( 'NONE',  ( 0.0000000000000000000, 0.0000000000000000000, 3.937007999999999619 ) ) ;
#39 = CARTESIAN_POINT ( 'NONE',  ( 2.949332346337811403E-33, 0.0000000000000000000, 2.408312624008205170E-17 ) ) ;
#40 = CARTESIAN_POINT ( 'NONE',  ( 0.0000000000000000000, 0.0000000000000000000, 0.0000000000000000000 ) ) ;
#41 = VECTOR ( 'NONE', #158, 39.37007874015747433 ) ;
#42 = VECTOR ( 'NONE', #128, 39.37007874015748143 ) ;
#43 =( LENGTH_UNIT ( ) NAMED_UNIT ( * ) SI_UNIT ( $, .METRE. ) );
#44 = PLANE ( 'NONE',  #263 ) ;
#45 = ADVANCED_FACE ( 'NONE', ( #236 ), #152, .T. ) ;
#46 = DIRECTION ( 'NONE',  ( 1.000000000000000000, 0.0000000000000000000, 0.0000000000000000000 ) ) ;
#47 = APPLICATION_PROTOCOL_DEFINITION ( 'draft international standard', 'automotive_design', 1998, #248 ) ;
#48 = AXIS2_PLACEMENT_3D ( 'NONE', #122, #129, #68 ) ;
#49 = EDGE_CURVE ( 'NONE', #196, #156, #74, .T. ) ;
#50 = AXIS2_PLACEMENT_3D ( 'NONE', #39, #6, #8 ) ;
#51 = CARTESIAN_POINT ( 'NONE',  ( 0.0000000000000000000, 0.0000000000000000000, 3.937007999999999619 ) ) ;
#52 = ADVANCED_BREP_SHAPE_REPRESENTATION ( 'Micro_SHLM-100-4', ( #93, #227 ), #207 ) ;
#53 = DIRECTION ( 'NONE',  ( -1.224646799147353207E-16, -0.0000000000000000000, -1.000000000000000000 ) ) ;
#54 = PRODUCT_DEFINITION_SHAPE ( 'NONE', 'NONE',  #143 ) ;
#55 = PRESENTATION_STYLE_ASSIGNMENT (( #280 ) ) ;
#56 = AXIS2_PLACEMENT_3D ( 'NONE', #167, #62, #195 ) ;
#57 = CARTESIAN_POINT ( 'NONE',  ( 0.1966536494999999996, 2.408312624008205170E-17, -2.408312624008205170E-17 ) ) ;
#58 = ORIENTED_EDGE ( 'NONE', *, *, #95, .F. ) ;
#59 = DIRECTION ( 'NONE',  ( 0.0000000000000000000, 0.0000000000000000000, 1.000000000000000000 ) ) ;
#60 = ORIENTED_EDGE ( 'NONE', *, *, #197, .F. ) ;
#61 = DIRECTION ( 'NONE',  ( -1.000000000000000000, 0.0000000000000000000, 0.0000000000000000000 ) ) ;
#62 = DIRECTION ( 'NONE',  ( 0.0000000000000000000, 0.0000000000000000000, -1.000000000000000000 ) ) ;
#63 = ORIENTED_EDGE ( 'NONE', *, *, #185, .F. ) ;
#64 = CIRCLE ( 'NONE', #181, 0.1968504999999999838 ) ;
#65 =( GEOMETRIC_REPRESENTATION_CONTEXT ( 3 ) GLOBAL_UNCERTAINTY_ASSIGNED_CONTEXT ( ( #116 ) ) GLOBAL_UNIT_ASSIGNED_CONTEXT ( ( #176, #217, #140 ) ) REPRESENTATION_CONTEXT ( 'NONE', 'WORKASPACE' ) );
#66 =( NAMED_UNIT ( * ) SI_UNIT ( $, .STERADIAN. ) SOLID_ANGLE_UNIT ( ) );
#67 = EDGE_CURVE ( 'NONE', #156, #196, #163, .T. ) ;
#68 = DIRECTION ( 'NONE',  ( -1.000000000000000000, 0.0000000000000000000, 0.0000000000000000000 ) ) ;
#69 = VERTEX_POINT ( 'NONE', #103 ) ;
#70 = DIRECTION ( 'NONE',  ( -1.224646799147353207E-16, -0.0000000000000000000, -1.000000000000000000 ) ) ;
#71 = ADVANCED_FACE ( 'NONE', ( #16 ), #276, .T. ) ;
#72 =( CONVERSION_BASED_UNIT ( 'INCH', #154 ) LENGTH_UNIT ( ) NAMED_UNIT ( #4 ) );
#73 = CARTESIAN_POINT ( 'NONE',  ( -0.1968504999999999838, 0.0000000000000000000, 3.937007999999999619 ) ) ;
#74 = CIRCLE ( 'NONE', #37, 0.1966536494999999996 ) ;
#75 = ADVANCED_FACE ( 'NONE', ( #191 ), #252, .T. ) ;
#76 = CARTESIAN_POINT ( 'NONE',  ( 0.0000000000000000000, 0.0000000000000000000, 0.0000000000000000000 ) ) ;
#77 = CIRCLE ( 'NONE', #169, 0.1818504999999994431 ) ;
#78 = EDGE_LOOP ( 'NONE', ( #11, #26, #193, #28 ) ) ;
#79 = DIRECTION ( 'NONE',  ( -1.000000000000000000, 0.0000000000000000000, 1.224646799147353207E-16 ) ) ;
#80 = CARTESIAN_POINT ( 'NONE',  ( 2.949332346337811403E-33, 0.0000000000000000000, 2.408312624008205170E-17 ) ) ;
#81 = CARTESIAN_POINT ( 'NONE',  ( 1.832148764272786481E-16, 0.0000000000000000000, 1.496062999999999921 ) ) ;
#82 = CARTESIAN_POINT ( 'NONE',  ( 0.1818504999999994431, 2.227026327483450676E-17, 3.937007999999999619 ) ) ;
#83 =( LENGTH_UNIT ( ) NAMED_UNIT ( * ) SI_UNIT ( $, .METRE. ) );
#84 = DIRECTION ( 'NONE',  ( -0.0000000000000000000, -0.0000000000000000000, -1.000000000000000000 ) ) ;
#85 = DIRECTION ( 'NONE',  ( 1.000000000000000000, 0.0000000000000000000, 0.0000000000000000000 ) ) ;
#86 = DIRECTION ( 'NONE',  ( 1.000000000000000000, 0.0000000000000000000, 0.0000000000000000000 ) ) ;
#87 = ORIENTED_EDGE ( 'NONE', *, *, #160, .F. ) ;
#88 = LENGTH_MEASURE_WITH_UNIT ( LENGTH_MEASURE( 0.02539999999999999897 ), #295 );
#89 = SURFACE_STYLE_FILL_AREA ( #258 ) ;
#90 = ORIENTED_EDGE ( 'NONE', *, *, #23, .T. ) ;
#91 = COLOUR_RGB ( '',0.7921568627450980005, 0.8196078431372548767, 0.9333333333333333481 ) ;
#92 = CARTESIAN_POINT ( 'NONE',  ( 1.833515953421984882E-16, 0.0000000000000000000, 1.497179394661832363 ) ) ;
#93 = MANIFOLD_SOLID_BREP ( 'Cut-Revolve1', #113 ) ;
#94 = CARTESIAN_POINT ( 'NONE',  ( 0.1968505000000001781, 2.410723347355562803E-17, 1.497179394661832363 ) ) ;
#95 = EDGE_CURVE ( 'NONE', #192, #262, #13, .T. ) ;
#96 = AXIS2_PLACEMENT_3D ( 'NONE', #171, #155, #99 ) ;
#97 = DIMENSIONAL_EXPONENTS ( 1.000000000000000000, 0.0000000000000000000, 0.0000000000000000000, 0.0000000000000000000, 0.0000000000000000000, 0.0000000000000000000, 0.0000000000000000000 ) ;
#98 = AXIS2_PLACEMENT_3D ( 'NONE', #80, #53, #79 ) ;
#99 = DIRECTION ( 'NONE',  ( 1.000000000000000000, 0.0000000000000000000, -0.0000000000000000000 ) ) ;
#100 = CARTESIAN_POINT ( 'NONE',  ( 0.1966536494999999996, 2.408312624008205170E-17, 0.0000000000000000000 ) ) ;
#101 = DIRECTION ( 'NONE',  ( -1.224646799147353207E-16, -0.0000000000000000000, -1.000000000000000000 ) ) ;
#102 = AXIS2_PLACEMENT_3D ( 'NONE', #147, #34, #215 ) ;
#103 = CARTESIAN_POINT ( 'NONE',  ( -0.1968504999999998173, 0.0000000000000000000, 1.497179394661832363 ) ) ;
#104 = ORIENTED_EDGE ( 'NONE', *, *, #197, .T. ) ;
#105 = LINE ( 'NONE', #286, #22 ) ;
#106 = ORIENTED_EDGE ( 'NONE', *, *, #239, .T. ) ;
#107 = EDGE_LOOP ( 'NONE', ( #58, #90, #172, #119 ) ) ;
#108 = CARTESIAN_POINT ( 'NONE',  ( -0.1966536494999999996, 0.0000000000000000000, 4.816625248016410340E-17 ) ) ;
#109 = DIRECTION ( 'NONE',  ( -1.000000000000000000, 0.0000000000000000000, 1.224646799147353207E-16 ) ) ;
#110 = DIRECTION ( 'NONE',  ( -1.224646799147353207E-16, -0.0000000000000000000, -1.000000000000000000 ) ) ;
#111 = VERTEX_POINT ( 'NONE', #290 ) ;
#112 = CIRCLE ( 'NONE', #98, 0.1966536494999999996 ) ;
#113 = CLOSED_SHELL ( 'NONE', ( #2, #71, #278, #222, #224, #75, #186, #137, #45, #297 ) ) ;
#114 = DIRECTION ( 'NONE',  ( 1.000000000000000000, 0.0000000000000000000, -0.0000000000000000000 ) ) ;
#115 = DIRECTION ( 'NONE',  ( -0.0000000000000000000, -0.0000000000000000000, -1.000000000000000000 ) ) ;
#116 = UNCERTAINTY_MEASURE_WITH_UNIT (LENGTH_MEASURE( 1.000000000000000082E-05 ), #176, 'distance_accuracy_value', 'NONE');
#117 = CONICAL_SURFACE ( 'NONE', #121, 0.1818504999999994431, 0.7853981633974403964 ) ;
#118 = PRODUCT_DEFINITION_CONTEXT ( 'detailed design', #248, 'design' ) ;
#119 = ORIENTED_EDGE ( 'NONE', *, *, #235, .F. ) ;
#120 = ORIENTED_EDGE ( 'NONE', *, *, #49, .T. ) ;
#121 = AXIS2_PLACEMENT_3D ( 'NONE', #159, #157, #198 ) ;
#122 = CARTESIAN_POINT ( 'NONE',  ( 1.832148764272786481E-16, 0.0000000000000000000, 1.496062999999999921 ) ) ;
#123 = CYLINDRICAL_SURFACE ( 'NONE', #282, 0.1968504999999999838 ) ;
#124 = DIRECTION ( 'NONE',  ( 0.0000000000000000000, 0.0000000000000000000, -1.000000000000000000 ) ) ;
#125 = VECTOR ( 'NONE', #234, 39.37007874015748143 ) ;
#126 = DIRECTION ( 'NONE',  ( -1.224646799147353207E-16, -0.0000000000000000000, -1.000000000000000000 ) ) ;
#127 = ORIENTED_EDGE ( 'NONE', *, *, #160, .T. ) ;
#128 = DIRECTION ( 'NONE',  ( -1.224646799147353207E-16, -0.0000000000000000000, -1.000000000000000000 ) ) ;
#129 = DIRECTION ( 'NONE',  ( -1.224646799147353207E-16, -0.0000000000000000000, -1.000000000000000000 ) ) ;
#130 = ORIENTED_EDGE ( 'NONE', *, *, #253, .F. ) ;
#131 = FILL_AREA_STYLE ('',( #268 ) ) ;
#132 = CIRCLE ( 'NONE', #161, 0.1968504999999999838 ) ;
#133 = PRESENTATION_LAYER_ASSIGNMENT (  '', '', ( #184 ) ) ;
#134 = DIRECTION ( 'NONE',  ( -1.224646799147353207E-16, -0.0000000000000000000, -1.000000000000000000 ) ) ;
#135 = ORIENTED_EDGE ( 'NONE', *, *, #23, .F. ) ;
#136 = VERTEX_POINT ( 'NONE', #108 ) ;
#137 = ADVANCED_FACE ( 'NONE', ( #188 ), #254, .T. ) ;
#138 = CIRCLE ( 'NONE', #292, 0.1968504999999999838 ) ;
#139 = VECTOR ( 'NONE', #194, 39.37007874015748143 ) ;
#140 =( NAMED_UNIT ( * ) SI_UNIT ( $, .STERADIAN. ) SOLID_ANGLE_UNIT ( ) );
#141 = ORIENTED_EDGE ( 'NONE', *, *, #218, .F. ) ;
#142 = DIRECTION ( 'NONE',  ( -1.000000000000000000, 0.0000000000000000000, 0.0000000000000000000 ) ) ;
#143 = PRODUCT_DEFINITION ( 'UNKNOWN', '', #277, #118 ) ;
#144 = CARTESIAN_POINT ( 'NONE',  ( -0.1966536494999998330, 2.409517985681882600E-17, 1.496062999999999921 ) ) ;
#145 = CONICAL_SURFACE ( 'NONE', #246, 0.1818504999999994431, 0.7853981633974403964 ) ;
#146 = LINE ( 'NONE', #250, #125 ) ;
#147 = CARTESIAN_POINT ( 'NONE',  ( 0.0000000000000000000, 0.0000000000000000000, 0.0000000000000000000 ) ) ;
#148 = EDGE_CURVE ( 'NONE', #287, #111, #105, .T. ) ;
#149 = DIRECTION ( 'NONE',  ( 1.224646799147353207E-16, 0.0000000000000000000, 1.000000000000000000 ) ) ;
#150 = ORIENTED_EDGE ( 'NONE', *, *, #185, .T. ) ;
#151 = CARTESIAN_POINT ( 'NONE',  ( 0.0000000000000000000, 0.0000000000000000000, 3.937007999999999619 ) ) ;
#152 = CYLINDRICAL_SURFACE ( 'NONE', #30, 0.1966536494999999996 ) ;
#153 = EDGE_LOOP ( 'NONE', ( #120, #1, #63, #130 ) ) ;
#154 = LENGTH_MEASURE_WITH_UNIT ( LENGTH_MEASURE( 0.02539999999999999897 ), #43 );
#155 = DIRECTION ( 'NONE',  ( 0.0000000000000000000, 0.0000000000000000000, 1.000000000000000000 ) ) ;
#156 = VERTEX_POINT ( 'NONE', #279 ) ;
#157 = DIRECTION ( 'NONE',  ( 0.0000000000000000000, 0.0000000000000000000, -1.000000000000000000 ) ) ;
#158 = DIRECTION ( 'NONE',  ( -0.1736481776669312194, 2.126576849575783625E-17, 0.9848077530122080203 ) ) ;
#159 = CARTESIAN_POINT ( 'NONE',  ( 0.0000000000000000000, 0.0000000000000000000, 3.937007999999999619 ) ) ;
#160 = EDGE_CURVE ( 'NONE', #287, #36, #269, .T. ) ;
#161 = AXIS2_PLACEMENT_3D ( 'NONE', #261, #124, #211 ) ;
#162 = SHAPE_DEFINITION_REPRESENTATION ( #54, #52 ) ;
#163 = CIRCLE ( 'NONE', #48, 0.1966536494999999996 ) ;
#164 = EDGE_LOOP ( 'NONE', ( #15, #232, #175, #20 ) ) ;
#165 = DIRECTION ( 'NONE',  ( 0.0000000000000000000, 0.0000000000000000000, 1.000000000000000000 ) ) ;
#166 = FACE_OUTER_BOUND ( 'NONE', #32, .T. ) ;
#167 = CARTESIAN_POINT ( 'NONE',  ( 0.0000000000000000000, 0.0000000000000000000, 3.922007999999999051 ) ) ;
#168 = CARTESIAN_POINT ( 'NONE',  ( 0.0000000000000000000, 0.0000000000000000000, 3.937007999999999619 ) ) ;
#169 = AXIS2_PLACEMENT_3D ( 'NONE', #38, #165, #209 ) ;
#170 = LINE ( 'NONE', #82, #139 ) ;
#171 = CARTESIAN_POINT ( 'NONE',  ( 0.0000000000000000000, 0.0000000000000000000, 3.937007999999999619 ) ) ;
#172 = ORIENTED_EDGE ( 'NONE', *, *, #273, .T. ) ;
#173 = DIRECTION ( 'NONE',  ( 1.224646799147353207E-16, 0.0000000000000000000, 1.000000000000000000 ) ) ;
#174 = CYLINDRICAL_SURFACE ( 'NONE', #102, 0.1966536494999999996 ) ;
#175 = ORIENTED_EDGE ( 'NONE', *, *, #19, .F. ) ;
#176 =( CONVERSION_BASED_UNIT ( 'INCH', #88 ) LENGTH_UNIT ( ) NAMED_UNIT ( #206 ) );
#177 = CIRCLE ( 'NONE', #50, 0.1966536494999999996 ) ;
#178 = ORIENTED_EDGE ( 'NONE', *, *, #67, .F. ) ;
#179 = EDGE_LOOP ( 'NONE', ( #127, #213 ) ) ;
#180 = CARTESIAN_POINT ( 'NONE',  ( 1.833515953421984882E-16, 0.0000000000000000000, 1.497179394661832363 ) ) ;
#181 = AXIS2_PLACEMENT_3D ( 'NONE', #180, #70, #219 ) ;
#182 = UNCERTAINTY_MEASURE_WITH_UNIT (LENGTH_MEASURE( 1.000000000000000082E-05 ), #72, 'distance_accuracy_value', 'NONE');
#183 = UNCERTAINTY_MEASURE_WITH_UNIT (LENGTH_MEASURE( 1.000000000000000082E-05 ), #202, 'distance_accuracy_value', 'NONE');
#184 = STYLED_ITEM ( 'NONE', ( #17 ), #52 ) ;
#185 = EDGE_CURVE ( 'NONE', #136, #216, #112, .T. ) ;
#186 = ADVANCED_FACE ( 'NONE', ( #166 ), #145, .T. ) ;
#187 = PRESENTATION_LAYER_ASSIGNMENT (  '', '', ( #203 ) ) ;
#188 = FACE_OUTER_BOUND ( 'NONE', #259, .T. ) ;
#189 = FILL_AREA_STYLE_COLOUR ( '', #91 ) ;
#190 = LINE ( 'NONE', #57, #42 ) ;
#191 = FACE_OUTER_BOUND ( 'NONE', #179, .T. ) ;
#192 = VERTEX_POINT ( 'NONE', #255 ) ;
#193 = ORIENTED_EDGE ( 'NONE', *, *, #298, .F. ) ;
#194 = DIRECTION ( 'NONE',  ( 0.7071067811865419106, 8.659560562354863833E-17, -0.7071067811865531239 ) ) ;
#195 = DIRECTION ( 'NONE',  ( 1.000000000000000000, 0.0000000000000000000, 0.0000000000000000000 ) ) ;
#196 = VERTEX_POINT ( 'NONE', #144 ) ;
#197 = EDGE_CURVE ( 'NONE', #156, #262, #146, .T. ) ;
#198 = DIRECTION ( 'NONE',  ( -1.000000000000000000, 0.0000000000000000000, 0.0000000000000000000 ) ) ;
#199 = APPLICATION_PROTOCOL_DEFINITION ( 'draft international standard', 'automotive_design', 1998, #220 ) ;
#200 = SURFACE_STYLE_USAGE ( .BOTH. , #18 ) ;
#201 = EDGE_CURVE ( 'NONE', #36, #287, #77, .T. ) ;
#202 =( CONVERSION_BASED_UNIT ( 'INCH', #241 ) LENGTH_UNIT ( ) NAMED_UNIT ( #97 ) );
#203 = STYLED_ITEM ( 'NONE', ( #55 ), #93 ) ;
#204 = EDGE_CURVE ( 'NONE', #36, #192, #170, .T. ) ;
#205 = ORIENTED_EDGE ( 'NONE', *, *, #298, .T. ) ;
#206 = DIMENSIONAL_EXPONENTS ( 1.000000000000000000, 0.0000000000000000000, 0.0000000000000000000, 0.0000000000000000000, 0.0000000000000000000, 0.0000000000000000000, 0.0000000000000000000 ) ;
#207 =( GEOMETRIC_REPRESENTATION_CONTEXT ( 3 ) GLOBAL_UNCERTAINTY_ASSIGNED_CONTEXT ( ( #182 ) ) GLOBAL_UNIT_ASSIGNED_CONTEXT ( ( #72, #238, #66 ) ) REPRESENTATION_CONTEXT ( 'NONE', 'WORKASPACE' ) );
#208 = EDGE_LOOP ( 'NONE', ( #141, #291, #274, #230 ) ) ;
#209 = DIRECTION ( 'NONE',  ( 1.000000000000000000, 0.0000000000000000000, 0.0000000000000000000 ) ) ;
#210 = DIRECTION ( 'NONE',  ( -0.0000000000000000000, -0.0000000000000000000, -1.000000000000000000 ) ) ;
#211 = DIRECTION ( 'NONE',  ( 1.000000000000000000, 0.0000000000000000000, 0.0000000000000000000 ) ) ;
#212 = VECTOR ( 'NONE', #7, 39.37007874015748143 ) ;
#213 = ORIENTED_EDGE ( 'NONE', *, *, #201, .T. ) ;
#214 = EDGE_LOOP ( 'NONE', ( #266, #106, #205, #60 ) ) ;
#215 = DIRECTION ( 'NONE',  ( -1.000000000000000000, 0.0000000000000000000, 1.224646799147353207E-16 ) ) ;
#216 = VERTEX_POINT ( 'NONE', #100 ) ;
#217 =( NAMED_UNIT ( * ) PLANE_ANGLE_UNIT ( ) SI_UNIT ( $, .RADIAN. ) );
#218 = EDGE_CURVE ( 'NONE', #156, #216, #190, .T. ) ;
#219 = DIRECTION ( 'NONE',  ( 1.000000000000000000, 0.0000000000000000000, 0.0000000000000000000 ) ) ;
#220 = APPLICATION_CONTEXT ( 'automotive_design' ) ;
#221 = MECHANICAL_DESIGN_GEOMETRIC_PRESENTATION_REPRESENTATION (  '', ( #203 ), #299 ) ;
#222 = ADVANCED_FACE ( 'NONE', ( #33 ), #123, .T. ) ;
#223 = AXIS2_PLACEMENT_3D ( 'NONE', #151, #59, #260 ) ;
#224 = ADVANCED_FACE ( 'NONE', ( #29 ), #9, .T. ) ;
#225 = DIRECTION ( 'NONE',  ( -0.7071067811865419106, 0.0000000000000000000, -0.7071067811865531239 ) ) ;
#226 = AXIS2_PLACEMENT_3D ( 'NONE', #231, #149, #85 ) ;
#227 = AXIS2_PLACEMENT_3D ( 'NONE', #76, #245, #271 ) ;
#228 = CARTESIAN_POINT ( 'NONE',  ( 0.1968504999999999838, 2.410723347355560646E-17, 3.937007999999999619 ) ) ;
#229 = CARTESIAN_POINT ( 'NONE',  ( 1.832148764272786481E-16, 0.0000000000000000000, 1.496062999999999921 ) ) ;
#230 = ORIENTED_EDGE ( 'NONE', *, *, #27, .F. ) ;
#231 = CARTESIAN_POINT ( 'NONE',  ( 1.832148764272786481E-16, 0.0000000000000000000, 1.496062999999999921 ) ) ;
#232 = ORIENTED_EDGE ( 'NONE', *, *, #204, .T. ) ;
#233 = CIRCLE ( 'NONE', #56, 0.1968504999999999838 ) ;
#234 = DIRECTION ( 'NONE',  ( 0.1736481776669314137, 0.0000000000000000000, 0.9848077530122077983 ) ) ;
#235 = EDGE_CURVE ( 'NONE', #262, #69, #64, .T. ) ;
#236 = FACE_OUTER_BOUND ( 'NONE', #208, .T. ) ;
#237 = ORIENTED_EDGE ( 'NONE', *, *, #239, .F. ) ;
#238 =( NAMED_UNIT ( * ) PLANE_ANGLE_UNIT ( ) SI_UNIT ( $, .RADIAN. ) );
#239 = EDGE_CURVE ( 'NONE', #196, #69, #243, .T. ) ;
#240 = CARTESIAN_POINT ( 'NONE',  ( -0.1966536494999998330, 2.408312624008205170E-17, 1.496062999999999921 ) ) ;
#241 = LENGTH_MEASURE_WITH_UNIT ( LENGTH_MEASURE( 0.02539999999999999897 ), #83 );
#242 = LINE ( 'NONE', #73, #296 ) ;
#243 = LINE ( 'NONE', #240, #41 ) ;
#244 = COLOUR_RGB ( '',0.7921568627450980005, 0.8196078431372548767, 0.9333333333333333481 ) ;
#245 = DIRECTION ( 'NONE',  ( 0.0000000000000000000, 0.0000000000000000000, 1.000000000000000000 ) ) ;
#246 = AXIS2_PLACEMENT_3D ( 'NONE', #168, #251, #61 ) ;
#247 = ORIENTED_EDGE ( 'NONE', *, *, #204, .F. ) ;
#248 = APPLICATION_CONTEXT ( 'automotive_design' ) ;
#249 = ORIENTED_EDGE ( 'NONE', *, *, #148, .T. ) ;
#250 = CARTESIAN_POINT ( 'NONE',  ( 0.1966536495000001661, 0.0000000000000000000, 1.496062999999999921 ) ) ;
#251 = DIRECTION ( 'NONE',  ( 0.0000000000000000000, 0.0000000000000000000, -1.000000000000000000 ) ) ;
#252 = PLANE ( 'NONE',  #96 ) ;
#253 = EDGE_CURVE ( 'NONE', #196, #136, #270, .T. ) ;
#254 = CONICAL_SURFACE ( 'NONE', #24, 0.1966536494999999996, 0.1745329251994339192 ) ;
#255 = CARTESIAN_POINT ( 'NONE',  ( 0.1968504999999999838, 2.410723347355560646E-17, 3.922007999999999051 ) ) ;
#256 = FACE_OUTER_BOUND ( 'NONE', #153, .T. ) ;
#257 = DIRECTION ( 'NONE',  ( -1.000000000000000000, 0.0000000000000000000, 0.0000000000000000000 ) ) ;
#258 = FILL_AREA_STYLE ('',( #189 ) ) ;
#259 = EDGE_LOOP ( 'NONE', ( #237, #178, #104, #3 ) ) ;
#260 = DIRECTION ( 'NONE',  ( 1.000000000000000000, 0.0000000000000000000, 0.0000000000000000000 ) ) ;
#261 = CARTESIAN_POINT ( 'NONE',  ( 0.0000000000000000000, 0.0000000000000000000, 3.922007999999999051 ) ) ;
#262 = VERTEX_POINT ( 'NONE', #94 ) ;
#263 = AXIS2_PLACEMENT_3D ( 'NONE', #40, #21, #114 ) ;
#264 = CARTESIAN_POINT ( 'NONE',  ( -0.1818504999999994431, 0.0000000000000000000, 3.937007999999999619 ) ) ;
#265 = ORIENTED_EDGE ( 'NONE', *, *, #27, .T. ) ;
#266 = ORIENTED_EDGE ( 'NONE', *, *, #49, .F. ) ;
#267 = CARTESIAN_POINT ( 'NONE',  ( -0.1966536494999999996, 0.0000000000000000000, 2.408312624008205170E-17 ) ) ;
#268 = FILL_AREA_STYLE_COLOUR ( '', #244 ) ;
#269 = CIRCLE ( 'NONE', #223, 0.1818504999999994431 ) ;
#270 = LINE ( 'NONE', #267, #272 ) ;
#271 = DIRECTION ( 'NONE',  ( 1.000000000000000000, 0.0000000000000000000, 0.0000000000000000000 ) ) ;
#272 = VECTOR ( 'NONE', #110, 39.37007874015748143 ) ;
#273 = EDGE_CURVE ( 'NONE', #111, #69, #242, .T. ) ;
#274 = ORIENTED_EDGE ( 'NONE', *, *, #253, .T. ) ;
#275 = PRODUCT ( 'Micro_SHLM-100-4', 'Micro_SHLM-100-4', '', ( #25 ) ) ;
#276 = CONICAL_SURFACE ( 'NONE', #226, 0.1966536494999999996, 0.1745329251994339192 ) ;
#277 = PRODUCT_DEFINITION_FORMATION_WITH_SPECIFIED_SOURCE ( 'ANY', '', #275, .NOT_KNOWN. ) ;
#278 = ADVANCED_FACE ( 'NONE', ( #294 ), #117, .T. ) ;
#279 = CARTESIAN_POINT ( 'NONE',  ( 0.1966536495000001661, 0.0000000000000000000, 1.496062999999999921 ) ) ;
#280 = SURFACE_STYLE_USAGE ( .BOTH. , #35 ) ;
#281 = CARTESIAN_POINT ( 'NONE',  ( 0.0000000000000000000, 0.0000000000000000000, 0.0000000000000000000 ) ) ;
#282 = AXIS2_PLACEMENT_3D ( 'NONE', #51, #210, #142 ) ;
#283 = MECHANICAL_DESIGN_GEOMETRIC_PRESENTATION_REPRESENTATION (  '', ( #184 ), #65 ) ;
#284 = CARTESIAN_POINT ( 'NONE',  ( 0.0000000000000000000, 0.0000000000000000000, 3.937007999999999619 ) ) ;
#285 = DIRECTION ( 'NONE',  ( -1.000000000000000000, 0.0000000000000000000, 0.0000000000000000000 ) ) ;
#286 = CARTESIAN_POINT ( 'NONE',  ( -0.1818504999999994431, 0.0000000000000000000, 3.937007999999999619 ) ) ;
#287 = VERTEX_POINT ( 'NONE', #264 ) ;
#288 = EDGE_LOOP ( 'NONE', ( #150, #265 ) ) ;
#289 = SURFACE_STYLE_FILL_AREA ( #131 ) ;
#290 = CARTESIAN_POINT ( 'NONE',  ( -0.1968504999999999838, 0.0000000000000000000, 3.922007999999999051 ) ) ;
#291 = ORIENTED_EDGE ( 'NONE', *, *, #67, .T. ) ;
#292 = AXIS2_PLACEMENT_3D ( 'NONE', #92, #134, #46 ) ;
#293 = FACE_OUTER_BOUND ( 'NONE', #288, .T. ) ;
#294 = FACE_OUTER_BOUND ( 'NONE', #164, .T. ) ;
#295 =( LENGTH_UNIT ( ) NAMED_UNIT ( * ) SI_UNIT ( $, .METRE. ) );
#296 = VECTOR ( 'NONE', #115, 39.37007874015748143 ) ;
#297 = ADVANCED_FACE ( 'NONE', ( #293 ), #44, .F. ) ;
#298 = EDGE_CURVE ( 'NONE', #69, #262, #138, .T. ) ;
#299 =( GEOMETRIC_REPRESENTATION_CONTEXT ( 3 ) GLOBAL_UNCERTAINTY_ASSIGNED_CONTEXT ( ( #183 ) ) GLOBAL_UNIT_ASSIGNED_CONTEXT ( ( #202, #31, #5 ) ) REPRESENTATION_CONTEXT ( 'NONE', 'WORKASPACE' ) );
ENDSEC;
END-ISO-10303-21;
