ISO-10303-21;
HEADER;
FILE_DESCRIPTION (( 'STEP AP214' ),
    '1' );
FILE_NAME ('Micro_SFL-125-24.STEP',
    '2021-09-02T04:38:34',
    ( '' ),
    ( '' ),
    'SwSTEP 2.0',
    'SolidWorks 2020',
    '' );
FILE_SCHEMA (( 'AUTOMOTIVE_DESIGN' ));
ENDSEC;

DATA;
#1 = EDGE_CURVE ( 'NONE', #222, #79, #31, .T. ) ;
#2 = DIRECTION ( 'NONE',  ( -1.000000000000000000, 0.0000000000000000000, 1.224646799147353207E-16 ) ) ;
#3 = CARTESIAN_POINT ( 'NONE',  ( 0.06250000000000000000, 7.654042494670956004E-18, 1.485000000000000764 ) ) ;
#4 = AXIS2_PLACEMENT_3D ( 'NONE', #100, #19, #158 ) ;
#5 = CARTESIAN_POINT ( 'NONE',  ( 0.06243750000000005546, 0.0000000000000000000, 0.5000000000000000000 ) ) ;
#6 = ORIENTED_EDGE ( 'NONE', *, *, #113, .T. ) ;
#7 = LINE ( 'NONE', #283, #135 ) ;
#8 = SURFACE_STYLE_USAGE ( .BOTH. , #174 ) ;
#9 = DIRECTION ( 'NONE',  ( -1.000000000000000000, 0.0000000000000000000, 1.224646799147353700E-16 ) ) ;
#10 = AXIS2_PLACEMENT_3D ( 'NONE', #131, #230, #272 ) ;
#11 = AXIS2_PLACEMENT_3D ( 'NONE', #110, #213, #173 ) ;
#12 = ORIENTED_EDGE ( 'NONE', *, *, #89, .T. ) ;
#13 = ORIENTED_EDGE ( 'NONE', *, *, #43, .T. ) ;
#14 = VECTOR ( 'NONE', #261, 39.37007874015748143 ) ;
#15 = CIRCLE ( 'NONE', #51, 0.06243750000000001382 ) ;
#16 = AXIS2_PLACEMENT_3D ( 'NONE', #25, #42, #132 ) ;
#17 = ADVANCED_FACE ( 'NONE', ( #120 ), #224, .T. ) ;
#18 = FACE_OUTER_BOUND ( 'NONE', #240, .T. ) ;
#19 = DIRECTION ( 'NONE',  ( 0.0000000000000000000, 0.0000000000000000000, -1.000000000000000000 ) ) ;
#20 = DIRECTION ( 'NONE',  ( -1.000000000000000000, 0.0000000000000000000, 1.224646799147353700E-16 ) ) ;
#21 = PLANE ( 'NONE',  #134 ) ;
#22 = EDGE_CURVE ( 'NONE', #96, #228, #181, .T. ) ;
#23 = DIRECTION ( 'NONE',  ( -0.7071067811865456854, 0.0000000000000000000, -0.7071067811865493491 ) ) ;
#24 = PRODUCT_DEFINITION_CONTEXT ( 'detailed design', #203, 'design' ) ;
#25 = CARTESIAN_POINT ( 'NONE',  ( 0.0000000000000000000, 0.0000000000000000000, 1.500000000000000222 ) ) ;
#26 = CYLINDRICAL_SURFACE ( 'NONE', #45, 0.06243749999999999994 ) ;
#27 = LENGTH_MEASURE_WITH_UNIT ( LENGTH_MEASURE( 0.02539999999999999897 ), #130 );
#28 = AXIS2_PLACEMENT_3D ( 'NONE', #189, #41, #231 ) ;
#29 = AXIS2_PLACEMENT_3D ( 'NONE', #202, #286, #244 ) ;
#30 = ORIENTED_EDGE ( 'NONE', *, *, #53, .F. ) ;
#31 = CIRCLE ( 'NONE', #195, 0.06250000000000000000 ) ;
#32 = AXIS2_PLACEMENT_3D ( 'NONE', #176, #37, #274 ) ;
#33 = SURFACE_STYLE_USAGE ( .BOTH. , #278 ) ;
#34 = ORIENTED_EDGE ( 'NONE', *, *, #252, .F. ) ;
#35 = VECTOR ( 'NONE', #155, 39.37007874015748143 ) ;
#36 = STYLED_ITEM ( 'NONE', ( #55 ), #290 ) ;
#37 = DIRECTION ( 'NONE',  ( 0.0000000000000000000, 0.0000000000000000000, 1.000000000000000000 ) ) ;
#38 = ORIENTED_EDGE ( 'NONE', *, *, #89, .F. ) ;
#39 = LINE ( 'NONE', #86, #225 ) ;
#40 = CIRCLE ( 'NONE', #216, 0.06243749999999999301 ) ;
#41 = DIRECTION ( 'NONE',  ( 1.224646799147353454E-16, 0.0000000000000000000, 1.000000000000000000 ) ) ;
#42 = DIRECTION ( 'NONE',  ( 0.0000000000000000000, 0.0000000000000000000, 1.000000000000000000 ) ) ;
#43 = EDGE_CURVE ( 'NONE', #281, #277, #118, .T. ) ;
#44 = DIRECTION ( 'NONE',  ( 0.0000000000000000000, 0.0000000000000000000, -1.000000000000000000 ) ) ;
#45 = AXIS2_PLACEMENT_3D ( 'NONE', #139, #239, #20 ) ;
#46 = CARTESIAN_POINT ( 'NONE',  ( -0.06243749999999993749, 7.650215473423621689E-18, 0.5000000000000000000 ) ) ;
#47 = ORIENTED_EDGE ( 'NONE', *, *, #241, .F. ) ;
#48 = VECTOR ( 'NONE', #209, 39.37007874015748143 ) ;
#49 = CONICAL_SURFACE ( 'NONE', #192, 0.06243749999999999301, 0.1745329251994339748 ) ;
#50 = CARTESIAN_POINT ( 'NONE',  ( 6.123233995736767268E-17, 0.0000000000000000000, 0.5000000000000000000 ) ) ;
#51 = AXIS2_PLACEMENT_3D ( 'NONE', #218, #137, #2 ) ;
#52 = CARTESIAN_POINT ( 'NONE',  ( 0.06243750000000001382, 7.646388452176287375E-18, 0.0000000000000000000 ) ) ;
#53 = EDGE_CURVE ( 'NONE', #94, #281, #40, .T. ) ;
#54 = PRESENTATION_STYLE_ASSIGNMENT (( #33 ) ) ;
#55 = PRESENTATION_STYLE_ASSIGNMENT (( #8 ) ) ;
#56 = EDGE_LOOP ( 'NONE', ( #91, #57, #193, #284 ) ) ;
#57 = ORIENTED_EDGE ( 'NONE', *, *, #138, .T. ) ;
#58 = FILL_AREA_STYLE ('',( #78 ) ) ;
#59 = DIRECTION ( 'NONE',  ( 0.7071067811865456854, 8.659560562354911904E-17, -0.7071067811865493491 ) ) ;
#60 = DIRECTION ( 'NONE',  ( 0.0000000000000000000, 0.0000000000000000000, 1.000000000000000000 ) ) ;
#61 = CARTESIAN_POINT ( 'NONE',  ( 0.0000000000000000000, 0.0000000000000000000, 1.500000000000000222 ) ) ;
#62 = LINE ( 'NONE', #160, #48 ) ;
#63 =( NAMED_UNIT ( * ) SI_UNIT ( $, .STERADIAN. ) SOLID_ANGLE_UNIT ( ) );
#64 = CARTESIAN_POINT ( 'NONE',  ( 0.0000000000000000000, 0.0000000000000000000, 0.0000000000000000000 ) ) ;
#65 = ORIENTED_EDGE ( 'NONE', *, *, #252, .T. ) ;
#66 = EDGE_CURVE ( 'NONE', #228, #79, #84, .T. ) ;
#67 = ORIENTED_EDGE ( 'NONE', *, *, #144, .F. ) ;
#68 = ORIENTED_EDGE ( 'NONE', *, *, #214, .F. ) ;
#69 = VECTOR ( 'NONE', #182, 39.37007874015748143 ) ;
#70 = FILL_AREA_STYLE_COLOUR ( '', #187 ) ;
#71 = ADVANCED_FACE ( 'NONE', ( #128 ), #112, .T. ) ;
#72 = VERTEX_POINT ( 'NONE', #276 ) ;
#73 = DIMENSIONAL_EXPONENTS ( 1.000000000000000000, 0.0000000000000000000, 0.0000000000000000000, 0.0000000000000000000, 0.0000000000000000000, 0.0000000000000000000, 0.0000000000000000000 ) ;
#74 = DIRECTION ( 'NONE',  ( -1.224646799147353454E-16, -0.0000000000000000000, -1.000000000000000000 ) ) ;
#75 = ADVANCED_FACE ( 'NONE', ( #270 ), #253, .T. ) ;
#76 = DIRECTION ( 'NONE',  ( 1.000000000000000000, 0.0000000000000000000, 0.0000000000000000000 ) ) ;
#77 = MECHANICAL_DESIGN_GEOMETRIC_PRESENTATION_REPRESENTATION (  '', ( #250 ), #299 ) ;
#78 = FILL_AREA_STYLE_COLOUR ( '', #285 ) ;
#79 = VERTEX_POINT ( 'NONE', #236 ) ;
#80 = CARTESIAN_POINT ( 'NONE',  ( 6.123233995736767268E-17, 0.0000000000000000000, 0.5000000000000000000 ) ) ;
#81 = DIRECTION ( 'NONE',  ( 0.0000000000000000000, 0.0000000000000000000, -1.000000000000000000 ) ) ;
#82 = CARTESIAN_POINT ( 'NONE',  ( 0.0000000000000000000, 0.0000000000000000000, 1.500000000000000222 ) ) ;
#83 =( GEOMETRIC_REPRESENTATION_CONTEXT ( 3 ) GLOBAL_UNCERTAINTY_ASSIGNED_CONTEXT ( ( #217 ) ) GLOBAL_UNIT_ASSIGNED_CONTEXT ( ( #125, #227, #143 ) ) REPRESENTATION_CONTEXT ( 'NONE', 'WORKASPACE' ) );
#84 = LINE ( 'NONE', #207, #35 ) ;
#85 = CARTESIAN_POINT ( 'NONE',  ( -0.06243750000000001382, 0.0000000000000000000, 1.529277690435257783E-17 ) ) ;
#86 = CARTESIAN_POINT ( 'NONE',  ( -0.06243749999999999994, 0.0000000000000000000, 7.646388452176288915E-18 ) ) ;
#87 = EDGE_CURVE ( 'NONE', #281, #94, #249, .T. ) ;
#88 = VECTOR ( 'NONE', #59, 39.37007874015748143 ) ;
#89 = EDGE_CURVE ( 'NONE', #115, #277, #279, .T. ) ;
#90 = ORIENTED_EDGE ( 'NONE', *, *, #138, .F. ) ;
#91 = ORIENTED_EDGE ( 'NONE', *, *, #66, .F. ) ;
#92 = AXIS2_PLACEMENT_3D ( 'NONE', #184, #293, #273 ) ;
#93 = CARTESIAN_POINT ( 'NONE',  ( 0.04750000000000064587, 5.817072295950006528E-18, 1.500000000000000222 ) ) ;
#94 = VERTEX_POINT ( 'NONE', #46 ) ;
#95 =( LENGTH_UNIT ( ) NAMED_UNIT ( * ) SI_UNIT ( $, .METRE. ) );
#96 = VERTEX_POINT ( 'NONE', #275 ) ;
#97 = PRODUCT_CONTEXT ( 'NONE', #262, 'mechanical' ) ;
#98 = CARTESIAN_POINT ( 'NONE',  ( 0.0000000000000000000, 0.0000000000000000000, 0.0000000000000000000 ) ) ;
#99 = LENGTH_MEASURE_WITH_UNIT ( LENGTH_MEASURE( 0.02539999999999999897 ), #180 );
#100 = CARTESIAN_POINT ( 'NONE',  ( 0.0000000000000000000, 0.0000000000000000000, 1.500000000000000222 ) ) ;
#101 = LINE ( 'NONE', #234, #220 ) ;
#102 = ADVANCED_FACE ( 'NONE', ( #103 ), #21, .F. ) ;
#103 = FACE_OUTER_BOUND ( 'NONE', #123, .T. ) ;
#104 = AXIS2_PLACEMENT_3D ( 'NONE', #98, #178, #9 ) ;
#105 = AXIS2_PLACEMENT_3D ( 'NONE', #109, #212, #298 ) ;
#106 = CARTESIAN_POINT ( 'NONE',  ( -0.04750000000000064587, 0.0000000000000000000, 1.500000000000000222 ) ) ;
#107 = FACE_OUTER_BOUND ( 'NONE', #56, .T. ) ;
#108 = EDGE_CURVE ( 'NONE', #94, #222, #62, .T. ) ;
#109 = CARTESIAN_POINT ( 'NONE',  ( 6.127574818941428501E-17, 0.0000000000000000000, 0.5003544551137261154 ) ) ;
#110 = CARTESIAN_POINT ( 'NONE',  ( 0.0000000000000000000, 0.0000000000000000000, 1.500000000000000222 ) ) ;
#111 = ORIENTED_EDGE ( 'NONE', *, *, #144, .T. ) ;
#112 = CONICAL_SURFACE ( 'NONE', #28, 0.06243749999999999301, 0.1745329251994339748 ) ;
#113 = EDGE_CURVE ( 'NONE', #94, #115, #39, .T. ) ;
#114 = DIRECTION ( 'NONE',  ( 1.224646799147353454E-16, 0.0000000000000000000, 1.000000000000000000 ) ) ;
#115 = VERTEX_POINT ( 'NONE', #85 ) ;
#116 = ORIENTED_EDGE ( 'NONE', *, *, #294, .T. ) ;
#117 = PRODUCT_DEFINITION_SHAPE ( 'NONE', 'NONE',  #287 ) ;
#118 = LINE ( 'NONE', #201, #14 ) ;
#119 = CLOSED_SHELL ( 'NONE', ( #17, #71, #159, #75, #154, #163, #124, #282, #188, #102 ) ) ;
#120 = FACE_OUTER_BOUND ( 'NONE', #175, .T. ) ;
#121 = APPLICATION_PROTOCOL_DEFINITION ( 'draft international standard', 'automotive_design', 1998, #262 ) ;
#122 = CONICAL_SURFACE ( 'NONE', #4, 0.04750000000000064587, 0.7853981633974457255 ) ;
#123 = EDGE_LOOP ( 'NONE', ( #12, #116 ) ) ;
#124 = ADVANCED_FACE ( 'NONE', ( #211 ), #122, .T. ) ;
#125 =( CONVERSION_BASED_UNIT ( 'INCH', #99 ) LENGTH_UNIT ( ) NAMED_UNIT ( #152 ) );
#126 = ORIENTED_EDGE ( 'NONE', *, *, #53, .T. ) ;
#127 = ORIENTED_EDGE ( 'NONE', *, *, #214, .T. ) ;
#128 = FACE_OUTER_BOUND ( 'NONE', #165, .T. ) ;
#129 = CONICAL_SURFACE ( 'NONE', #235, 0.04750000000000064587, 0.7853981633974457255 ) ;
#130 =( LENGTH_UNIT ( ) NAMED_UNIT ( * ) SI_UNIT ( $, .METRE. ) );
#131 = CARTESIAN_POINT ( 'NONE',  ( 9.364125142994979186E-34, 0.0000000000000000000, 7.646388452176288915E-18 ) ) ;
#132 = DIRECTION ( 'NONE',  ( 1.000000000000000000, 0.0000000000000000000, -0.0000000000000000000 ) ) ;
#133 = DIRECTION ( 'NONE',  ( 1.000000000000000000, 0.0000000000000000000, 0.0000000000000000000 ) ) ;
#134 = AXIS2_PLACEMENT_3D ( 'NONE', #64, #60, #248 ) ;
#135 = VECTOR ( 'NONE', #164, 39.37007874015748143 ) ;
#136 = DIRECTION ( 'NONE',  ( -1.000000000000000000, 0.0000000000000000000, 0.0000000000000000000 ) ) ;
#137 = DIRECTION ( 'NONE',  ( -1.224646799147353454E-16, -0.0000000000000000000, -1.000000000000000000 ) ) ;
#138 = EDGE_CURVE ( 'NONE', #228, #72, #166, .T. ) ;
#139 = CARTESIAN_POINT ( 'NONE',  ( 0.0000000000000000000, 0.0000000000000000000, 0.0000000000000000000 ) ) ;
#140 = AXIS2_PLACEMENT_3D ( 'NONE', #295, #255, #191 ) ;
#141 = FACE_OUTER_BOUND ( 'NONE', #149, .T. ) ;
#142 = ORIENTED_EDGE ( 'NONE', *, *, #87, .F. ) ;
#143 =( NAMED_UNIT ( * ) SI_UNIT ( $, .STERADIAN. ) SOLID_ANGLE_UNIT ( ) );
#144 = EDGE_CURVE ( 'NONE', #196, #72, #101, .T. ) ;
#145 = CARTESIAN_POINT ( 'NONE',  ( 0.0000000000000000000, 0.0000000000000000000, 1.485000000000000764 ) ) ;
#146 = PRODUCT ( 'Micro_SFL-125-24', 'Micro_SFL-125-24', '', ( #97 ) ) ;
#147 =( NAMED_UNIT ( * ) PLANE_ANGLE_UNIT ( ) SI_UNIT ( $, .RADIAN. ) );
#148 = ORIENTED_EDGE ( 'NONE', *, *, #208, .F. ) ;
#149 = EDGE_LOOP ( 'NONE', ( #169, #142, #127, #226 ) ) ;
#150 =( CONVERSION_BASED_UNIT ( 'INCH', #247 ) LENGTH_UNIT ( ) NAMED_UNIT ( #73 ) );
#151 = DIRECTION ( 'NONE',  ( -1.000000000000000000, 0.0000000000000000000, 0.0000000000000000000 ) ) ;
#152 = DIMENSIONAL_EXPONENTS ( 1.000000000000000000, 0.0000000000000000000, 0.0000000000000000000, 0.0000000000000000000, 0.0000000000000000000, 0.0000000000000000000, 0.0000000000000000000 ) ;
#153 = CARTESIAN_POINT ( 'NONE',  ( 0.06243750000000005546, 0.0000000000000000000, 0.5000000000000000000 ) ) ;
#154 = ADVANCED_FACE ( 'NONE', ( #107 ), #229, .T. ) ;
#155 = DIRECTION ( 'NONE',  ( -0.0000000000000000000, -0.0000000000000000000, -1.000000000000000000 ) ) ;
#156 = DIMENSIONAL_EXPONENTS ( 1.000000000000000000, 0.0000000000000000000, 0.0000000000000000000, 0.0000000000000000000, 0.0000000000000000000, 0.0000000000000000000, 0.0000000000000000000 ) ;
#157 = PLANE ( 'NONE',  #16 ) ;
#158 = DIRECTION ( 'NONE',  ( -1.000000000000000000, 0.0000000000000000000, 0.0000000000000000000 ) ) ;
#159 = ADVANCED_FACE ( 'NONE', ( #18 ), #129, .T. ) ;
#160 = CARTESIAN_POINT ( 'NONE',  ( -0.06243749999999993749, 7.646388452176285834E-18, 0.5000000000000000000 ) ) ;
#161 = CIRCLE ( 'NONE', #11, 0.04750000000000064587 ) ;
#162 =( CONVERSION_BASED_UNIT ( 'INCH', #27 ) LENGTH_UNIT ( ) NAMED_UNIT ( #156 ) );
#163 = ADVANCED_FACE ( 'NONE', ( #185 ), #157, .T. ) ;
#164 = DIRECTION ( 'NONE',  ( -0.0000000000000000000, -0.0000000000000000000, -1.000000000000000000 ) ) ;
#165 = EDGE_LOOP ( 'NONE', ( #30, #238, #289, #68 ) ) ;
#166 = CIRCLE ( 'NONE', #177, 0.06250000000000000000 ) ;
#167 =( GEOMETRIC_REPRESENTATION_CONTEXT ( 3 ) GLOBAL_UNCERTAINTY_ASSIGNED_CONTEXT ( ( #292 ) ) GLOBAL_UNIT_ASSIGNED_CONTEXT ( ( #150, #147, #183 ) ) REPRESENTATION_CONTEXT ( 'NONE', 'WORKASPACE' ) );
#168 =( NAMED_UNIT ( * ) PLANE_ANGLE_UNIT ( ) SI_UNIT ( $, .RADIAN. ) );
#169 = ORIENTED_EDGE ( 'NONE', *, *, #108, .F. ) ;
#170 = ORIENTED_EDGE ( 'NONE', *, *, #113, .F. ) ;
#171 = EDGE_CURVE ( 'NONE', #79, #222, #210, .T. ) ;
#172 = SHAPE_DEFINITION_REPRESENTATION ( #117, #290 ) ;
#173 = DIRECTION ( 'NONE',  ( 1.000000000000000000, 0.0000000000000000000, 0.0000000000000000000 ) ) ;
#174 = SURFACE_SIDE_STYLE ('',( #291 ) ) ;
#175 = EDGE_LOOP ( 'NONE', ( #126, #13, #38, #170 ) ) ;
#176 = CARTESIAN_POINT ( 'NONE',  ( 0.0000000000000000000, 0.0000000000000000000, 1.500000000000000222 ) ) ;
#177 = AXIS2_PLACEMENT_3D ( 'NONE', #254, #44, #133 ) ;
#178 = DIRECTION ( 'NONE',  ( -1.224646799147353454E-16, -0.0000000000000000000, -1.000000000000000000 ) ) ;
#179 = PRESENTATION_LAYER_ASSIGNMENT (  '', '', ( #250 ) ) ;
#180 =( LENGTH_UNIT ( ) NAMED_UNIT ( * ) SI_UNIT ( $, .METRE. ) );
#181 = LINE ( 'NONE', #93, #88 ) ;
#182 = DIRECTION ( 'NONE',  ( 0.1736481776669314692, 0.0000000000000000000, 0.9848077530122077983 ) ) ;
#183 =( NAMED_UNIT ( * ) SI_UNIT ( $, .STERADIAN. ) SOLID_ANGLE_UNIT ( ) );
#184 = CARTESIAN_POINT ( 'NONE',  ( 6.123233995736767268E-17, 0.0000000000000000000, 0.5000000000000000000 ) ) ;
#185 = FACE_OUTER_BOUND ( 'NONE', #267, .T. ) ;
#186 = FILL_AREA_STYLE ('',( #70 ) ) ;
#187 = COLOUR_RGB ( '',0.7921568627450980005, 0.8196078431372548767, 0.9333333333333333481 ) ;
#188 = ADVANCED_FACE ( 'NONE', ( #259 ), #26, .T. ) ;
#189 = CARTESIAN_POINT ( 'NONE',  ( 6.123233995736767268E-17, 0.0000000000000000000, 0.5000000000000000000 ) ) ;
#190 = DIRECTION ( 'NONE',  ( -0.0000000000000000000, -0.0000000000000000000, -1.000000000000000000 ) ) ;
#191 = DIRECTION ( 'NONE',  ( -1.000000000000000000, 0.0000000000000000000, 0.0000000000000000000 ) ) ;
#192 = AXIS2_PLACEMENT_3D ( 'NONE', #50, #114, #197 ) ;
#193 = ORIENTED_EDGE ( 'NONE', *, *, #264, .T. ) ;
#194 = EDGE_LOOP ( 'NONE', ( #237, #148, #111, #90 ) ) ;
#195 = AXIS2_PLACEMENT_3D ( 'NONE', #242, #74, #76 ) ;
#196 = VERTEX_POINT ( 'NONE', #106 ) ;
#197 = DIRECTION ( 'NONE',  ( 1.000000000000000000, 0.0000000000000000000, 0.0000000000000000000 ) ) ;
#198 = ORIENTED_EDGE ( 'NONE', *, *, #22, .T. ) ;
#199 = AXIS2_PLACEMENT_3D ( 'NONE', #61, #190, #151 ) ;
#200 = CIRCLE ( 'NONE', #32, 0.04750000000000064587 ) ;
#201 = CARTESIAN_POINT ( 'NONE',  ( 0.06243749999999999994, 7.646388452176287375E-18, -7.646388452176288915E-18 ) ) ;
#202 = CARTESIAN_POINT ( 'NONE',  ( 0.0000000000000000000, 0.0000000000000000000, 0.0000000000000000000 ) ) ;
#203 = APPLICATION_CONTEXT ( 'automotive_design' ) ;
#204 = ORIENTED_EDGE ( 'NONE', *, *, #87, .T. ) ;
#205 = PRODUCT_DEFINITION_FORMATION_WITH_SPECIFIED_SOURCE ( 'ANY', '', #146, .NOT_KNOWN. ) ;
#206 = DIRECTION ( 'NONE',  ( -1.224646799147353454E-16, -0.0000000000000000000, -1.000000000000000000 ) ) ;
#207 = CARTESIAN_POINT ( 'NONE',  ( 0.06250000000000000000, 7.654042494670956004E-18, 1.500000000000000222 ) ) ;
#208 = EDGE_CURVE ( 'NONE', #196, #96, #161, .T. ) ;
#209 = DIRECTION ( 'NONE',  ( -0.1736481776669312471, 2.126576849575783933E-17, 0.9848077530122077983 ) ) ;
#210 = CIRCLE ( 'NONE', #105, 0.06250000000000000000 ) ;
#211 = FACE_OUTER_BOUND ( 'NONE', #194, .T. ) ;
#212 = DIRECTION ( 'NONE',  ( -1.224646799147353454E-16, -0.0000000000000000000, -1.000000000000000000 ) ) ;
#213 = DIRECTION ( 'NONE',  ( 0.0000000000000000000, 0.0000000000000000000, 1.000000000000000000 ) ) ;
#214 = EDGE_CURVE ( 'NONE', #281, #79, #263, .T. ) ;
#215 = ORIENTED_EDGE ( 'NONE', *, *, #43, .F. ) ;
#216 = AXIS2_PLACEMENT_3D ( 'NONE', #80, #206, #296 ) ;
#217 = UNCERTAINTY_MEASURE_WITH_UNIT (LENGTH_MEASURE( 1.000000000000000082E-05 ), #125, 'distance_accuracy_value', 'NONE');
#218 = CARTESIAN_POINT ( 'NONE',  ( 9.364125142994979186E-34, 0.0000000000000000000, 7.646388452176288915E-18 ) ) ;
#219 = CARTESIAN_POINT ( 'NONE',  ( -0.06249999999999993755, 0.0000000000000000000, 0.5003544551137261154 ) ) ;
#220 = VECTOR ( 'NONE', #23, 39.37007874015748143 ) ;
#221 = ORIENTED_EDGE ( 'NONE', *, *, #208, .T. ) ;
#222 = VERTEX_POINT ( 'NONE', #219 ) ;
#223 = APPLICATION_PROTOCOL_DEFINITION ( 'draft international standard', 'automotive_design', 1998, #203 ) ;
#224 = CYLINDRICAL_SURFACE ( 'NONE', #104, 0.06243749999999999994 ) ;
#225 = VECTOR ( 'NONE', #251, 39.37007874015748143 ) ;
#226 = ORIENTED_EDGE ( 'NONE', *, *, #171, .T. ) ;
#227 =( NAMED_UNIT ( * ) PLANE_ANGLE_UNIT ( ) SI_UNIT ( $, .RADIAN. ) );
#228 = VERTEX_POINT ( 'NONE', #3 ) ;
#229 = CYLINDRICAL_SURFACE ( 'NONE', #140, 0.06250000000000000000 ) ;
#230 = DIRECTION ( 'NONE',  ( -1.224646799147353454E-16, -0.0000000000000000000, -1.000000000000000000 ) ) ;
#231 = DIRECTION ( 'NONE',  ( 1.000000000000000000, 0.0000000000000000000, 0.0000000000000000000 ) ) ;
#232 = SURFACE_STYLE_FILL_AREA ( #186 ) ;
#233 = MANIFOLD_SOLID_BREP ( 'Cut-Revolve1', #119 ) ;
#234 = CARTESIAN_POINT ( 'NONE',  ( -0.04750000000000064587, 0.0000000000000000000, 1.500000000000000222 ) ) ;
#235 = AXIS2_PLACEMENT_3D ( 'NONE', #82, #297, #136 ) ;
#236 = CARTESIAN_POINT ( 'NONE',  ( 0.06250000000000005551, 7.654042494670962167E-18, 0.5003544551137261154 ) ) ;
#237 = ORIENTED_EDGE ( 'NONE', *, *, #22, .F. ) ;
#238 = ORIENTED_EDGE ( 'NONE', *, *, #108, .T. ) ;
#239 = DIRECTION ( 'NONE',  ( -1.224646799147353454E-16, -0.0000000000000000000, -1.000000000000000000 ) ) ;
#240 = EDGE_LOOP ( 'NONE', ( #34, #198, #47, #67 ) ) ;
#241 = EDGE_CURVE ( 'NONE', #72, #228, #266, .T. ) ;
#242 = CARTESIAN_POINT ( 'NONE',  ( 6.127574818941428501E-17, 0.0000000000000000000, 0.5003544551137261154 ) ) ;
#243 = ORIENTED_EDGE ( 'NONE', *, *, #66, .T. ) ;
#244 = DIRECTION ( 'NONE',  ( 1.000000000000000000, 0.0000000000000000000, 0.0000000000000000000 ) ) ;
#245 = ORIENTED_EDGE ( 'NONE', *, *, #1, .F. ) ;
#246 = ORIENTED_EDGE ( 'NONE', *, *, #264, .F. ) ;
#247 = LENGTH_MEASURE_WITH_UNIT ( LENGTH_MEASURE( 0.02539999999999999897 ), #95 );
#248 = DIRECTION ( 'NONE',  ( 1.000000000000000000, 0.0000000000000000000, -0.0000000000000000000 ) ) ;
#249 = CIRCLE ( 'NONE', #92, 0.06243749999999999301 ) ;
#250 = STYLED_ITEM ( 'NONE', ( #54 ), #233 ) ;
#251 = DIRECTION ( 'NONE',  ( -1.224646799147353454E-16, -0.0000000000000000000, -1.000000000000000000 ) ) ;
#252 = EDGE_CURVE ( 'NONE', #96, #196, #200, .T. ) ;
#253 = CYLINDRICAL_SURFACE ( 'NONE', #199, 0.06250000000000000000 ) ;
#254 = CARTESIAN_POINT ( 'NONE',  ( 0.0000000000000000000, 0.0000000000000000000, 1.485000000000000764 ) ) ;
#255 = DIRECTION ( 'NONE',  ( -0.0000000000000000000, -0.0000000000000000000, -1.000000000000000000 ) ) ;
#256 = MECHANICAL_DESIGN_GEOMETRIC_PRESENTATION_REPRESENTATION (  '', ( #36 ), #167 ) ;
#257 = ORIENTED_EDGE ( 'NONE', *, *, #241, .T. ) ;
#258 = PRESENTATION_LAYER_ASSIGNMENT (  '', '', ( #36 ) ) ;
#259 = FACE_OUTER_BOUND ( 'NONE', #260, .T. ) ;
#260 = EDGE_LOOP ( 'NONE', ( #215, #204, #6, #265 ) ) ;
#261 = DIRECTION ( 'NONE',  ( -1.224646799147353454E-16, -0.0000000000000000000, -1.000000000000000000 ) ) ;
#262 = APPLICATION_CONTEXT ( 'automotive_design' ) ;
#263 = LINE ( 'NONE', #153, #69 ) ;
#264 = EDGE_CURVE ( 'NONE', #72, #222, #7, .T. ) ;
#265 = ORIENTED_EDGE ( 'NONE', *, *, #294, .F. ) ;
#266 = CIRCLE ( 'NONE', #280, 0.06250000000000000000 ) ;
#267 = EDGE_LOOP ( 'NONE', ( #221, #65 ) ) ;
#268 = DIRECTION ( 'NONE',  ( 1.000000000000000000, 0.0000000000000000000, 0.0000000000000000000 ) ) ;
#269 = UNCERTAINTY_MEASURE_WITH_UNIT (LENGTH_MEASURE( 1.000000000000000082E-05 ), #162, 'distance_accuracy_value', 'NONE');
#270 = FACE_OUTER_BOUND ( 'NONE', #288, .T. ) ;
#271 = PRODUCT_RELATED_PRODUCT_CATEGORY ( 'part', '', ( #146 ) ) ;
#272 = DIRECTION ( 'NONE',  ( -1.000000000000000000, 0.0000000000000000000, 1.224646799147353207E-16 ) ) ;
#273 = DIRECTION ( 'NONE',  ( -1.000000000000000000, 0.0000000000000000000, 0.0000000000000000000 ) ) ;
#274 = DIRECTION ( 'NONE',  ( 1.000000000000000000, 0.0000000000000000000, 0.0000000000000000000 ) ) ;
#275 = CARTESIAN_POINT ( 'NONE',  ( 0.04750000000000064587, 6.735557395310482421E-18, 1.500000000000000222 ) ) ;
#276 = CARTESIAN_POINT ( 'NONE',  ( -0.06250000000000000000, 0.0000000000000000000, 1.485000000000000764 ) ) ;
#277 = VERTEX_POINT ( 'NONE', #52 ) ;
#278 = SURFACE_SIDE_STYLE ('',( #232 ) ) ;
#279 = CIRCLE ( 'NONE', #10, 0.06243750000000001382 ) ;
#280 = AXIS2_PLACEMENT_3D ( 'NONE', #145, #81, #268 ) ;
#281 = VERTEX_POINT ( 'NONE', #5 ) ;
#282 = ADVANCED_FACE ( 'NONE', ( #141 ), #49, .T. ) ;
#283 = CARTESIAN_POINT ( 'NONE',  ( -0.06250000000000000000, 0.0000000000000000000, 1.500000000000000222 ) ) ;
#284 = ORIENTED_EDGE ( 'NONE', *, *, #171, .F. ) ;
#285 = COLOUR_RGB ( '',0.7921568627450980005, 0.8196078431372548767, 0.9333333333333333481 ) ;
#286 = DIRECTION ( 'NONE',  ( 0.0000000000000000000, 0.0000000000000000000, 1.000000000000000000 ) ) ;
#287 = PRODUCT_DEFINITION ( 'UNKNOWN', '', #205, #24 ) ;
#288 = EDGE_LOOP ( 'NONE', ( #257, #243, #245, #246 ) ) ;
#289 = ORIENTED_EDGE ( 'NONE', *, *, #1, .T. ) ;
#290 = ADVANCED_BREP_SHAPE_REPRESENTATION ( 'Micro_SFL-125-24', ( #233, #29 ), #83 ) ;
#291 = SURFACE_STYLE_FILL_AREA ( #58 ) ;
#292 = UNCERTAINTY_MEASURE_WITH_UNIT (LENGTH_MEASURE( 1.000000000000000082E-05 ), #150, 'distance_accuracy_value', 'NONE');
#293 = DIRECTION ( 'NONE',  ( -1.224646799147353454E-16, -0.0000000000000000000, -1.000000000000000000 ) ) ;
#294 = EDGE_CURVE ( 'NONE', #277, #115, #15, .T. ) ;
#295 = CARTESIAN_POINT ( 'NONE',  ( 0.0000000000000000000, 0.0000000000000000000, 1.500000000000000222 ) ) ;
#296 = DIRECTION ( 'NONE',  ( -1.000000000000000000, 0.0000000000000000000, 0.0000000000000000000 ) ) ;
#297 = DIRECTION ( 'NONE',  ( 0.0000000000000000000, 0.0000000000000000000, -1.000000000000000000 ) ) ;
#298 = DIRECTION ( 'NONE',  ( 1.000000000000000000, 0.0000000000000000000, 0.0000000000000000000 ) ) ;
#299 =( GEOMETRIC_REPRESENTATION_CONTEXT ( 3 ) GLOBAL_UNCERTAINTY_ASSIGNED_CONTEXT ( ( #269 ) ) GLOBAL_UNIT_ASSIGNED_CONTEXT ( ( #162, #168, #63 ) ) REPRESENTATION_CONTEXT ( 'NONE', 'WORKASPACE' ) );
ENDSEC;
END-ISO-10303-21;
