ISO-10303-21;
HEADER;
FILE_DESCRIPTION (( 'STEP AP214' ),
    '1' );
FILE_NAME ('Micro_GEM-562-4.STEP',
    '2021-09-01T20:56:50',
    ( '' ),
    ( '' ),
    'SwSTEP 2.0',
    'SolidWorks 2020',
    '' );
FILE_SCHEMA (( 'AUTOMOTIVE_DESIGN' ));
ENDSEC;

DATA;
#1 = ORIENTED_EDGE ( 'NONE', *, *, #278, .T. ) ;
#2 = DIRECTION ( 'NONE',  ( -1.224646799147353207E-16, -0.0000000000000000000, -1.000000000000000000 ) ) ;
#3 = CIRCLE ( 'NONE', #270, 0.2662500000000004863 ) ;
#4 = CARTESIAN_POINT ( 'NONE',  ( 0.0000000000000000000, 0.0000000000000000000, 3.500000000000000000 ) ) ;
#5 = EDGE_CURVE ( 'NONE', #70, #213, #136, .T. ) ;
#6 = AXIS2_PLACEMENT_3D ( 'NONE', #271, #54, #272 ) ;
#7 = DIRECTION ( 'NONE',  ( 1.000000000000000000, 0.0000000000000000000, 0.0000000000000000000 ) ) ;
#8 = EDGE_LOOP ( 'NONE', ( #282, #116 ) ) ;
#9 = AXIS2_PLACEMENT_3D ( 'NONE', #217, #267, #158 ) ;
#10 = EDGE_CURVE ( 'NONE', #65, #290, #3, .T. ) ;
#11 = ORIENTED_EDGE ( 'NONE', *, *, #199, .F. ) ;
#12 =( NAMED_UNIT ( * ) PLANE_ANGLE_UNIT ( ) SI_UNIT ( $, .RADIAN. ) );
#13 = ORIENTED_EDGE ( 'NONE', *, *, #178, .F. ) ;
#14 = DIRECTION ( 'NONE',  ( -1.224646799147353207E-16, -0.0000000000000000000, -1.000000000000000000 ) ) ;
#15 = SURFACE_STYLE_USAGE ( .BOTH. , #216 ) ;
#16 = APPLICATION_CONTEXT ( 'automotive_design' ) ;
#17 =( NAMED_UNIT ( * ) PLANE_ANGLE_UNIT ( ) SI_UNIT ( $, .RADIAN. ) );
#18 = CARTESIAN_POINT ( 'NONE',  ( 0.0000000000000000000, 0.0000000000000000000, 3.500000000000000000 ) ) ;
#19 = CONICAL_SURFACE ( 'NONE', #23, 0.2809687499999999338, 0.1745329251994338637 ) ;
#20 = CARTESIAN_POINT ( 'NONE',  ( -0.2812500000000000555, 0.0000000000000000000, 3.500000000000000000 ) ) ;
#21 = UNCERTAINTY_MEASURE_WITH_UNIT (LENGTH_MEASURE( 1.000000000000000082E-05 ), #193, 'distance_accuracy_value', 'NONE');
#22 = CYLINDRICAL_SURFACE ( 'NONE', #37, 0.2812500000000000555 ) ;
#23 = AXIS2_PLACEMENT_3D ( 'NONE', #180, #119, #268 ) ;
#24 = PRESENTATION_STYLE_ASSIGNMENT (( #279 ) ) ;
#25 = FACE_OUTER_BOUND ( 'NONE', #8, .T. ) ;
#26 = MANIFOLD_SOLID_BREP ( 'Cut-Revolve1', #34 ) ;
#27 = LINE ( 'NONE', #80, #261 ) ;
#28 = CARTESIAN_POINT ( 'NONE',  ( -0.2809687499999998228, 3.442596963040630068E-17, 1.250000000000000000 ) ) ;
#29 = ORIENTED_EDGE ( 'NONE', *, *, #277, .F. ) ;
#30 = DIRECTION ( 'NONE',  ( -1.224646799147353207E-16, -0.0000000000000000000, -1.000000000000000000 ) ) ;
#31 = ORIENTED_EDGE ( 'NONE', *, *, #233, .T. ) ;
#32 = LINE ( 'NONE', #130, #83 ) ;
#33 = EDGE_CURVE ( 'NONE', #42, #213, #50, .T. ) ;
#34 = CLOSED_SHELL ( 'NONE', ( #98, #120, #66, #112, #299, #197, #58, #62, #295, #96 ) ) ;
#35 =( GEOMETRIC_REPRESENTATION_CONTEXT ( 3 ) GLOBAL_UNCERTAINTY_ASSIGNED_CONTEXT ( ( #124 ) ) GLOBAL_UNIT_ASSIGNED_CONTEXT ( ( #198, #97, #109 ) ) REPRESENTATION_CONTEXT ( 'NONE', 'WORKASPACE' ) );
#36 = ORIENTED_EDGE ( 'NONE', *, *, #5, .T. ) ;
#37 = AXIS2_PLACEMENT_3D ( 'NONE', #18, #123, #294 ) ;
#38 = ORIENTED_EDGE ( 'NONE', *, *, #277, .T. ) ;
#39 = AXIS2_PLACEMENT_3D ( 'NONE', #214, #293, #47 ) ;
#40 = VERTEX_POINT ( 'NONE', #173 ) ;
#41 = EDGE_CURVE ( 'NONE', #40, #42, #156, .T. ) ;
#42 = VERTEX_POINT ( 'NONE', #121 ) ;
#43 = CYLINDRICAL_SURFACE ( 'NONE', #284, 0.2809687499999999338 ) ;
#44 = APPLICATION_PROTOCOL_DEFINITION ( 'draft international standard', 'automotive_design', 1998, #16 ) ;
#45 = ORIENTED_EDGE ( 'NONE', *, *, #89, .F. ) ;
#46 = AXIS2_PLACEMENT_3D ( 'NONE', #162, #82, #145 ) ;
#47 = DIRECTION ( 'NONE',  ( 1.000000000000000000, 0.0000000000000000000, -0.0000000000000000000 ) ) ;
#48 = SHAPE_DEFINITION_REPRESENTATION ( #238, #77 ) ;
#49 = FACE_OUTER_BOUND ( 'NONE', #53, .T. ) ;
#50 = CIRCLE ( 'NONE', #155, 0.2812500000000000555 ) ;
#51 = AXIS2_PLACEMENT_3D ( 'NONE', #147, #200, #101 ) ;
#52 = CARTESIAN_POINT ( 'NONE',  ( 4.213856314347737298E-33, 0.0000000000000000000, 3.440874803479328548E-17 ) ) ;
#53 = EDGE_LOOP ( 'NONE', ( #237, #1, #205, #134 ) ) ;
#54 = DIRECTION ( 'NONE',  ( -1.224646799147353207E-16, -0.0000000000000000000, -1.000000000000000000 ) ) ;
#55 = PLANE ( 'NONE',  #46 ) ;
#56 = ORIENTED_EDGE ( 'NONE', *, *, #5, .F. ) ;
#57 = SURFACE_STYLE_FILL_AREA ( #191 ) ;
#58 = ADVANCED_FACE ( 'NONE', ( #72 ), #232, .T. ) ;
#59 = APPLICATION_PROTOCOL_DEFINITION ( 'draft international standard', 'automotive_design', 1998, #87 ) ;
#60 =( CONVERSION_BASED_UNIT ( 'INCH', #227 ) LENGTH_UNIT ( ) NAMED_UNIT ( #202 ) );
#61 = VECTOR ( 'NONE', #258, 39.37007874015748143 ) ;
#62 = ADVANCED_FACE ( 'NONE', ( #122 ), #209, .T. ) ;
#63 = VERTEX_POINT ( 'NONE', #287 ) ;
#64 = SURFACE_STYLE_FILL_AREA ( #113 ) ;
#65 = VERTEX_POINT ( 'NONE', #138 ) ;
#66 = ADVANCED_FACE ( 'NONE', ( #179 ), #137, .T. ) ;
#67 = CIRCLE ( 'NONE', #139, 0.2662500000000004863 ) ;
#68 = ORIENTED_EDGE ( 'NONE', *, *, #278, .F. ) ;
#69 = FACE_OUTER_BOUND ( 'NONE', #150, .T. ) ;
#70 = VERTEX_POINT ( 'NONE', #220 ) ;
#71 =( NAMED_UNIT ( * ) SI_UNIT ( $, .STERADIAN. ) SOLID_ANGLE_UNIT ( ) );
#72 = FACE_OUTER_BOUND ( 'NONE', #225, .T. ) ;
#73 = DIRECTION ( 'NONE',  ( -1.000000000000000000, 0.0000000000000000000, 1.224646799147353454E-16 ) ) ;
#74 = VECTOR ( 'NONE', #292, 39.37007874015748143 ) ;
#75 = FACE_OUTER_BOUND ( 'NONE', #84, .T. ) ;
#76 = DIRECTION ( 'NONE',  ( -1.000000000000000000, 0.0000000000000000000, 0.0000000000000000000 ) ) ;
#77 = ADVANCED_BREP_SHAPE_REPRESENTATION ( 'Micro_GEM-562-4', ( #26, #182 ), #35 ) ;
#78 = LINE ( 'NONE', #249, #189 ) ;
#79 = ORIENTED_EDGE ( 'NONE', *, *, #159, .F. ) ;
#80 = CARTESIAN_POINT ( 'NONE',  ( -0.2662500000000004863, 0.0000000000000000000, 3.500000000000000000 ) ) ;
#81 = ORIENTED_EDGE ( 'NONE', *, *, #223, .T. ) ;
#82 = DIRECTION ( 'NONE',  ( 0.0000000000000000000, 0.0000000000000000000, 1.000000000000000000 ) ) ;
#83 = VECTOR ( 'NONE', #204, 39.37007874015748143 ) ;
#84 = EDGE_LOOP ( 'NONE', ( #68, #100, #210, #13 ) ) ;
#85 = CARTESIAN_POINT ( 'NONE',  ( 0.2809687500000001004, 0.0000000000000000000, 1.250000000000000000 ) ) ;
#86 =( LENGTH_UNIT ( ) NAMED_UNIT ( * ) SI_UNIT ( $, .METRE. ) );
#87 = APPLICATION_CONTEXT ( 'automotive_design' ) ;
#88 = CARTESIAN_POINT ( 'NONE',  ( 1.532761869376289433E-16, 0.0000000000000000000, 1.251595048011768130 ) ) ;
#89 = EDGE_CURVE ( 'NONE', #154, #264, #132, .T. ) ;
#90 = DIRECTION ( 'NONE',  ( -1.224646799147353207E-16, -0.0000000000000000000, -1.000000000000000000 ) ) ;
#91 = ORIENTED_EDGE ( 'NONE', *, *, #167, .F. ) ;
#92 = AXIS2_PLACEMENT_3D ( 'NONE', #153, #115, #241 ) ;
#93 = CARTESIAN_POINT ( 'NONE',  ( 0.0000000000000000000, 0.0000000000000000000, 0.0000000000000000000 ) ) ;
#94 = UNCERTAINTY_MEASURE_WITH_UNIT (LENGTH_MEASURE( 1.000000000000000082E-05 ), #60, 'distance_accuracy_value', 'NONE');
#95 = FACE_OUTER_BOUND ( 'NONE', #149, .T. ) ;
#96 = ADVANCED_FACE ( 'NONE', ( #69 ), #263, .F. ) ;
#97 =( NAMED_UNIT ( * ) PLANE_ANGLE_UNIT ( ) SI_UNIT ( $, .RADIAN. ) );
#98 = ADVANCED_FACE ( 'NONE', ( #248 ), #43, .T. ) ;
#99 = DIRECTION ( 'NONE',  ( -1.000000000000000000, 0.0000000000000000000, 1.224646799147353454E-16 ) ) ;
#100 = ORIENTED_EDGE ( 'NONE', *, *, #218, .T. ) ;
#101 = DIRECTION ( 'NONE',  ( 1.000000000000000000, 0.0000000000000000000, 0.0000000000000000000 ) ) ;
#102 = DIRECTION ( 'NONE',  ( 1.000000000000000000, 0.0000000000000000000, 0.0000000000000000000 ) ) ;
#103 = DIRECTION ( 'NONE',  ( -1.000000000000000000, 0.0000000000000000000, 0.0000000000000000000 ) ) ;
#104 = STYLED_ITEM ( 'NONE', ( #110 ), #26 ) ;
#105 =( LENGTH_UNIT ( ) NAMED_UNIT ( * ) SI_UNIT ( $, .METRE. ) );
#106 = SURFACE_SIDE_STYLE ('',( #57 ) ) ;
#107 = PRODUCT_RELATED_PRODUCT_CATEGORY ( 'part', '', ( #244 ) ) ;
#108 = EDGE_LOOP ( 'NONE', ( #234, #38, #171, #91 ) ) ;
#109 =( NAMED_UNIT ( * ) SI_UNIT ( $, .STERADIAN. ) SOLID_ANGLE_UNIT ( ) );
#110 = PRESENTATION_STYLE_ASSIGNMENT (( #15 ) ) ;
#111 = FILL_AREA_STYLE_COLOUR ( '', #141 ) ;
#112 = ADVANCED_FACE ( 'NONE', ( #49 ), #22, .T. ) ;
#113 = FILL_AREA_STYLE ('',( #259 ) ) ;
#114 = AXIS2_PLACEMENT_3D ( 'NONE', #195, #177, #266 ) ;
#115 = DIRECTION ( 'NONE',  ( 1.224646799147353207E-16, 0.0000000000000000000, 1.000000000000000000 ) ) ;
#116 = ORIENTED_EDGE ( 'NONE', *, *, #10, .T. ) ;
#117 = AXIS2_PLACEMENT_3D ( 'NONE', #160, #194, #291 ) ;
#118 = AXIS2_PLACEMENT_3D ( 'NONE', #157, #14, #245 ) ;
#119 = DIRECTION ( 'NONE',  ( 1.224646799147353207E-16, 0.0000000000000000000, 1.000000000000000000 ) ) ;
#120 = ADVANCED_FACE ( 'NONE', ( #95 ), #19, .T. ) ;
#121 = CARTESIAN_POINT ( 'NONE',  ( -0.2812499999999998890, 0.0000000000000000000, 1.251595048011768130 ) ) ;
#122 = FACE_OUTER_BOUND ( 'NONE', #252, .T. ) ;
#123 = DIRECTION ( 'NONE',  ( -0.0000000000000000000, -0.0000000000000000000, -1.000000000000000000 ) ) ;
#124 = UNCERTAINTY_MEASURE_WITH_UNIT (LENGTH_MEASURE( 1.000000000000000082E-05 ), #198, 'distance_accuracy_value', 'NONE');
#125 = LENGTH_MEASURE_WITH_UNIT ( LENGTH_MEASURE( 0.02539999999999999897 ), #183 );
#126 = CARTESIAN_POINT ( 'NONE',  ( -0.2662500000000004863, 0.0000000000000000000, 3.500000000000000000 ) ) ;
#127 = DIRECTION ( 'NONE',  ( -0.0000000000000000000, -0.0000000000000000000, -1.000000000000000000 ) ) ;
#128 = STYLED_ITEM ( 'NONE', ( #24 ), #77 ) ;
#129 = CARTESIAN_POINT ( 'NONE',  ( 0.0000000000000000000, 0.0000000000000000000, 3.500000000000000000 ) ) ;
#130 = CARTESIAN_POINT ( 'NONE',  ( 0.2662500000000004863, 3.260622102729833328E-17, 3.500000000000000000 ) ) ;
#131 = VECTOR ( 'NONE', #201, 39.37007874015748143 ) ;
#132 = CIRCLE ( 'NONE', #118, 0.2809687499999999893 ) ;
#133 = ORIENTED_EDGE ( 'NONE', *, *, #152, .F. ) ;
#134 = ORIENTED_EDGE ( 'NONE', *, *, #41, .F. ) ;
#135 = ORIENTED_EDGE ( 'NONE', *, *, #218, .F. ) ;
#136 = LINE ( 'NONE', #85, #61 ) ;
#137 = CONICAL_SURFACE ( 'NONE', #9, 0.2662500000000004863, 0.7853981633974437271 ) ;
#138 = CARTESIAN_POINT ( 'NONE',  ( 0.2662500000000004863, 3.352470612665882150E-17, 3.500000000000000000 ) ) ;
#139 = AXIS2_PLACEMENT_3D ( 'NONE', #129, #184, #251 ) ;
#140 = DIRECTION ( 'NONE',  ( 1.000000000000000000, 0.0000000000000000000, 0.0000000000000000000 ) ) ;
#141 = COLOUR_RGB ( '',0.7921568627450980005, 0.8196078431372548767, 0.9333333333333333481 ) ;
#142 = DIRECTION ( 'NONE',  ( -0.1736481776669311639, 2.126576849575783008E-17, 0.9848077530122080203 ) ) ;
#143 = CIRCLE ( 'NONE', #219, 0.2812500000000000555 ) ;
#144 = EDGE_CURVE ( 'NONE', #40, #63, #146, .T. ) ;
#145 = DIRECTION ( 'NONE',  ( 1.000000000000000000, 0.0000000000000000000, -0.0000000000000000000 ) ) ;
#146 = CIRCLE ( 'NONE', #117, 0.2812500000000000555 ) ;
#147 = CARTESIAN_POINT ( 'NONE',  ( 0.0000000000000000000, 0.0000000000000000000, 3.485000000000000320 ) ) ;
#148 = LINE ( 'NONE', #181, #188 ) ;
#149 = EDGE_LOOP ( 'NONE', ( #240, #31, #151, #56 ) ) ;
#150 = EDGE_LOOP ( 'NONE', ( #260, #172 ) ) ;
#151 = ORIENTED_EDGE ( 'NONE', *, *, #33, .T. ) ;
#152 = EDGE_CURVE ( 'NONE', #70, #236, #257, .T. ) ;
#153 = CARTESIAN_POINT ( 'NONE',  ( 1.530808498934191571E-16, 0.0000000000000000000, 1.250000000000000000 ) ) ;
#154 = VERTEX_POINT ( 'NONE', #273 ) ;
#155 = AXIS2_PLACEMENT_3D ( 'NONE', #88, #90, #140 ) ;
#156 = LINE ( 'NONE', #20, #74 ) ;
#157 = CARTESIAN_POINT ( 'NONE',  ( 4.213856314347737298E-33, 0.0000000000000000000, 3.440874803479328548E-17 ) ) ;
#158 = DIRECTION ( 'NONE',  ( -1.000000000000000000, 0.0000000000000000000, 0.0000000000000000000 ) ) ;
#159 = EDGE_CURVE ( 'NONE', #290, #65, #67, .T. ) ;
#160 = CARTESIAN_POINT ( 'NONE',  ( 0.0000000000000000000, 0.0000000000000000000, 3.485000000000000320 ) ) ;
#161 = AXIS2_PLACEMENT_3D ( 'NONE', #254, #2, #99 ) ;
#162 = CARTESIAN_POINT ( 'NONE',  ( 0.0000000000000000000, 0.0000000000000000000, 3.500000000000000000 ) ) ;
#163 = DIRECTION ( 'NONE',  ( -0.7071067811865443531, 0.0000000000000000000, -0.7071067811865507924 ) ) ;
#164 = CYLINDRICAL_SURFACE ( 'NONE', #222, 0.2812500000000000555 ) ;
#165 = DIRECTION ( 'NONE',  ( -1.224646799147353207E-16, -0.0000000000000000000, -1.000000000000000000 ) ) ;
#166 = CYLINDRICAL_SURFACE ( 'NONE', #161, 0.2809687499999999338 ) ;
#167 = EDGE_CURVE ( 'NONE', #290, #40, #27, .T. ) ;
#168 = PRESENTATION_LAYER_ASSIGNMENT (  '', '', ( #128 ) ) ;
#169 = EDGE_LOOP ( 'NONE', ( #285, #81, #45, #11 ) ) ;
#170 = DIRECTION ( 'NONE',  ( 0.0000000000000000000, 0.0000000000000000000, 1.000000000000000000 ) ) ;
#171 = ORIENTED_EDGE ( 'NONE', *, *, #144, .F. ) ;
#172 = ORIENTED_EDGE ( 'NONE', *, *, #239, .T. ) ;
#173 = CARTESIAN_POINT ( 'NONE',  ( -0.2812500000000000555, 0.0000000000000000000, 3.485000000000000320 ) ) ;
#174 = ORIENTED_EDGE ( 'NONE', *, *, #152, .T. ) ;
#175 = CARTESIAN_POINT ( 'NONE',  ( 1.530808498934191571E-16, 0.0000000000000000000, 1.250000000000000000 ) ) ;
#176 =( NAMED_UNIT ( * ) SI_UNIT ( $, .STERADIAN. ) SOLID_ANGLE_UNIT ( ) );
#177 = DIRECTION ( 'NONE',  ( 0.0000000000000000000, 0.0000000000000000000, -1.000000000000000000 ) ) ;
#178 = EDGE_CURVE ( 'NONE', #213, #42, #143, .T. ) ;
#179 = FACE_OUTER_BOUND ( 'NONE', #108, .T. ) ;
#180 = CARTESIAN_POINT ( 'NONE',  ( 1.530808498934191571E-16, 0.0000000000000000000, 1.250000000000000000 ) ) ;
#181 = CARTESIAN_POINT ( 'NONE',  ( -0.2809687499999999338, 0.0000000000000000000, 3.440874803479328548E-17 ) ) ;
#182 = AXIS2_PLACEMENT_3D ( 'NONE', #186, #247, #102 ) ;
#183 =( LENGTH_UNIT ( ) NAMED_UNIT ( * ) SI_UNIT ( $, .METRE. ) );
#184 = DIRECTION ( 'NONE',  ( 0.0000000000000000000, 0.0000000000000000000, 1.000000000000000000 ) ) ;
#185 = DIRECTION ( 'NONE',  ( -1.224646799147353207E-16, -0.0000000000000000000, -1.000000000000000000 ) ) ;
#186 = CARTESIAN_POINT ( 'NONE',  ( 0.0000000000000000000, 0.0000000000000000000, 0.0000000000000000000 ) ) ;
#187 = AXIS2_PLACEMENT_3D ( 'NONE', #175, #265, #76 ) ;
#188 = VECTOR ( 'NONE', #185, 39.37007874015748143 ) ;
#189 = VECTOR ( 'NONE', #206, 39.37007874015748143 ) ;
#190 = EDGE_LOOP ( 'NONE', ( #203, #174, #208, #262 ) ) ;
#191 = FILL_AREA_STYLE ('',( #111 ) ) ;
#192 = EDGE_CURVE ( 'NONE', #236, #70, #297, .T. ) ;
#193 =( CONVERSION_BASED_UNIT ( 'INCH', #269 ) LENGTH_UNIT ( ) NAMED_UNIT ( #230 ) );
#194 = DIRECTION ( 'NONE',  ( 0.0000000000000000000, 0.0000000000000000000, -1.000000000000000000 ) ) ;
#195 = CARTESIAN_POINT ( 'NONE',  ( 0.0000000000000000000, 0.0000000000000000000, 3.500000000000000000 ) ) ;
#196 = DIRECTION ( 'NONE',  ( -1.224646799147353207E-16, -0.0000000000000000000, -1.000000000000000000 ) ) ;
#197 = ADVANCED_FACE ( 'NONE', ( #25 ), #55, .T. ) ;
#198 =( CONVERSION_BASED_UNIT ( 'INCH', #125 ) LENGTH_UNIT ( ) NAMED_UNIT ( #280 ) );
#199 = EDGE_CURVE ( 'NONE', #236, #154, #148, .T. ) ;
#200 = DIRECTION ( 'NONE',  ( 0.0000000000000000000, 0.0000000000000000000, -1.000000000000000000 ) ) ;
#201 = DIRECTION ( 'NONE',  ( -1.224646799147353207E-16, -0.0000000000000000000, -1.000000000000000000 ) ) ;
#202 = DIMENSIONAL_EXPONENTS ( 1.000000000000000000, 0.0000000000000000000, 0.0000000000000000000, 0.0000000000000000000, 0.0000000000000000000, 0.0000000000000000000, 0.0000000000000000000 ) ;
#203 = ORIENTED_EDGE ( 'NONE', *, *, #223, .F. ) ;
#204 = DIRECTION ( 'NONE',  ( 0.7071067811865443531, 8.659560562354894648E-17, -0.7071067811865507924 ) ) ;
#205 = ORIENTED_EDGE ( 'NONE', *, *, #33, .F. ) ;
#206 = DIRECTION ( 'NONE',  ( -0.0000000000000000000, -0.0000000000000000000, -1.000000000000000000 ) ) ;
#207 = CIRCLE ( 'NONE', #51, 0.2812500000000000555 ) ;
#208 = ORIENTED_EDGE ( 'NONE', *, *, #199, .T. ) ;
#209 = CONICAL_SURFACE ( 'NONE', #92, 0.2809687499999999338, 0.1745329251994338637 ) ;
#210 = ORIENTED_EDGE ( 'NONE', *, *, #41, .T. ) ;
#211 = ORIENTED_EDGE ( 'NONE', *, *, #233, .F. ) ;
#212 = AXIS2_PLACEMENT_3D ( 'NONE', #52, #30, #231 ) ;
#213 = VERTEX_POINT ( 'NONE', #229 ) ;
#214 = CARTESIAN_POINT ( 'NONE',  ( 0.0000000000000000000, 0.0000000000000000000, 0.0000000000000000000 ) ) ;
#215 = PRESENTATION_LAYER_ASSIGNMENT (  '', '', ( #104 ) ) ;
#216 = SURFACE_SIDE_STYLE ('',( #64 ) ) ;
#217 = CARTESIAN_POINT ( 'NONE',  ( 0.0000000000000000000, 0.0000000000000000000, 3.500000000000000000 ) ) ;
#218 = EDGE_CURVE ( 'NONE', #63, #40, #207, .T. ) ;
#219 = AXIS2_PLACEMENT_3D ( 'NONE', #275, #165, #253 ) ;
#220 = CARTESIAN_POINT ( 'NONE',  ( 0.2809687500000001004, 0.0000000000000000000, 1.250000000000000000 ) ) ;
#221 = PRODUCT_DEFINITION_CONTEXT ( 'detailed design', #16, 'design' ) ;
#222 = AXIS2_PLACEMENT_3D ( 'NONE', #4, #127, #103 ) ;
#223 = EDGE_CURVE ( 'NONE', #70, #264, #250, .T. ) ;
#224 = CARTESIAN_POINT ( 'NONE',  ( -0.2809687499999998228, 3.440874803479328548E-17, 1.250000000000000000 ) ) ;
#225 = EDGE_LOOP ( 'NONE', ( #29, #79, #281, #135 ) ) ;
#226 = CARTESIAN_POINT ( 'NONE',  ( 0.2809687499999999338, 3.440874803479328548E-17, -3.440874803479328548E-17 ) ) ;
#227 = LENGTH_MEASURE_WITH_UNIT ( LENGTH_MEASURE( 0.02539999999999999897 ), #105 );
#228 = MECHANICAL_DESIGN_GEOMETRIC_PRESENTATION_REPRESENTATION (  '', ( #128 ), #288 ) ;
#229 = CARTESIAN_POINT ( 'NONE',  ( 0.2812500000000001665, 3.444319122601932821E-17, 1.251595048011768130 ) ) ;
#230 = DIMENSIONAL_EXPONENTS ( 1.000000000000000000, 0.0000000000000000000, 0.0000000000000000000, 0.0000000000000000000, 0.0000000000000000000, 0.0000000000000000000, 0.0000000000000000000 ) ;
#231 = DIRECTION ( 'NONE',  ( -1.000000000000000000, 0.0000000000000000000, 1.224646799147353207E-16 ) ) ;
#232 = CONICAL_SURFACE ( 'NONE', #114, 0.2662500000000004863, 0.7853981633974437271 ) ;
#233 = EDGE_CURVE ( 'NONE', #236, #42, #298, .T. ) ;
#234 = ORIENTED_EDGE ( 'NONE', *, *, #10, .F. ) ;
#235 = COLOUR_RGB ( '',0.7921568627450980005, 0.8196078431372548767, 0.9333333333333333481 ) ;
#236 = VERTEX_POINT ( 'NONE', #28 ) ;
#237 = ORIENTED_EDGE ( 'NONE', *, *, #144, .T. ) ;
#238 = PRODUCT_DEFINITION_SHAPE ( 'NONE', 'NONE',  #255 ) ;
#239 = EDGE_CURVE ( 'NONE', #264, #154, #286, .T. ) ;
#240 = ORIENTED_EDGE ( 'NONE', *, *, #192, .F. ) ;
#241 = DIRECTION ( 'NONE',  ( 1.000000000000000000, 0.0000000000000000000, 0.0000000000000000000 ) ) ;
#242 =( GEOMETRIC_REPRESENTATION_CONTEXT ( 3 ) GLOBAL_UNCERTAINTY_ASSIGNED_CONTEXT ( ( #21 ) ) GLOBAL_UNIT_ASSIGNED_CONTEXT ( ( #193, #12, #71 ) ) REPRESENTATION_CONTEXT ( 'NONE', 'WORKASPACE' ) );
#243 = ORIENTED_EDGE ( 'NONE', *, *, #178, .T. ) ;
#244 = PRODUCT ( 'Micro_GEM-562-4', 'Micro_GEM-562-4', '', ( #246 ) ) ;
#245 = DIRECTION ( 'NONE',  ( -1.000000000000000000, 0.0000000000000000000, 1.224646799147353207E-16 ) ) ;
#246 = PRODUCT_CONTEXT ( 'NONE', #87, 'mechanical' ) ;
#247 = DIRECTION ( 'NONE',  ( 0.0000000000000000000, 0.0000000000000000000, 1.000000000000000000 ) ) ;
#248 = FACE_OUTER_BOUND ( 'NONE', #169, .T. ) ;
#249 = CARTESIAN_POINT ( 'NONE',  ( 0.2812500000000000555, 3.444319122601930972E-17, 3.500000000000000000 ) ) ;
#250 = LINE ( 'NONE', #226, #131 ) ;
#251 = DIRECTION ( 'NONE',  ( 1.000000000000000000, 0.0000000000000000000, 0.0000000000000000000 ) ) ;
#252 = EDGE_LOOP ( 'NONE', ( #211, #133, #36, #243 ) ) ;
#253 = DIRECTION ( 'NONE',  ( 1.000000000000000000, 0.0000000000000000000, 0.0000000000000000000 ) ) ;
#254 = CARTESIAN_POINT ( 'NONE',  ( 0.0000000000000000000, 0.0000000000000000000, 0.0000000000000000000 ) ) ;
#255 = PRODUCT_DEFINITION ( 'UNKNOWN', '', #256, #221 ) ;
#256 = PRODUCT_DEFINITION_FORMATION_WITH_SPECIFIED_SOURCE ( 'ANY', '', #244, .NOT_KNOWN. ) ;
#257 = CIRCLE ( 'NONE', #187, 0.2809687499999999338 ) ;
#258 = DIRECTION ( 'NONE',  ( 0.1736481776669313581, 0.0000000000000000000, 0.9848077530122077983 ) ) ;
#259 = FILL_AREA_STYLE_COLOUR ( '', #235 ) ;
#260 = ORIENTED_EDGE ( 'NONE', *, *, #89, .T. ) ;
#261 = VECTOR ( 'NONE', #163, 39.37007874015748143 ) ;
#262 = ORIENTED_EDGE ( 'NONE', *, *, #239, .F. ) ;
#263 = PLANE ( 'NONE',  #39 ) ;
#264 = VERTEX_POINT ( 'NONE', #276 ) ;
#265 = DIRECTION ( 'NONE',  ( -1.224646799147353207E-16, -0.0000000000000000000, -1.000000000000000000 ) ) ;
#266 = DIRECTION ( 'NONE',  ( -1.000000000000000000, 0.0000000000000000000, 0.0000000000000000000 ) ) ;
#267 = DIRECTION ( 'NONE',  ( 0.0000000000000000000, 0.0000000000000000000, -1.000000000000000000 ) ) ;
#268 = DIRECTION ( 'NONE',  ( 1.000000000000000000, 0.0000000000000000000, 0.0000000000000000000 ) ) ;
#269 = LENGTH_MEASURE_WITH_UNIT ( LENGTH_MEASURE( 0.02539999999999999897 ), #86 );
#270 = AXIS2_PLACEMENT_3D ( 'NONE', #283, #170, #7 ) ;
#271 = CARTESIAN_POINT ( 'NONE',  ( 1.530808498934191571E-16, 0.0000000000000000000, 1.250000000000000000 ) ) ;
#272 = DIRECTION ( 'NONE',  ( -1.000000000000000000, 0.0000000000000000000, 0.0000000000000000000 ) ) ;
#273 = CARTESIAN_POINT ( 'NONE',  ( -0.2809687499999999893, 0.0000000000000000000, 6.881749606958657096E-17 ) ) ;
#274 = MECHANICAL_DESIGN_GEOMETRIC_PRESENTATION_REPRESENTATION (  '', ( #104 ), #242 ) ;
#275 = CARTESIAN_POINT ( 'NONE',  ( 1.532761869376289433E-16, 0.0000000000000000000, 1.251595048011768130 ) ) ;
#276 = CARTESIAN_POINT ( 'NONE',  ( 0.2809687499999999893, 3.440874803479329165E-17, -7.582401355855259480E-33 ) ) ;
#277 = EDGE_CURVE ( 'NONE', #65, #63, #32, .T. ) ;
#278 = EDGE_CURVE ( 'NONE', #63, #213, #78, .T. ) ;
#279 = SURFACE_STYLE_USAGE ( .BOTH. , #106 ) ;
#280 = DIMENSIONAL_EXPONENTS ( 1.000000000000000000, 0.0000000000000000000, 0.0000000000000000000, 0.0000000000000000000, 0.0000000000000000000, 0.0000000000000000000, 0.0000000000000000000 ) ;
#281 = ORIENTED_EDGE ( 'NONE', *, *, #167, .T. ) ;
#282 = ORIENTED_EDGE ( 'NONE', *, *, #159, .T. ) ;
#283 = CARTESIAN_POINT ( 'NONE',  ( 0.0000000000000000000, 0.0000000000000000000, 3.500000000000000000 ) ) ;
#284 = AXIS2_PLACEMENT_3D ( 'NONE', #93, #196, #73 ) ;
#285 = ORIENTED_EDGE ( 'NONE', *, *, #192, .T. ) ;
#286 = CIRCLE ( 'NONE', #212, 0.2809687499999999893 ) ;
#287 = CARTESIAN_POINT ( 'NONE',  ( 0.2812500000000000555, 3.444319122601930972E-17, 3.485000000000000320 ) ) ;
#288 =( GEOMETRIC_REPRESENTATION_CONTEXT ( 3 ) GLOBAL_UNCERTAINTY_ASSIGNED_CONTEXT ( ( #94 ) ) GLOBAL_UNIT_ASSIGNED_CONTEXT ( ( #60, #17, #176 ) ) REPRESENTATION_CONTEXT ( 'NONE', 'WORKASPACE' ) );
#289 = VECTOR ( 'NONE', #142, 39.37007874015747433 ) ;
#290 = VERTEX_POINT ( 'NONE', #126 ) ;
#291 = DIRECTION ( 'NONE',  ( 1.000000000000000000, 0.0000000000000000000, 0.0000000000000000000 ) ) ;
#292 = DIRECTION ( 'NONE',  ( -0.0000000000000000000, -0.0000000000000000000, -1.000000000000000000 ) ) ;
#293 = DIRECTION ( 'NONE',  ( 0.0000000000000000000, 0.0000000000000000000, 1.000000000000000000 ) ) ;
#294 = DIRECTION ( 'NONE',  ( -1.000000000000000000, 0.0000000000000000000, 0.0000000000000000000 ) ) ;
#295 = ADVANCED_FACE ( 'NONE', ( #296 ), #166, .T. ) ;
#296 = FACE_OUTER_BOUND ( 'NONE', #190, .T. ) ;
#297 = CIRCLE ( 'NONE', #6, 0.2809687499999999338 ) ;
#298 = LINE ( 'NONE', #224, #289 ) ;
#299 = ADVANCED_FACE ( 'NONE', ( #75 ), #164, .T. ) ;
ENDSEC;
END-ISO-10303-21;
